Oops, an error
Loading. Please wait.

Runes To My Memory Bass Tab

ver1
ver1

Whole song

More versions @911Tabs.com
6,139 views 3 this week
1 commentread comment
1 2 3 4 5
excellent!
x 3
Autoscroll
+/-
esc
set tempo
stop
Contributor
NEW! There's an official Ultimate Guitar app which is ideal
for learning songs when you're away from computer. Get the app
WARNING: You are trying to view
                                    content from Ultimate-Guitar.com
                                    in an unauthorized application,
                                    which is prohibited.

                                    Please use an official Ultimate
                                    Guitar Tabs application for iPhone,
                                    iPad or Android to access legitimate
                                    chords, guitar, bass, and drum tabs
                                    from Ultimate-Guitar.com database.

                                    Type "ultimate guitar tabs" in Apple
                                    App Store's or Android Market's
                                    search to find the application.
-------------------------------------------------------------------------------
			     Runes To My Memory – Amon Amarth
-------------------------------------------------------------------------------
Tabbed by:
Tuning: BEADG

There are two ways of playing this song; one way is to play with a pick and do some
picking and option number two is to play with your fingers in triplets; it’s your choice.
a disclaimer, I am not going to write out all the fret numbers in the Intro and
because the number of times the note is played depends on your style of playing. And, as
the Verse, Chorus and Ending riff, you should probably play the notes the way they are
down. The Post-Chorus/ Outro riff needs to be in the same proportions depending on the 
are playing in. Though this is my interpretation, the notes are correct, and I can say 
confidence that I am as close to the original as possible. The timing
be off slightly, but I am sure you guys are smart enough to compensate for it. If you
own a five-string bass, you can tune from lowest to highest BEAD since the G-string plays
role in the bassline of this song. Good luck, and Amon Amarth kicks ass!

Intro:
G|----------------------------------------------------------------------|
D|----------------------------------------------------------------------|
A|----------------------------------------------------------------------|
E|----------------------------------------------------------------------|
B|----8---7-5---------7----8-1------3-1-0-------------------------------|

G|----------------------------------------------------------------------|
D|----------------------------------------------------------------------|
A|----------------------------------------------------------------------|
E|------------------------------------------8--10--8---7-----5----------|
B|----5---7---8------7--5-------7--8------------------------------------|

Verse
G|----------------------------------------------------------------------|
D|----------------------------------------------------------------------|
A|----------------------------------------------------------------------|
E|---3---------3----------3---------3-----------------------------------|
B|------5--0------5--0------5--0------5--0------------------------------|

G|----------------------------------------------------------------------|
D|----------------------------------------------------------------------|
A|----------------------------------------------------------------------|
E|---2----------2---------2---------2-----------------------------------|
B|-------3--0------3--0-----3--0------3--0------------------------------|


G|----------------------------------------------------------------------------|
D|----------------------------------------------------------------------------|
A|----------------------------------------------------------------------------|
E|---3----------3---------3---------3----------------(this part x2)-----------|
B|-------1--0------1--0-----1--0------1--0------------------------------------|

Pre-Chorus:
G|-----------------------------------------------------------------------|
D|-----------------------------------------------------------------------|
A|--3-2--0----2--3----10--9--7-----9--10--12-----7---9--7----9--7----5---|
E|-----------------------------------------------------------------------|
B|-----------------------------------------------------------------------|

Chorus
G|-----------------------------------------------------------------------|
D|-----------------------------------------------------------------------|
A|-----------------------------------------------------------------------|
E|----0---3-----------------0---3----------------------------------------|
B|-------------3---1---3-------------3---1---3---------------------------|


(Post-Chorus/Outro Riff)
G|-----------------------------------------------------------------------|
D|-----------------------------------------------------------------------|
A|-----------------------------------------------------------------------|
E|--00000000-------------------------------------------------------------|
B|-----------33333333-1111111111111111-----------------------------------|

(Ending)
G|--------------------------------------------------------------------------|
D|--------------------------------------------------------------------------|
A|--------------------------------------------------------------------------|
E |--0----------------------------------------------------------------------|
B|--------3----1----0-------------------------------------------------------|


Song Order:

Intro (x2)
Verse (x4)
Pre-Chorus (x2)
Chorus (x2)
Post-Chorus (x2)
Verse (x4)
Pre-Chorus (2x)
Chorus (x3)
Post-Chorus (x2)
Ending (x1)
comments
We did not receive enough feedback on this tab! Please rate:
print report bad tab
1 2 3 4 5
1 comment total.
0 reply
joey121 wrote on March 12 2011, 03:18 pm

great tab... unfortionatly ure making it to hard for ur self...for example instead of doing 7----8-1 you can do 0----3--
-------1

I want to post or [tab]
guest
You may want to rate the tab now too:
select rating
Please do not post tabs as comments. Select "correction" instead!