Oops, an error
Loading. Please wait.

Runes To My Memory Tab

ver7
ver7
More versions @911Tabs.com
733 views 3 this week
no commentswrite comment
1 2 3 4 5
not so good
x 2
Autoscroll
+/-
esc
set tempo
stop
Contributor
Difficulty
Tuning
intermediate
B E A D F# B
WARNING: You are trying to view
                                    content from Ultimate-Guitar.com
                                    in an unauthorized application,
                                    which is prohibited.

                                    Please use an official Ultimate
                                    Guitar Tabs application for iPhone,
                                    iPad or Android to access legitimate
                                    chords, guitar, bass, and drum tabs
                                    from Ultimate-Guitar.com database.

                                    Type "ultimate guitar tabs" in Apple
                                    App Store's or Android Market's
                                    search to find the application.
-------------------------------------------------------------------------------
                            Runes to My Memory - Amon Amarth
-------------------------------------------------------------------------------
Tabbed by:QAAS
Email:hangar666@hotmail.it

Tuning:7 string standard

  Intro - guitar 1&2 - 32th
e|---------------------------------|-----------------------------------|
b|---------------------------------|-----------------------------------|
G|---------------------------------|-----------------------------------|
D|---------------------------------|-----------------------------------|x2
A|---------------------------------|-----------------3--5--3--2--------|
E|--3--2--0--2--3--------------0--2|--3--2--0--2--3--------------5-----|
B|-----------------1--3--1--0------|--------------------------------3--|

  verse - guitar 1
e|----------------------------------------------------|  |
b|----------------------------------------------------|  |
G|----------------------------------------------------|  |
D|----------------------------------------------------|  |
A|--555555555555555555555555333333333333333333333333--|  |
E|--333333333333222222222222333333333333333333333333--|  |
B|----------------------------------------------------|  |
p.m. .. .. .. .. .. .. .. .. .. .. .. .. .. .. .. ..     |x 4
 |guitar 2                                               |
e|----------------------------------------------------|  |
b|----------------------------------------------------|  |
G|----------------------------------------------------|  |
D|----------------------------------------------------|  |
A|----------------------------------------------------|  |
E|--3--3--3--3--2--2--2--2--3--3--3--3--3--3--3--3----|  |
B|---57-57-57-57-35-35-35-35-01-01-01-01-01-01-01-01--|  |
p.m. .. .. .. .. .. .. .. .. .. .. .. .. .. .. .. ..     |

  chorus - guitar 1 - 32th - listen for timing
e|-----------------------------------------------------|  |
b|-----------------------------------------------------|  |
G|-----------------------------------------------------|  |
D|-----------------5--4--2--4--5--7--2--4--2--4--2-----|  |
A|--3--2--0--2--3-----------------------------------5--|  |
E|-----------------------------------------------------|  |
B|-----------------------------------------------------|  |
 |guitar 2  - 32th - listen for timing                    |x 2
e|-----------------------------------------------------|  |
b|-----------------------------------------------------|  |
G|-----------------------------------------------------|  |
D|-----------------------------------------------------|  |
A|-----------------------------------------------------|  |
E|-----------------3--------------5-----2--------0-----|  |
B|--1-----------------------------------------------3--|  |


  bridge - guitar 1
e|-----------------------------------------------|  |
b|-----------------------------------------------|  |
G|--9v----------12--11v----9-/7---9p7------------|  |
D|-----------------------------------10v---------|  |
A|-----------------------------------------------|  |
E|-----------------------------------------------|  |
B|-----------------------------------------------|  |
 |guitar 2                                       |  |
e|---------------|---------------|---------------|  |
b|--8p5----------|--7p5----------|--5p3----------|  |
G|-----h5--------|----h5---------|-----h5--------|  |
D|-4-times-------|-4-times-------|-8-times-------|  |
A|---------------|---------------|---------------|  |
E|---------------|---------------|---------------|  |
B|---------------|---------------|---------------|  |
 |guitar 3                                       |  |
e|---------------|---------------|------------|--|  |
b|---------------|---------------|------------|--|  |
G|--9------------|--3------------|--5---------|7-|  |
D|--9--let-ring--|--3--let-ring--|--5-let-ring|7-|  |
A|--7------------|--5------------|--3---------|5-|  |
E|---------------|---------------|------------|--|  |
B|---------------|---------------|------------|--|  |
                                                 |  |x 2
                                                 |  |
e|-----------------------------------------------|  |
b|--------------------------------12v+----10v----|  |
G|--9v----------12--11v----9-/7------------------|  |
D|-----------------------------------------------|  |
A|-----------------------------------------------|  |
E|-----------------------------------------------|  |
B|-----------------------------------------------|  |
 |                                               |  |
e|---------------|---------------|---------------|  |
b|--8p5----------|--7p5----------|--5p3----------|  |
G|-----h5--------|----h5---------|-----h5--------|  |
D|-4-times-------|-4-times-------|-8-times-------|  |
A|---------------|---------------|---------------|  |
E|---------------|---------------|---------------|  |
B|---------------|---------------|---------------|  |
 |                                               |  |
e|---------------|---------------|------------|--|  |
b|---------------|---------------|------------|--|  |
G|--9------------|--3------------|--5---------|7-|  |
D|--9--let-ring--|--3--let-ring--|--5-let-ring|7-|  |
A|--7------------|--5------------|--3---------|5-|  |
E|---------------|---------------|------------|--|  |
B|---------------|---------------|------------|--|  |
                                                 _  _
  end bridge - guitar 1                          |  |
e|-----------------------------------------------|  |
b|-----------------------------------------------|  |
G|-------------------------------|-repeat2times--|  |
D|-------------------------------|---------------|  |
A|--10-10-10---10-10---9-9---9-9-|---7-7---7-7---|  |
E|-------------------------------|---------------|  |
B|----8--8--8-8--8--7-7-7-7-7-7--|5-5-5-5-5-5----|  | 
 |guitar 2                                       |  |x2
e|---------------|---------------|---------------|  |
b|---------------|---------------|---------------|  |
G|--9------------|--3------------|5--------------|  |
D|--9--let-ring--|--3-let-ring---|5--let-ring----|  |
A|--7------------|--5------------|3--------------|  |
E|---------------|---------------|---------------|  |
B|---------------|---------------|---------------|  |

 
  verse - guitar 1
e|----------------------------------------------------|  |
b|----------------------------------------------------|  |
G|----------------------------------------------------|  |
D|----------------------------------------------------|  |
A|--555555555555555555555555333333333333333333333333--|  |
E|--333333333333222222222222333333333333333333333333--|  |
B|----------------------------------------------------|  |
p.m. .. .. .. .. .. .. .. .. .. .. .. .. .. .. .. ..     |x 4
 |guitar 2                                               |
e|----------------------------------------------------|  |
b|----------------------------------------------------|  |
G|----------------------------------------------------|  |
D|----------------------------------------------------|  |
A|----------------------------------------------------|  |
E|--3--3--3--3--2--2--2--2--3--3--3--3--3--3--3--3----|  |
B|---57-57-57-57-35-35-35-35-01-01-01-01-01-01-01-01--|  |
p.m. .. .. .. .. .. .. .. .. .. .. .. .. .. .. .. ..     |

  chorus - guitar 1 - 32th - listen for timing
e|-----------------------------------------------------|  |
b|-----------------------------------------------------|  |
G|-----------------------------------------------------|  |
D|-----------------5--4--2--4--5--7--2--4--2--4--2-----|  |
A|--3--2--0--2--3-----------------------------------5--|  |
E|-----------------------------------------------------|  |
B|-----------------------------------------------------|  |
 |guitar 2  - 32th - listen for timing                    |x 2
e|-----------------------------------------------------|  |
b|-----------------------------------------------------|  |
G|-----------------------------------------------------|  |
D|-----------------------------------------------------|  |
A|-----------------------------------------------------|  |
E|-----------------3--------------5-----2--------0-----|  |
B|--1-----------------------------------------------3--|  |

  bridge - guitar 1
e|-----------------------------------------------|  |
b|-----------------------------------------------|  |
G|--9v----------12--11v----9-/7---9p7------------|  |
D|-----------------------------------10v---------|  |
A|-----------------------------------------------|  |
E|-----------------------------------------------|  |
B|-----------------------------------------------|  |
 |guitar 2                                       |  |
e|---------------|---------------|---------------|  |
b|--8p5----------|--7p5----------|--5p3----------|  |
G|-----h5--------|----h5---------|-----h5--------|  |
D|-4-times-------|-4-times-------|-8-times-------|  |
A|---------------|---------------|---------------|  |
E|---------------|---------------|---------------|  |
B|---------------|---------------|---------------|  |
 |guitar 3                                       |  |
e|---------------|---------------|---------------|  |
b|---------------|---------------|---------------|  |
G|--9------------|--3------------|--5------------|  |
D|--9--let-ring--|--3--let-ring--|--5--let-ring--|  |
A|--7------------|--5------------|--3------------|  |
E|---------------|---------------|---------------|  |
B|---------------|---------------|---------------|  |
                                                 |  |x 3
                                                 |  |
e|-----------------------------------------------|  |
b|--------------------------------12v+----10v----|  |
G|--9v----------12--11v----9-/7------------------|  |
D|-----------------------------------------------|  |
A|-----------------------------------------------|  |
E|-----------------------------------------------|  |
B|-----------------------------------------------|  |
 |                                               |  |
e|---------------|---------------|---------------|  |
b|--8p5----------|--7p5----------|--5p3----------|  |
G|-----h5--------|----h5---------|-----h5--------|  |
D|-4-times-------|-4-times-------|-8-times-------|  |
A|---------------|---------------|---------------|  |
E|---------------|---------------|---------------|  |
B|---------------|---------------|---------------|  |
 |                                               |  |
e|---------------|---------------|---------------|  |
b|---------------|---------------|---------------|  |
G|--9------------|--3------------|--5------------|  |
D|--9--let-ring--|--3--let-ring--|--5--let-ring--|  |
A|--7------------|--5------------|--3------------|  |
E|---------------|---------------|---------------|  |
B|---------------|---------------|---------------|  |
                                                 _  _
  end bridge - guitar 1                          |  |
e|-----------------------------------------------|  |
b|-----------------------------------------------|  |
G|-------------------------------|-repeat2times--|  |
D|-------------------------------|---------------|  |
A|--10-10-10---10-10---9-9---9-9-|---7-7---7-7---|  |
E|-------------------------------|---------------|  |
B|----8--8--8-8--8--7-7-7-7-7-7--|5-5-5-5-5-5----|  | 
 |guitar 2                                       |  |x2
e|---------------|---------------|---------------|  |
b|---------------|---------------|---------------|  |
G|--9------------|--3------------|5--------------|  |
D|--9--let-ring--|--3-let-ring---|5--let-ring----|  |
A|--7------------|--5------------|3--------------|  |
E|---------------|---------------|---------------|  |
B|---------------|---------------|---------------|  |

  outro - guitar 1
e|--------------------------------------------------------|
b|--------------------------------------------------------|
G|--------------------------------------------------------|
D|--------------------------------------------------------|
A|--10----10-----10-----10----10----9---9---9-------------|
E|---------------------------------------------7---5---2--|
B|------8-----8------8-----8------7---7---7----5---3---0--|
 |guitar 2
e|--------------------------------------------------------|
b|--------------------------------------------------------|
G|--------------------------------------------------------|
D|--9-----------------------------7------------5---3---2--|
A|--7-----------------------------5------------3---2---0--|
E|--------------------------------------------------------|
B|--------------------------------------------------------|







| /  slide up
| \  slide down
| h  hammer-on
| p  pull-off
| ~  vibrato
| +  harmonic
| x  Mute note
===============================================================================
comments
We did not receive enough feedback on this tab! Please rate:
1 2 3 4 5
I want to post or [tab]
guest
You may want to rate the tab now too:
select rating
Please do not post tabs as comments. Select "correction" instead!