Oops, an error
Loading. Please wait.

Tattered Banners And Bloody Flags Tab

ver3
ver3

Whole song

More versions @911Tabs.com
1,578 views 1 this week
no commentswrite comment
1 2 3 4 5
please rate
add to favorites launch autoscroll
font size
0
reset
Autoscroll
+/-
esc
set tempo
stop
Contributor
WARNING: You are trying to view
                                    content from Ultimate-Guitar.com
                                    in an unauthorized application,
                                    which is prohibited.

                                    Please use an official Ultimate
                                    Guitar Tabs application for iPhone,
                                    iPad or Android to access legitimate
                                    chords, guitar, bass, and drum tabs
                                    from Ultimate-Guitar.com database.

                                    Type "ultimate guitar tabs" in Apple
                                    App Store's or Android Market's
                                    search to find the application.
-------------------------------------------------------------------------------
                             Tattered Banners and Bloody Flags - Amon Amarth
-------------------------------------------------------------------------------
Tabbed by:QAAS
Email:hangar666@hotmail.it

Tuning:7th strings

Intro - guitar 1&2                      | 1st&3rd end  | 2nd&4th end - 32th|
e|--------------------------------------|--------------|-------------------|
b|--------------------------------------|--------------|-------------------|
G|--6-66664-44447-77776-66666-66664-4444|--------------|-------------------|
D|--4-44442-22225-55554-44444-44442-2222|2-22224-6666--|-------------------|
A|--------------------------------------|0-00004-4444--|--00000000-44444444|
E|--------------------------------------|--------------|-------------------|
B|--------------------------------------|--------------|-------------------|
p.m . ..... ..... ..... ..... ..... .... . ..... ....


riff 1 - guitar 1 - 32th - listen for timing                    |
e|--------------------------------------------------------|     |
b|--------------------------------------------------------|     |
G|--------------------------------------------------------|x2   |
D|--------------------------------------------------------|     |
A|--7-9--7-9--7-9-/10--9-10-/12--7-9--7-9--7-9-5-7--5-4---|     |
E|------------------------------------------------------5-|     |
B|--------------------------------------------------------|     |
                                                                |
                                                                |
riff 1 - guitar 2 - 32th - listen for timing                    |
e|----------------|-------------|-------------|-----------|     |
b|----------------|-------------|-------------|-----------|     |
G|----------------|-------------|-------------|-----------|     |
D|----------------|-------------|-------------|-----------|x1   |
A|----------------|-------------|-------------|-----------|     |
E|----------------|-------------|-------------|5----------|     |
B|--5-------------|8------------|3------------|-----------|     |
p.m...................................................          |
                                                                |
e|----------------|-------------|-------------|-----------|     |
b|----------------|-------------|-------------|-----------|     |
G|----------------|-------------|-------------|-----------|     |
D|----------------|-------------|-------------|-----------|x1   |
A|----------------|-------------|-------------|-----------|     |
E|----------------|-------------|-------------|5----------|     |
B|--5-------------|8------------|3------------|-----------|     |
     

Intro - guitar 1&2                      | 1st&3rd end  | 2nd&4th end - 32th|
e|--------------------------------------|--------------|-------------------|
b|--------------------------------------|--------------|-------------------|
G|--6-66664-44447-77776-66666-66664-4444|--------------|-------------------|
D|--4-44442-22225-55554-44444-44442-2222|2-22224-6666--|-------------------|
A|--------------------------------------|0-00004-4444--|--00000000-44444444|
E|--------------------------------------|--------------|-------------------|
B|--------------------------------------|--------------|-------------------|
p.m . ..... ..... ..... ..... ..... .... . ..... ....                      |
                                                                           |
guitar 3                                                                   |
e|------|                                                                  |
b|------|                                                                  |
G|------|                                                                  |
D|--4v>-|                                                                  |
A|------|                                                                  |
E|------|                                                                  |
B|------|                                                                  |

riff 1 - guitar 1 - 32th - listen for timing                   |
e|-------------------------------------------------------|     |
b|-------------------------------------------------------|     |
G|-------------------------------------------------------|x4   |
D|-------------------------------------------------------|     |
A|--7-9--7-9--7-9-/10--9-10-/12--7-9--7-9--7-9-5-7--5-4--|     |
E|-----------------------------------------------------5-|     |
B|-------------------------------------------------------|     |
                                                               |
                                                               |
riff 1 - guitar 2 - 32th - listen for timing                   |
e|----------------|-------------|-------------|----------|     |
b|----------------|-------------|-------------|----------|     |
G|----------------|-------------|-------------|----------|     |
D|----------------|-------------|-------------|----------|x2   |
A|----------------|-------------|-------------|----------|     |
E|----------------|-------------|-------------|5---------|     |
B|--5-------------|8------------|3------------|----------|     |
p.m...................................................         |
                                                               |
e|----------------|-------------|-------------|----------|     |
b|----------------|-------------|-------------|----------|     |
G|----------------|-------------|-------------|----------|     |
D|----------------|-------------|-------------|----------|x2   |
A|----------------|-------------|-------------|----------|     |
E|----------------|-------------|-------------|5---------|     |
B|--5-------------|8------------|3------------|----------|     |


Intro - guitar 1&2                      | 1st&3rd end  | 2nd&4th end - 32th|
e|--------------------------------------|--------------|-------------------|
b|--------------------------------------|--------------|-------------------|
G|--6-66664-44447-77776-66666-66664-4444|--------------|-------------------|
D|--4-44442-22225-55554-44444-44442-2222|2-22224-6666--|-------------------|
A|--------------------------------------|0-00004-4444--|--00000000-44444444|
E|--------------------------------------|--------------|-------------------|
B|--------------------------------------|--------------|-------------------|
p.m . ..... ..... ..... ..... ..... .... . ..... ....                      | 
                                                                           |
guitar 3                                                                   |
e|------|                                                                  |
b|------|                                                                  |
G|------|                                                                  |
D|--4v>-|                                                                  |
A|------|                                                                  |
E|------|                                                                  |
B|------|                                                                  |


riff 2 - guitar 1 - listen for timing
e|----------------------------------------------------------------------|   |
b|----------------------------------------------------------------------|   |
G|----------------------------------------------------------------------|   |
D|----------------------------------------------------------------------|   |
A|--11--14--11-14-12-11-----14--11-14-12-11-12-----12-11-9-11--7--9--5--|x1 |
E|----------------------12---------------------14-----------------------|   |
B|----------------------------------------------------------------------|   |
p.m..   .   .  .  .  .  .   .   .  .  .  .  .  .   .  .  . .   .  .  .  |   |
                                                                        |   |
riff 2 - guitar 2 - 32th - listen for timing                            |   |
e|---------------------|----------------------|-----------|---|--|--|---|   |
b|---------------------|----------------------|-----------|---|--|--|---|   |
G|---------------------|----------------------|-----------|---|--|--|---|x1 |
D|---------------------|----------------------|-----------|---|--|--|---|   |
A|---------------------|----------------------|-----------|---|--|--|---|   |
E|--4------------------|----------------------|5----------|4--|--|2-|---|   |
B|---------------------|5---------------------|-----------|---|5-|--|3--|   |
p.m.....................................................................    |
                                                                            |
                                                                            |
riff 2 - guitar 1 - 32th - listen for timing                                |
e|----------------------------------------------------------------------|   |
b|----------------------------------------------------------------------|   |
G|----------------------------------------------------------------------|   |
D|----------------------------------------------------------------------|   |
A|--11--14--11-14-12-11-----14--11-14-12-11-12-----12-11-9-11--7--9--5--|x1 |
E|----------------------12---------------------14-----------------------|   |
B|----------------------------------------------------------------------|   |
                                                                        |   |
                                                                        |   |
riff 2 - guitar 2 - 32th - listen for timing                            |   |
e|---------------------|----------------------|-----------|---|--|--|---|   |
b|---------------------|----------------------|-----------|---|--|--|---|   |
G|---------------------|----------------------|-----------|---|--|--|---|x1 |
D|---------------------|----------------------|-----------|---|--|--|---|   |
A|---------------------|----------------------|-----------|---|--|--|---|   |
E|--4------------------|----------------------|5----------|4--|--|2-|---|   |
B|---------------------|5---------------------|-----------|---|5-|--|3--|   |
p.m.....................................................................    |
                                                                            |
riff 2 - guitar 1 - 32th - listen for timing                                |
e|----------------------------------------------------------------------|   |
b|----------------------------------------------------------------------|   |
G|----------------------------------------------------------------------|   |
D|----------------------------------------------------------------------|   |
A|--11--14--11-14-12-11-----14--11-14-12-11-12-----12-11-9-11--7--9--5--|x2 |
E|----------------------12---------------------14-----------------------|   |
B|----------------------------------------------------------------------|   |
                                                                        |   |
                                                                        |   |
riff 2 - guitar 2 - 32th - listen for timing                            |   |
e|---------------------|----------------------|-----------|---|--|--|---|   |
b|---------------------|----------------------|-----------|---|--|--|---|   |
G|---------------------|----------------------|-----------|---|--|--|---|x2 |
D|---------------------|----------------------|-----------|---|--|--|---|   |
A|---------------------|----------------------|-----------|---|--|--|---|   |
E|--4------------------|----------------------|5----------|4--|--|2-|---|   |
B|---------------------|5---------------------|-----------|---|5-|--|3--|   |
                

bridge - guitar 1                                              |
e|---------|---------|--------------------|                    |
b|---------|---------|--------------------|                    |
G|---------|---------|--------------------|x1                  |
D|--9-9-7--|-1010-9--|--9-9-7----5-7-5-4--|                    |
A|--x-x-x--|--x-x-x--|--x-x-x----x-x-x-x--|                    |
E|--7-7-5--|--8-8-7--|--7-7-5----3-5-3-2--|                    |
B|---------|---------|--------------------|                    |
                                                               |
                                                               |
bridge - guitar 1                                              |
e|---------|---------|--------------------|                    |
b|---------|---------|--------------------|                    |
G|---------|---------|--------------------|x1                  |
D|--9-9-7--|-1010-9--|--9-9-7----5-7-5-4--|                    |
A|--x-x-x--|--x-x-x--|--x-x-x----x-x-x-x--|                    |
E|--7-7-5--|--8-8-7--|--7-7-5----3-5-3-2--|                    |
B|---------|---------|--------------------|                    |
                                          |                    |
bridge - guitar 2                         |                    | 
e|----------------------------------------|                    |
b|----------------------------------------|                    |
G|----------------------------------------|                    |
D|----------------------------------------|x1                  |
A|--9-------------------------------------|                    |
E|--7-----let ring------------------------|                    |
B|----------------------------------------|                    |
                                                               |
                                                               |
bridge - guitar 1                                              |
e|---------|---------|----------------------|                  |
b|---------|---------|----------------------|                  |
G|---------|---------|----------------------|x8                |
D|--9-9-7--|-1010-9--|-9-9-7-5-7----5-----4-|                  |
A|--x-x-x--|--x-x-x--|-x-x-x-x-x----x-----x-|                  |
E|--7-7-5--|--8-8-7--|-7-7-5-3-5----3-----2-|                  |
B|---------|---------|----------------------|                  |
                                            |                  | 
bridge - guitar2     |end                   | 4th&8th end      |
e|---------|---------|----------------------|------------------|
b|---------|---------|----------------------|------------------|
G|---------|---------|----------------------|------------------|
D|---------|---------|----------------------|------------------|x8
A|---------|---------|---------7777-5555--4-|-------5--7--5--4-|
E|-2222222-|-2222222-|-222222--5555-3333--2-|222222-3--5--3--2-|
B|-0000000-|-0000000-|-000000---------------|000000------------|
p.m.......   .......   ......  .... ....  .  ......


Intro - guitar 1&2                      | 1st&3rd end  | 2nd&4th end - 32th|
e|--------------------------------------|--------------|-------------------|
b|--------------------------------------|--------------|-------------------|
G|--6-66664-44447-77776-66666-66664-4444|--------------|-------------------|
D|--4-44442-22225-55554-44444-44442-2222|2-22224-6666--|-------------------|
A|--------------------------------------|0-00004-4444--|--00000000-44444444|
E|--------------------------------------|--------------|-------------------|
B|--------------------------------------|--------------|-------------------|
p.m . ..... ..... ..... ..... ..... .... . ..... ....                      |
                                                                           |
guitar 3                                                                   |
e|------|                                                                  |
b|------|                                                                  |
G|------|                                                                  |
D|--4v>-|                                                                  |
A|------|                                                                  |
E|------|                                                                  |
B|------|                                                                  |


riff 2 - guitar 1 - listen for timing
e|----------------------------------------------------------------------|   |
b|----------------------------------------------------------------------|   |
G|----------------------------------------------------------------------|   |
D|----------------------------------------------------------------------|   |
A|--11--14--11-14-12-11-----14--11-14-12-11-12-----12-11-9-11--7--9--5--|x1 |
E|----------------------12---------------------14-----------------------|   |
B|----------------------------------------------------------------------|   |
p.m..   .   .  .  .  .  .   .   .  .  .  .  .  .   .  .  . .   .  .  .  |   |
                                                                        |   |
riff 2 - guitar 2 - 32th - listen for timing                            |   |
e|---------------------|----------------------|-----------|---|--|--|---|   |
b|---------------------|----------------------|-----------|---|--|--|---|   |
G|---------------------|----------------------|-----------|---|--|--|---|x1 |
D|---------------------|----------------------|-----------|---|--|--|---|   |
A|---------------------|----------------------|-----------|---|--|--|---|   |
E|--4------------------|----------------------|5----------|4--|--|2-|---|   |
B|---------------------|5---------------------|-----------|---|5-|--|3--|   |
p.m.....................................................................    |
                                                                            |
riff 2 - guitar 1 - 32th - listen for timing                                |
e|----------------------------------------------------------------------|   |
b|----------------------------------------------------------------------|   |
G|----------------------------------------------------------------------|   |
D|----------------------------------------------------------------------|   |
A|--11--14--11-14-12-11-----14--11-14-12-11-12-----12-11-9-11--7--9--5--|x1 |
E|----------------------12---------------------14-----------------------|   |
B|----------------------------------------------------------------------|   |
                                                                        |   |
                                                                        |   |
riff 2 - guitar 2 - 32th - listen for timing                            |   |
e|---------------------|----------------------|-----------|---|--|--|---|   |
b|---------------------|----------------------|-----------|---|--|--|---|   |
G|---------------------|----------------------|-----------|---|--|--|---|x1 |
D|---------------------|----------------------|-----------|---|--|--|---|   |
A|---------------------|----------------------|-----------|---|--|--|---|   |
E|--4------------------|----------------------|5----------|4--|--|2-|---|   |
B|---------------------|5---------------------|-----------|---|5-|--|3--|   |
p.m.....................................................................    |
                                                                            |
riff 2 - guitar 1 - 32th - listen for timing                                |
e|----------------------------------------------------------------------|   |
b|----------------------------------------------------------------------|   |
G|----------------------------------------------------------------------|   |
D|----------------------------------------------------------------------|   |
A|--11--14--11-14-12-11-----14--11-14-12-11-12-----12-11-9-11--7--9--5--|x1 |
E|----------------------12---------------------14-----------------------|   |
B|----------------------------------------------------------------------|   |
                                                                        |   |
                                                                        |   |
riff 2 - guitar 2 - 32th - listen for timing                            |   |
e|---------------------|----------------------|-----------|---|--|--|---|   |
b|---------------------|----------------------|-----------|---|--|--|---|   |
G|---------------------|----------------------|-----------|---|--|--|---|x1 |
D|---------------------|----------------------|-----------|---|--|--|---|   |
A|---------------------|----------------------|-----------|---|--|--|---|   |
E|--4------------------|----------------------|5----------|4--|--|2-|---|   |
B|---------------------|5---------------------|-----------|---|5-|--|3--|   |
solo - guitar 3                                                         |   |
e|----------------------------------------------------------------------|   |
b|--9--12v----------/14-9v-----------------7-5-9v--------7-9---5--7--3--|   |
G|----------------------------------------------------------------------|   |
D|----------------------------------------------------------------------|   |
A|----------------------------------------------------------------------|   |
E|----------------------------------------------------------------------|   |
B|----------------------------------------------------------------------|   |
                                                                            |
riff 2 - guitar 1 - 32th - listen for timing               slow             |
e|--------------------------------------------------------|---------------| |
b|--------------------------------------------------------|---------------| |
G|--------------------------------------------------------|---------------| |
D|--------------------------------------------------------|---------------| |
A|--11--14--11-14-12-11-----14--11-14-12-11-12-----12-11-9|11--7--9--5--7-|x1
E|----------------------12---------------------14---------|---------------| |
B|--------------------------------------------------------|---------------| |
                                                                          | |
                                                                          | |
riff 2 - guitar 2 - 32th - listen for timing                              | |
e|---------------------|----------------------|-----------|---|--|--|--|--| |
b|---------------------|----------------------|-----------|---|--|--|--|--| |
G|---------------------|----------------------|-----------|---|--|--|--|--|x1
D|---------------------|----------------------|-----------|---|--|--|--|--| |
A|---------------------|----------------------|-----------|---|--|--|--|--| |
E|--4------------------|----------------------|5----------|4--|--|2-|--|--| |
B|---------------------|5---------------------|-----------|---|5-|--|3-|5-| |
                                                                          | |
e|------------------------------------------------------------------------| |
b|--9--12v----------/14-9v-----------------7-5-9v--------7-9---5--7--3--5v| |
G|------------------------------------------------------------------------|x1
D|------------------------------------------------------------------------| |
A|------------------------------------------------------------------------| |
E|------------------------------------------------------------------------| |
B|------------------------------------------------------------------------| |


| <  volume up
| >  volume down
| /  slide up
| \  slide down
| h  hammer-on
| p  pull-off
| ~  vibrato
| +  harmonic
| x  Mute note
===============================================================================
comments
We did not receive enough feedback on this tab! Please rate:
1 2 3 4 5
I want to post or [tab]
guest
You may want to rate the tab now too:
select rating
Please do not post tabs as comments. Select "correction" instead!