Oops, an error
Loading. Please wait.

Wrath Of The Norsemen Tab

ver1
ver1

Whole song

Interactive

More versions @911Tabs.com
3,172 views 11 this week
no commentswrite comment
1 2 3 4 5
accurate
x 4
Autoscroll
+/-
esc
set tempo
stop
Contributor
Difficulty
Tuning
intermediate
B E A D F# B
Hey! There's an official Ultimate Guitar app which is ideal
for learning songs when you're away from computer. Get the app
WARNING: You are trying to view
                                    content from Ultimate-Guitar.com
                                    in an unauthorized application,
                                    which is prohibited.

                                    Please use an official Ultimate
                                    Guitar Tabs application for iPhone,
                                    iPad or Android to access legitimate
                                    chords, guitar, bass, and drum tabs
                                    from Ultimate-Guitar.com database.

                                    Type "ultimate guitar tabs" in Apple
                                    App Store's or Android Market's
                                    search to find the application.
                       Wrath of the Norsemen                         


Duration Legend
---------------
W - whole
H - half
Q - quarter
E - 8th
S - 16th
T - 32nd
X - 64th
. - note dotted
|-n-|  - n-tuplets


Tablature Legend
----------------
L - tied note
x - dead note
g - grace note
(n) - ghost note
> - accentuded note
NH - natural harmonic
AH - artificial harmonic
TH - tapped harmonic
SH - semi harmonic
PH - pitch harmonic
h - hammer on
p - pull off
b - bend
br - bendRelease
pb - preBend
pbr - preBendRelease
brb - bendReleaseBend
\n/ - tremolo bar dip
\n - tremolo bar dive
-/n - tremolo bar Release up
/n\ - tremolo bar inverted dip
/n - tremolo bar return
-\n - tremolo bar Release down
S - shift slide
s - legato slide
/ -  slide into from below or out of upwards
\ -  slide into from above or out of downwards
~ - vibrato
W - wide vibrato
tr - trill
TP - tremolo picking
T - tapping
S - slap
P - pop
< - fade in
^ - brush up
v - brush down                                                           


Amon Amarth


Git 1



         PM PM PM       PM PM          PM PM                
      E  E  E  E  E  E  E  E     E  E  E  E  E   E  E   E   
B ||--------------------------|----------------------------|
F#||--------------------------|----------------------------|
D ||--------------------------|----------------------------|
A ||--9-----------9-----------|--9-----------9--10--9--12--|
E ||--7-----------7-----------|--7-----------7---8--7--10--|
B ||-----0--0--0--------0--0--|--------0--0----------------|


     PM PM PM       PM PM          PM PM                
  E  E  E  E  E  E  E  E     E  E  E  E  E   E  E   E   
--------------------------|----------------------------|
--------------------------|----------------------------|
--------------------------|----------------------------|
--9-----------9-----------|--9-----------9--10--9--12--|
--7-----------7-----------|--7-----------7---8--7--10--|
-----0--0--0--------0--0--|--------0--0----------------|


     PM PM PM    PM PM PM       PM PM PM                
  E  E  E  E  E  E  E  E     E  E  E  E  E   E  E   E   
--------------------------|----------------------------|
--------------------------|----------------------------|
--------------------------|----------------------------|
--9-----------9-----------|--9-----------9--10--9--12--|
--7-----------7-----------|--7-----------7---8--7--10--|
-----0--0--0-----0--0--0--|-----0--0--0----------------|


     PM PM PM    PM PM PM       PM PM PM                
  E  E  E  E  E  E  E  E     E  E  E  E  E   E  E   E   
--------------------------|----------------------------|
--------------------------|----------------------------|
--------------------------|----------------------------|
--9-----------9-----------|--9-----------9--10--9--12--|
--7-----------7-----------|--7-----------7---8--7--10--|
-----0--0--0-----0--0--0--|-----0--0--0----------------|


     PM PM PM    PM PM PM       PM PM PM                
  E  E  E  E  E  E  E  E     E  E  E  E  E   E  E   E   
--------------------------|----------------------------|
--------------------------|----------------------------|
--------------------------|----------------------------|
--9-----------9-----------|--9-----------9--10--9--12--|
--7-----------7-----------|--7-----------7---8--7--10--|
-----0--0--0-----0--0--0--|-----0--0--0----------------|


     PM PM PM    PM PM PM       PM PM PM                
  E  E  E  E  E  E  E  E     E  E  E  E  E   E  E   E   
--------------------------|----------------------------|
--------------------------|----------------------------|
--------------------------|----------------------------|
--9-----------9-----------|--9-----------9--10--9--12--|
--7-----------7-----------|--7-----------7---8--7--10--|
-----0--0--0-----0--0--0--|-----0--0--0----------------|


     PM PM PM                    PM PM PM               
  E  E  E  E  S S E  E  E     E  E  E  E  S S E  E  E   
---------------------------|---------------------------|
---------------------------|---------------------------|
---------------------------|---------------------------|
--2-----------2-2-2--2--5--|--2-----------2-2-2--2--5--|
--2------------------------|--2------------------------|
--0--0--0--0---------------|--0--0--0--0---------------|


     PM PM PM                    PM PM PM               
  E  E  E  E  S S E  E  E     E  E  E  E  S S E  E  E   
---------------------------|---------------------------|
---------------------------|---------------------------|
---------------------------|---------------------------|
--2-----------2-2-2--2--5--|--2------------------------|
--2------------------------|--2-----------3-3-3--3--2--|
--0--0--0--0---------------|--0--0--0--0---------------|


     PM PM PM    PM PM PM       PM PM PM               
  E  E  E  E  E  E  E  E     E  E  E  E  S S E  E  E   
--------------------------|---------------------------|
--------------------------|---------------------------|
--------------------------|---------------------------|
--4-----------4-----------|--4------------------------|
--4-----------4-----------|--4-----------3-3-3--3--2--|
--2--2--2--2--2--2--2--2--|--2--2--2--2---------------|


     PM PM PM    PM PM PM       PM PM PM               
  E  E  E  E  E  E  E  E     E  E  E  E  S S E  E  E   
--------------------------|---------------------------|
--------------------------|---------------------------|
--------------------------|---------------------------|
--4-----------4-----------|--4------------------------|
--4-----------4-----------|--4-----------3-3-3--3--2--|
--2--2--2--2--2--2--2--2--|--2--2--2--2---------------|


     PM PM PM                    PM PM PM               
  E  E  E  E  S S E  E  E     E  E  E  E  S S E  E  E   
---------------------------|---------------------------|
---------------------------|---------------------------|
---------------------------|---------------------------|
--2-----------2-2-2--2--5--|--2-----------2-2-2--2--5--|
--2------------------------|--2------------------------|
--0--0--0--0---------------|--0--0--0--0---------------|


     PM PM PM                    PM PM PM               
  E  E  E  E  S S E  E  E     E  E  E  E  S S E  E  E   
---------------------------|---------------------------|
---------------------------|---------------------------|
---------------------------|---------------------------|
--2-----------2-2-2--2--5--|--2------------------------|
--2------------------------|--2-----------3-3-3--3--2--|
--0--0--0--0---------------|--0--0--0--0---------------|


     PM PM PM    PM PM PM       PM PM PM               
  E  E  E  E  E  E  E  E     E  E  E  E  S S E  E  E   
--------------------------|---------------------------|
--------------------------|---------------------------|
--------------------------|---------------------------|
--4-----------4-----------|--4------------------------|
--4-----------4-----------|--4-----------3-3-3--3--2--|
--2--2--2--2--2--2--2--2--|--2--2--2--2---------------|


     PM PM PM    PM PM PM       PM PM PM               
  E  E  E  E  E  E  E  E     E  E  E  E  S S E  E  E   
--------------------------|---------------------------|
--------------------------|---------------------------|
--------------------------|---------------------------|
--4-----------4-----------|--4------------------------|
--4-----------4-----------|--4-----------3-3-3--3--2--|
--2--2--2--2--2--2--2--2--|--2--2--2--2---------------|


  S S S S S S S S  S  S  S  S S S S S  
--------------------------------------|
--------------------------------------|
--------------------------------------|
--------------------------------------|
--7-7-7-7-7-7-7-7-10-10-10-10-7-7-7-7-|
--------------------------------------|


   S  S S S S S  S  S S S S S  S  S  S  S  
------------------------------------------|
------------------------------------------|
------------------------------------------|
--10-10-9-9-9-9-10-10-9-9-9-9-------------|
------------------------------10-10-10-10-|
------------------------------------------|


  S S S S S S S S S S S S S S S S  
----------------------------------|
----------------------------------|
----------------------------------|
--7-7-7-7-7-7-7-7-7-7-7-7-7-7-7-7-|
----------------------------------|
----------------------------------|


   S  S S S S S  S  S S S S S  S  S  S  S  
------------------------------------------|
------------------------------------------|
------------------------------------------|
--10-10-9-9-9-9-10-10-9-9-9-9-------------|
------------------------------10-10-10-10-|
------------------------------------------|


  S S S S S S S S  S  S  S  S S S S S  
--------------------------------------|
--------------------------------------|
--------------------------------------|
--------------------------------------|
--7-7-7-7-7-7-7-7-10-10-10-10-7-7-7-7-|
--------------------------------------|


   S  S S S S S  S  S S S S S  S  S  S  S  
------------------------------------------|
------------------------------------------|
------------------------------------------|
--10-10-9-9-9-9-10-10-9-9-9-9-------------|
------------------------------10-10-10-10-|
------------------------------------------|


  S S S S S S S S S S S S S S S S  
----------------------------------|
----------------------------------|
----------------------------------|
--7-7-7-7-7-7-7-7-7-7-7-7-7-7-7-7-|
----------------------------------|
----------------------------------|


   S  S S S S S  S  S S S S S  S  S  S  S  
------------------------------------------|
------------------------------------------|
------------------------------------------|
--10-10-9-9-9-9-10-10-9-9-9-9-------------|
------------------------------10-10-10-10-|
------------------------------------------|


  S S S S S S S S  S  S  S  S S S S S  
--------------------------------------|
--------------------------------------|
--------------------------------------|
--------------------------------------|
--7-7-7-7-7-7-7-7-10-10-10-10-7-7-7-7-|
--------------------------------------|


   S  S S S S S  S  S S S S S  S  S  S  S  
------------------------------------------|
------------------------------------------|
------------------------------------------|
--10-10-9-9-9-9-10-10-9-9-9-9-------------|
------------------------------10-10-10-10-|
------------------------------------------|


  S S S S S S S S S S S S S S S S  
----------------------------------|
----------------------------------|
----------------------------------|
--7-7-7-7-7-7-7-7-7-7-7-7-7-7-7-7-|
----------------------------------|
----------------------------------|


   S  S S S S S  S  S S S S S  S  S  S  S  
------------------------------------------|
------------------------------------------|
------------------------------------------|
--10-10-9-9-9-9-10-10-9-9-9-9-------------|
------------------------------10-10-10-10-|
------------------------------------------|


  S S S S S S S S  S  S  S  S S S S S  
--------------------------------------|
--------------------------------------|
--------------------------------------|
--------------------------------------|
--7-7-7-7-7-7-7-7-10-10-10-10-7-7-7-7-|
--------------------------------------|


   S  S S S S S  S  S S S S S  S  S  S  S  
------------------------------------------|
------------------------------------------|
------------------------------------------|
--10-10-9-9-9-9-10-10-9-9-9-9-------------|
------------------------------10-10-10-10-|
------------------------------------------|


  S S S S S S S S S S S S S S S S  
----------------------------------|
----------------------------------|
----------------------------------|
--7-7-7-7-7-7-7-7-7-7-7-7-7-7-7-7-|
----------------------------------|
----------------------------------|


   S  S S S S S  S  S S S S S  S  S  S  S  
------------------------------------------|
------------------------------------------|
------------------------------------------|
--10-10-9-9-9-9-10-10-9-9-9-9-------------|
------------------------------10-10-10-10-|
------------------------------------------|


     PM PM PM                    PM PM PM               
  E  E  E  E  S S E  E  E     E  E  E  E  S S E  E  E   
---------------------------|---------------------------|
---------------------------|---------------------------|
---------------------------|---------------------------|
--2-----------2-2-2--2--5--|--2-----------2-2-2--2--5--|
--2------------------------|--2------------------------|
--0--0--0--0---------------|--0--0--0--0---------------|


     PM PM PM                    PM PM PM               
  E  E  E  E  S S E  E  E     E  E  E  E  S S E  E  E   
---------------------------|---------------------------|
---------------------------|---------------------------|
---------------------------|---------------------------|
--2-----------2-2-2--2--5--|--2------------------------|
--2------------------------|--2-----------3-3-3--3--2--|
--0--0--0--0---------------|--0--0--0--0---------------|


     PM PM PM    PM PM PM       PM PM PM               
  E  E  E  E  E  E  E  E     E  E  E  E  S S E  E  E   
--------------------------|---------------------------|
--------------------------|---------------------------|
--------------------------|---------------------------|
--4-----------4-----------|--4------------------------|
--4-----------4-----------|--4-----------3-3-3--3--2--|
--2--2--2--2--2--2--2--2--|--2--2--2--2---------------|


     PM PM PM    PM PM PM       PM PM PM               
  E  E  E  E  E  E  E  E     E  E  E  E  S S E  E  E   
--------------------------|---------------------------|
--------------------------|---------------------------|
--------------------------|---------------------------|
--4-----------4-----------|--4------------------------|
--4-----------4-----------|--4-----------3-3-3--3--2--|
--2--2--2--2--2--2--2--2--|--2--2--2--2---------------|


     PM PM PM                    PM PM PM               
  E  E  E  E  S S E  E  E     E  E  E  E  S S E  E  E   
---------------------------|---------------------------|
---------------------------|---------------------------|
---------------------------|---------------------------|
--2-----------2-2-2--2--5--|--2-----------2-2-2--2--5--|
--2------------------------|--2------------------------|
--0--0--0--0---------------|--0--0--0--0---------------|


     PM PM PM                    PM PM PM               
  E  E  E  E  S S E  E  E     E  E  E  E  S S E  E  E   
---------------------------|---------------------------|
---------------------------|---------------------------|
---------------------------|---------------------------|
--2-----------2-2-2--2--5--|--2------------------------|
--2------------------------|--2-----------3-3-3--3--2--|
--0--0--0--0---------------|--0--0--0--0---------------|


     PM PM PM    PM PM PM       PM PM PM               
  E  E  E  E  E  E  E  E     E  E  E  E  S S E  E  E   
--------------------------|---------------------------|
--------------------------|---------------------------|
--------------------------|---------------------------|
--4-----------4-----------|--4------------------------|
--4-----------4-----------|--4-----------3-3-3--3--2--|
--2--2--2--2--2--2--2--2--|--2--2--2--2---------------|


     PM PM PM    PM PM PM       PM PM PM               
  E  E  E  E  E  E  E  E     E  E  E  E  S S E  E  E   
--------------------------|---------------------------|
--------------------------|---------------------------|
--------------------------|---------------------------|
--4-----------4-----------|--4------------------------|
--4-----------4-----------|--4-----------3-3-3--3--2--|
--2--2--2--2--2--2--2--2--|--2--2--2--2---------------|


     PM PM PM PM PM PM PM PM PM PM PM PM PM PM  
  E  S  S  S  S  S  S  S  S  S  S  S  S  S  S   
-----------------------------------------------|
-----------------------------------------------|
-----------------------------------------------|
--4--------------------------------------------|
--4--------------------------------------------|
--2--2--2--2--2--2--2--2--2--0--0--2--2--5--5--|


     PM PM PM PM PM PM PM PM PM PM       
  E  S  S  S  S  S  S  S  S  S  S  Q     
----------------------------------------|
----------------------------------------|
----------------------------------------|
--4--------------------------------2----|
--4--------------------------------3----|
--2--2--2--2--2--2--2--2--2--2--2-------|


     PM PM PM PM PM PM PM PM               
  E  S  S  S  S  S  S  S  S  S  S  E  S S  
------------------------------------------|
------------------------------------------|
------------------------------------------|
--4---------------------------------------|
--4---------------------------------------|
--2--2--2--2--2--2--2--2--2--0h-1h-2--5-5-|


  S S S S S S S S S S S S S S S S  
----------------------------------|
----------------------------------|
----------------------------------|
----------------------------------|
----------------------------------|
--5-5-5-5-5-5-0-0-0-0-0-0-5-5-0-0-|


     PM PM PM PM PM PM PM PM PM PM PM PM PM PM  
  E  S  S  S  S  S  S  S  S  S  S  S  S  S  S   
-----------------------------------------------|
-----------------------------------------------|
-----------------------------------------------|
--4--------------------------------------------|
--4--------------------------------------------|
--2--2--2--2--2--2--2--2--2--0--0--2--2--5--5--|


     PM PM PM PM PM PM PM PM PM PM       
  E  S  S  S  S  S  S  S  S  S  S  Q     
----------------------------------------|
----------------------------------------|
----------------------------------------|
--4--------------------------------2----|
--4--------------------------------3----|
--2--2--2--2--2--2--2--2--2--2--2-------|


     PM PM PM PM PM PM PM PM               
  E  S  S  S  S  S  S  S  S  S  S  E  S S  
------------------------------------------|
------------------------------------------|
------------------------------------------|
--4---------------------------------------|
--4---------------------------------------|
--2--2--2--2--2--2--2--2--2--0h-1h-2--5-5-|


                                           PM PM       PM PM  
  S S S S S S S S S S S S S S S S    E  E  E  E  E  E  E  E   
----------------------------------|--------------------------|
----------------------------------|--------------------------|
----------------------------------|--------------------------|
----------------------------------|--4-----------4-----------|
----------------------------------|--4-----------4-----------|
--5-5-5-5-5-5-0-0-0-0-0-0-5-5-0-0-|--2-----2--2--2-----2--2--|


        PM PM                      PM PM       PM PM  
  E  E  E  E  E  E  E  E     E  E  E  E  E  E  E  E   
--------------------------|--------------------------|
--------------------------|--------------------------|
--------------------------|--------------------------|
--4-----------4--5--4--7--|--4-----------4-----------|
--4-----------4--5--4--7--|--4-----------4-----------|
--2-----2--2--2--3--2--5--|--2-----2--2--2-----2--2--|


        PM PM                   PM PM PM    PM PM PM  
  E  E  E  E  E  E  E  E     E  E  E  E  E  E  E  E   
--------------------------|--------------------------|
--------------------------|--------------------------|
--------------------------|--------------------------|
--4-----------4--5--4--7--|--2-----------2-----------|
--4-----------4--5--4--7--|--2-----------2-----------|
--2-----2--2--2--3--2--5--|--0--0--0--0--0--0--0--0--|


     PM PM PM                   PM PM PM    PM PM PM  
  E  E  E  E  E  E  E  E     E  E  E  E  E  E  E  E   
--------------------------|--------------------------|
--------------------------|--------------------------|
--------------------------|--------------------------|
--2-----------2--3--2--5--|--2-----------2-----------|
--2-----------2--3--2--5--|--2-----------2-----------|
--0--0--0--0--0--1--0--3--|--0--0--0--0--0--0--0--0--|


     PM PM PM                   PM PM PM    PM PM PM  
  E  E  E  E  E  E  E  E     E  E  E  E  E  E  E  E   
--------------------------|--------------------------|
--------------------------|--------------------------|
--------------------------|--------------------------|
--2-----------2--3--2--5--|--4-----------4-----------|
--2-----------2--3--2--5--|--4-----------4-----------|
--0--0--0--0--0--1--0--3--|--2--2--2--2--2--2--2--2--|


     PM PM PM                   PM PM PM    PM PM PM  
  E  E  E  E  E  E  E  E     E  E  E  E  E  E  E  E   
--------------------------|--------------------------|
--------------------------|--------------------------|
--------------------------|--------------------------|
--4-----------4--5--4--7--|--4-----------4-----------|
--4-----------4--5--4--7--|--4-----------4-----------|
--2--2--2--2--2--3--2--5--|--2--2--2--2--2--2--2--2--|


     PM PM PM                   PM PM PM    PM PM PM  
  E  E  E  E  E  E  E  E     E  E  E  E  E  E  E  E   
--------------------------|--------------------------|
--------------------------|--------------------------|
--------------------------|--------------------------|
--4-----------4--5--4--7--|--2-----------2-----------|
--4-----------4--5--4--7--|--2-----------2-----------|
--2--2--2--2--2--3--2--5--|--0--0--0--0--0--0--0--0--|


     PM PM PM                   PM PM PM    PM PM PM  
  E  E  E  E  E  E  E  E     E  E  E  E  E  E  E  E   
--------------------------|--------------------------|
--------------------------|--------------------------|
--------------------------|--------------------------|
--2-----------2--3--2--5--|--2-----------2-----------|
--2-----------2--3--2--5--|--2-----------2-----------|
--0--0--0--0--0--1--0--3--|--0--0--0--0--0--0--0--0--|


     PM PM PM                   PM PM PM    PM PM PM  
  E  E  E  E  E  E  E  E     E  E  E  E  E  E  E  E   
--------------------------|--------------------------|
--------------------------|--------------------------|
--------------------------|--------------------------|
--2-----------2--3--2--5--|--4-----------4-----------|
--2-----------2--3--2--5--|--4-----------4-----------|
--0--0--0--0--0--1--0--3--|--2--2--2--2--2--2--2--2--|


     PM PM PM                   PM PM PM    PM PM PM  
  E  E  E  E  E  E  E  E     E  E  E  E  E  E  E  E   
--------------------------|--------------------------|
--------------------------|--------------------------|
--------------------------|--------------------------|
--4-----------4--5--4--7--|--4-----------4-----------|
--4-----------4--5--4--7--|--4-----------4-----------|
--2--2--2--2--2--3--2--5--|--2--2--2--2--2--2--2--2--|


     PM PM PM                                                   
  E  E  E  E  E  E  E  E     S S S S S S S S  S  S S S S S S S  
--------------------------|------------------------------------|
--------------------------|------------------------------------|
--------------------------|------------------------------------|
--4-----------------------|------------------------------------|
--4--------------5--4-----|--9-9-9-9-9-9-9-9-12-12-9-9-7-7-9-9-|
--2--2--2--2--2--------5--|------------------------------------|


  S S S S S S S S S S  S  S  S  S  S  S  
----------------------------------------|
----------------------------------------|
----------------------------------------|
----------------------12-12-11-11-------|
--9-9-9-9-9-9-9-9-9-9-------------12-12-|
----------------------------------------|


  S S S S S S S S  S  S S S S S S S  
------------------------------------|
------------------------------------|
------------------------------------|
------------------------------------|
--9-9-9-9-9-9-9-9-12-12-9-9-7-7-9-9-|
------------------------------------|


  S S S S S S S S S S  S  S  S  S  S  S  
----------------------------------------|
----------------------------------------|
----------------------------------------|
----------------------12-12-11-11-------|
--9-9-9-9-9-9-9-9-9-9-------------12-12-|
----------------------------------------|


  S S S S S S S S S S S S S S S S    S S S S S S S S S S S S S S S S  
----------------------------------|----------------------------------|
----------------------------------|----------------------------------|
----------------------------------|----------------------------------|
--9-9-9-9-9-9-9-9-9-9-9-9-9-9-9-9-|--9-9-9-9-9-9-9-9-7-7-7-7-7-7-7-7-|
----------------------------------|----------------------------------|
----------------------------------|----------------------------------|


  S S S S S S S S S S S S S S S S  
----------------------------------|
----------------------------------|
----------------------------------|
----------------------------------|
--7-7-9-9-9-9-9-9-9-9-9-9-9-9-9-9-|
----------------------------------|


  S S S S S S S S  S  S S S  S  S  S  S  
----------------------------------------|
----------------------------------------|
----------------------------------------|
----------------------------------------|
--9-9-9-9-9-9-9-9-12-12-9-9-12-12-12-12-|
----------------------------------------|


  S S S S S S S S  S  S S S S S S S  
------------------------------------|
------------------------------------|
------------------------------------|
------------------------------------|
--9-9-9-9-9-9-9-9-12-12-9-9-7-7-9-9-|
------------------------------------|


  S S S S S S S S S S  S  S  S  S  S  S  
----------------------------------------|
----------------------------------------|
----------------------------------------|
----------------------12-12-11-11-------|
--9-9-9-9-9-9-9-9-9-9-------------12-12-|
----------------------------------------|


  S S S S S S S S  S  S S S S S S S  
------------------------------------|
------------------------------------|
------------------------------------|
------------------------------------|
--9-9-9-9-9-9-9-9-12-12-9-9-7-7-9-9-|
------------------------------------|


  S S S S S S S S S S  S  S  S  S  S  S  
----------------------------------------|
----------------------------------------|
----------------------------------------|
----------------------12-12-11-11-------|
--9-9-9-9-9-9-9-9-9-9-------------12-12-|
----------------------------------------|


  S S S S S S S S S S S S S S S S    S S S S S S S S S S S S S S S S  
----------------------------------|----------------------------------|
----------------------------------|----------------------------------|
----------------------------------|----------------------------------|
--9-9-9-9-9-9-9-9-9-9-9-9-9-9-9-9-|--9-9-9-9-9-9-9-9-7-7-7-7-7-7-7-7-|
----------------------------------|----------------------------------|
----------------------------------|----------------------------------|


  S S S S S S S S S S S S S S S S  
----------------------------------|
----------------------------------|
----------------------------------|
----------------------------------|
--7-7-9-9-9-9-9-9-9-9-9-9-9-9-9-9-|
----------------------------------|


  S S S S S S S S  S  S S S  S  S  S  S  
----------------------------------------|
----------------------------------------|
----------------------------------------|
----------------------------------------|
--9-9-9-9-9-9-9-9-12-12-9-9-12-12-12-12-|
----------------------------------------|


  S S S S S S S S  S  S S S S S S S  
------------------------------------|
------------------------------------|
------------------------------------|
------------------------------------|
--9-9-9-9-9-9-9-9-12-12-9-9-7-7-9-9-|
------------------------------------|


  S S S S S S S S S S  S  S  S  S  S  S  
----------------------------------------|
----------------------------------------|
----------------------------------------|
----------------------12-12-11-11-------|
--9-9-9-9-9-9-9-9-9-9-------------12-12-|
----------------------------------------|


                                                           PM PM PM  
  S S S S S S S S  S  S S S S S S S    S S S S S S S S S S E  E  E   
------------------------------------|-------------------------------|
------------------------------------|-------------------------------|
------------------------------------|-------------------------------|
------------------------------------|------------------4-4----------|
--9-9-9-9-9-9-9-9-12-12-9-9-7-7-9-9-|--9-9-9-9-9-9-9-9-4-4-2--2--2--|
------------------------------------|------------------2-2-0--0--0--|


  S S S S S S S S  S  S  S  S S S S S  
--------------------------------------|
--------------------------------------|
--------------------------------------|
--------------------------------------|
--7-7-7-7-7-7-7-7-10-10-10-10-7-7-7-7-|
--------------------------------------|


   S  S S S S S  S  S S S S S  S  S  S  S  
------------------------------------------|
------------------------------------------|
------------------------------------------|
--10-10-9-9-9-9-10-10-9-9-9-9-------------|
------------------------------10-10-10-10-|
------------------------------------------|


  S S S S S S S S S S S S S S S S  
----------------------------------|
----------------------------------|
----------------------------------|
--7-7-7-7-7-7-7-7-7-7-7-7-7-7-7-7-|
----------------------------------|
----------------------------------|


   S  S S S S S  S  S S S S S  S  S  S  S  
------------------------------------------|
------------------------------------------|
------------------------------------------|
--10-10-9-9-9-9-10-10-9-9-9-9-------------|
------------------------------10-10-10-10-|
------------------------------------------|


  S S S S S S S S  S  S  S  S S S S S  
--------------------------------------|
--------------------------------------|
--------------------------------------|
--------------------------------------|
--7-7-7-7-7-7-7-7-10-10-10-10-7-7-7-7-|
--------------------------------------|


   S  S S S S S  S  S S S S S  S  S  S  S  
------------------------------------------|
------------------------------------------|
------------------------------------------|
--10-10-9-9-9-9-10-10-9-9-9-9-------------|
------------------------------10-10-10-10-|
------------------------------------------|


  S S S S S S S S S S S S S S S S  
----------------------------------|
----------------------------------|
----------------------------------|
--7-7-7-7-7-7-7-7-7-7-7-7-7-7-7-7-|
----------------------------------|
----------------------------------|


   S  S S S S S  S  S S S S S  S  S  S  S  
------------------------------------------|
------------------------------------------|
------------------------------------------|
--10-10-9-9-9-9-10-10-9-9-9-9-------------|
------------------------------10-10-10-10-|
------------------------------------------|


  S S S S S S S S  S  S  S  S S S S S  
--------------------------------------|
--------------------------------------|
--------------------------------------|
--------------------------------------|
--7-7-7-7-7-7-7-7-10-10-10-10-7-7-7-7-|
--------------------------------------|


   S  S S S S S  S  S S S S S  S  S  S  S  
------------------------------------------|
------------------------------------------|
------------------------------------------|
--10-10-9-9-9-9-10-10-9-9-9-9-------------|
------------------------------10-10-10-10-|
------------------------------------------|


  S S S S S S S S S S S S S S S S  
----------------------------------|
----------------------------------|
----------------------------------|
--7-7-7-7-7-7-7-7-7-7-7-7-7-7-7-7-|
----------------------------------|
----------------------------------|


   S  S S S S S  S  S S S S S  S  S  S  S  
------------------------------------------|
------------------------------------------|
------------------------------------------|
--10-10-9-9-9-9-10-10-9-9-9-9-------------|
------------------------------10-10-10-10-|
------------------------------------------|


  S S S S S S S S  S  S  S  S S S S S  
--------------------------------------|
--------------------------------------|
--------------------------------------|
--------------------------------------|
--7-7-7-7-7-7-7-7-10-10-10-10-7-7-7-7-|
--------------------------------------|


   S  S S S S S  S  S S S S S  S  S  S  S  
------------------------------------------|
------------------------------------------|
------------------------------------------|
--10-10-9-9-9-9-10-10-9-9-9-9-------------|
------------------------------10-10-10-10-|
------------------------------------------|


  S S S S S S S S S S S S S S S S  
----------------------------------|
----------------------------------|
----------------------------------|
--7-7-7-7-7-7-7-7-7-7-7-7-7-7-7-7-|
----------------------------------|
----------------------------------|


                                                   PM PM       PM PM  
   S  S S S S S  S  S S S S S  S  S  S  S    E  E  E  E  E  E  E  E   
------------------------------------------|--------------------------|
------------------------------------------|--------------------------|
------------------------------------------|--------------------------|
--10-10-9-9-9-9-10-10-9-9-9-9-------------|--2-----------2-----------|
------------------------------10-10-10-10-|--2-----------2-----------|
------------------------------------------|--0-----0--0--0-----0--0--|


        PM PM                      PM PM       PM PM  
  E  E  E  E  E  E  E  E     E  E  E  E  E  E  E  E   
--------------------------|--------------------------|
--------------------------|--------------------------|
--------------------------|--------------------------|
--2-----------------------|--2-----------2-----------|
--2-----------2--3--2--5--|--2-----------2-----------|
--0-----0--0--0--1--0--3--|--0-----0--0--0-----0--0--|


        PM PM               
  E  E  E  E  E  E  E  E    
--------------------------||
--------------------------||
--------------------------||
--2-----------------------||
--2-----------2--3--2--5--||
--0-----0--0--0--1--0--3--||



Git 2



                          Pickslide on the A fret    
                      E   H.                     E   
B ||-------|-------|--------------------------------|
F#||-------|-------|--------------------------------|
D ||-------|-------|--------------------------------|
A ||-------|-------|-----21\---------------------L--|
E ||-------|-------|--------------------------------|
B ||-------|-------|--------------------------------|


                         PM PM PM    PM PM PM  
                      E  E  E  E  E  E  E  E   
-------------------|--------------------------|
-------------------|--------------------------|
-------------------|--------------------------|
-------------------|--2-----------2-----------|
-------------------|--2-----------2-----------|
-------------------|--0--0--0--0--0--0--0--0--|


     PM PM PM                   PM PM PM    PM PM PM  
  E  E  E  E  E  E  E  E     E  E  E  E  E  E  E  E   
--------------------------|--------------------------|
--------------------------|--------------------------|
--------------------------|--------------------------|
--2-----------------------|--2-----------2-----------|
--2-----------2--3--2--5--|--2-----------2-----------|
--0--0--0--0--0--1--0--3--|--0--0--0--0--0--0--0--0--|


     PM PM PM                   PM PM PM    PM PM PM  
  E  E  E  E  E  E  E  E     E  E  E  E  E  E  E  E   
--------------------------|--------------------------|
--------------------------|--------------------------|
--------------------------|--------------------------|
--2-----------------------|--2-----------2-----------|
--2-----------2--3--2--5--|--2-----------2-----------|
--0--0--0--0--0--1--0--3--|--0--0--0--0--0--0--0--0--|


     PM PM PM                   PM PM PM    PM PM PM  
  E  E  E  E  E  E  E  E     E  E  E  E  E  E  E  E   
--------------------------|--------------------------|
--------------------------|--------------------------|
--------------------------|--------------------------|
--2-----------------------|--2-----------2-----------|
--2-----------2--3--2--5--|--2-----------2-----------|
--0--0--0--0--0--1--0--3--|--0--0--0--0--0--0--0--0--|


     PM PM PM                   PM PM PM               
  E  E  E  E  E  E  E  E     E  E  E  E  S S E  E  E   
--------------------------|---------------------------|
--------------------------|---------------------------|
--------------------------|---------------------------|
--2-----------------------|--2-----------2-2-2--2--5--|
--2-----------2--3--2--5--|--2------------------------|
--0--0--0--0--0--1--0--3--|--0--0--0--0---------------|


     PM PM PM                    PM PM PM               
  E  E  E  E  S S E  E  E     E  E  E  E  S S E  E  E   
---------------------------|---------------------------|
---------------------------|---------------------------|
---------------------------|---------------------------|
--2-----------2-2-2--2--5--|--2-----------2-2-2--2--5--|
--2------------------------|--2------------------------|
--0--0--0--0---------------|--0--0--0--0---------------|


     PM PM PM                    PM PM PM    PM PM PM  
  E  E  E  E  S S E  E  E     E  E  E  E  E  E  E  E   
---------------------------|--------------------------|
---------------------------|--------------------------|
---------------------------|--------------------------|
--2------------------------|--4-----------4-----------|
--2-----------3-3-3--3--2--|--4-----------4-----------|
--0--0--0--0---------------|--2--2--2--2--2--2--2--2--|


     PM PM PM                    PM PM PM    PM PM PM  
  E  E  E  E  S S E  E  E     E  E  E  E  E  E  E  E   
---------------------------|--------------------------|
---------------------------|--------------------------|
---------------------------|--------------------------|
--4------------------------|--4-----------4-----------|
--4-----------3-3-3--3--2--|--4-----------4-----------|
--2--2--2--2---------------|--2--2--2--2--2--2--2--2--|


     PM PM PM                    PM PM PM               
  E  E  E  E  S S E  E  E     E  E  E  E  S S E  E  E   
---------------------------|---------------------------|
---------------------------|---------------------------|
---------------------------|---------------------------|
--4------------------------|--2-----------2-2-2--2--5--|
--4-----------3-3-3--3--2--|--2------------------------|
--2--2--2--2---------------|--0--0--0--0---------------|


     PM PM PM                    PM PM PM               
  E  E  E  E  S S E  E  E     E  E  E  E  S S E  E  E   
---------------------------|---------------------------|
---------------------------|---------------------------|
---------------------------|---------------------------|
--2-----------2-2-2--2--5--|--2-----------2-2-2--2--5--|
--2------------------------|--2------------------------|
--0--0--0--0---------------|--0--0--0--0---------------|


     PM PM PM                    PM PM PM    PM PM PM  
  E  E  E  E  S S E  E  E     E  E  E  E  E  E  E  E   
---------------------------|--------------------------|
---------------------------|--------------------------|
---------------------------|--------------------------|
--2------------------------|--4-----------4-----------|
--2-----------3-3-3--3--2--|--4-----------4-----------|
--0--0--0--0---------------|--2--2--2--2--2--2--2--2--|


     PM PM PM                    PM PM PM    PM PM PM  
  E  E  E  E  S S E  E  E     E  E  E  E  E  E  E  E   
---------------------------|--------------------------|
---------------------------|--------------------------|
---------------------------|--------------------------|
--4------------------------|--4-----------4-----------|
--4-----------3-3-3--3--2--|--4-----------4-----------|
--2--2--2--2---------------|--2--2--2--2--2--2--2--2--|


     PM PM PM                                                  
  E  E  E  E  S S E  E  E     S S S S S S S S S S S S S S S S  
---------------------------|----------------------------------|
---------------------------|----------------------------------|
---------------------------|----------------------------------|
--4------------------------|----------------------------------|
--4-----------3-3-3--3--2--|----------------------------------|
--2--2--2--2---------------|--0-0-0-0-0-0-0-0-0-0-0-0-0-0-0-0-|


  S S S S S S S S S S S S S S S S    S S S S S S S S S S S S S S S S  
----------------------------------|----------------------------------|
----------------------------------|----------------------------------|
----------------------------------|----------------------------------|
----------------------------------|----------------------------------|
----------------------------------|----------------------------------|
--3-3-3-3-3-3-3-3-3-3-3-3-3-3-3-3-|--5-5-5-5-5-5-5-5-5-5-5-5-5-5-5-5-|


  S S S S S S S S S S S S S S S S    S S S S S S S S S S S S S S S S  
----------------------------------|----------------------------------|
----------------------------------|----------------------------------|
----------------------------------|----------------------------------|
----------------------------------|----------------------------------|
----------------------------------|----------------------------------|
--3-3-3-3-3-3-3-3-3-3-3-3-3-3-3-3-|--0-0-0-0-0-0-0-0-0-0-0-0-0-0-0-0-|


  S S S S S S S S S S S S S S S S    S S S S S S S S S S S S S S S S  
----------------------------------|----------------------------------|
----------------------------------|----------------------------------|
----------------------------------|----------------------------------|
----------------------------------|----------------------------------|
----------------------------------|--8-8-8-8-8-8-8-8-8-8-8-8-8-8-8-8-|
--3-3-3-3-3-3-3-3-3-3-3-3-3-3-3-3-|----------------------------------|


  S S S S S S S S S S S S S S S S    S S S S S S S S S S S S S S S S  
----------------------------------|----------------------------------|
----------------------------------|----------------------------------|
----------------------------------|----------------------------------|
----------------------------------|----------------------------------|
--8-8-8-8-8-8-8-8-8-8-8-8-8-8-8-8-|----------------------------------|
----------------------------------|--0-0-0-0-0-0-0-0-0-0-0-0-0-0-0-0-|


  S S S S S S S S S S S S S S S S    S S S S S S S S S S S S S S S S  
----------------------------------|----------------------------------|
----------------------------------|----------------------------------|
----------------------------------|----------------------------------|
----------------------------------|----------------------------------|
----------------------------------|----------------------------------|
--3-3-3-3-3-3-3-3-3-3-3-3-3-3-3-3-|--5-5-5-5-5-5-5-5-5-5-5-5-5-5-5-5-|


  S S S S S S S S S S S S S S S S    S S S S S S S S S S S S S S S S  
----------------------------------|----------------------------------|
----------------------------------|----------------------------------|
----------------------------------|----------------------------------|
----------------------------------|----------------------------------|
----------------------------------|----------------------------------|
--3-3-3-3-3-3-3-3-3-3-3-3-3-3-3-3-|--0-0-0-0-0-0-0-0-0-0-0-0-0-0-0-0-|


  S S S S S S S S S S S S S S S S    S S S S S S S S S S S S S S S S  
----------------------------------|----------------------------------|
----------------------------------|----------------------------------|
----------------------------------|----------------------------------|
----------------------------------|----------------------------------|
----------------------------------|--8-8-8-8-8-8-8-8-8-8-8-8-8-8-8-8-|
--3-3-3-3-3-3-3-3-3-3-3-3-3-3-3-3-|----------------------------------|


                                        PM PM PM               
  S S S S S S S S S S S S S S S S    E  E  E  E  S S E  E  E   
----------------------------------|---------------------------|
----------------------------------|---------------------------|
----------------------------------|---------------------------|
----------------------------------|--2-----------2-2-2--2--5--|
--8-8-8-8-8-8-8-8-8-8-8-8-8-8-8-8-|--2------------------------|
----------------------------------|--0--0--0--0---------------|


     PM PM PM                    PM PM PM               
  E  E  E  E  S S E  E  E     E  E  E  E  S S E  E  E   
---------------------------|---------------------------|
---------------------------|---------------------------|
---------------------------|---------------------------|
--2-----------2-2-2--2--5--|--2-----------2-2-2--2--5--|
--2------------------------|--2------------------------|
--0--0--0--0---------------|--0--0--0--0---------------|


     PM PM PM                    PM PM PM    PM PM PM  
  E  E  E  E  S S E  E  E     E  E  E  E  E  E  E  E   
---------------------------|--------------------------|
---------------------------|--------------------------|
---------------------------|--------------------------|
--2------------------------|--4-----------4-----------|
--2-----------3-3-3--3--2--|--4-----------4-----------|
--0--0--0--0---------------|--2--2--2--2--2--2--2--2--|


     PM PM PM                    PM PM PM    PM PM PM  
  E  E  E  E  S S E  E  E     E  E  E  E  E  E  E  E   
---------------------------|--------------------------|
---------------------------|--------------------------|
---------------------------|--------------------------|
--4------------------------|--4-----------4-----------|
--4-----------3-3-3--3--2--|--4-----------4-----------|
--2--2--2--2---------------|--2--2--2--2--2--2--2--2--|


     PM PM PM                    PM PM PM               
  E  E  E  E  S S E  E  E     E  E  E  E  S S E  E  E   
---------------------------|---------------------------|
---------------------------|---------------------------|
---------------------------|---------------------------|
--4------------------------|--2-----------2-2-2--2--5--|
--4-----------3-3-3--3--2--|--2------------------------|
--2--2--2--2---------------|--0--0--0--0---------------|


     PM PM PM                    PM PM PM               
  E  E  E  E  S S E  E  E     E  E  E  E  S S E  E  E   
---------------------------|---------------------------|
---------------------------|---------------------------|
---------------------------|---------------------------|
--2-----------2-2-2--2--5--|--2-----------2-2-2--2--5--|
--2------------------------|--2------------------------|
--0--0--0--0---------------|--0--0--0--0---------------|


     PM PM PM                    PM PM PM    PM PM PM  
  E  E  E  E  S S E  E  E     E  E  E  E  E  E  E  E   
---------------------------|--------------------------|
---------------------------|--------------------------|
---------------------------|--------------------------|
--2------------------------|--4-----------4-----------|
--2-----------3-3-3--3--2--|--4-----------4-----------|
--0--0--0--0---------------|--2--2--2--2--2--2--2--2--|


     PM PM PM                    PM PM PM    PM PM PM  
  E  E  E  E  S S E  E  E     E  E  E  E  E  E  E  E   
---------------------------|--------------------------|
---------------------------|--------------------------|
---------------------------|--------------------------|
--4------------------------|--4-----------4-----------|
--4-----------3-3-3--3--2--|--4-----------4-----------|
--2--2--2--2---------------|--2--2--2--2--2--2--2--2--|


     PM PM PM               
  E  E  E  E  S S E  E  E   
---------------------------|
---------------------------|
---------------------------|
--4------------------------|
--4-----------3-3-3--3--2--|
--2--2--2--2---------------|


     PM PM PM PM PM PM PM PM PM PM PM PM PM PM  
  E  S  S  S  S  S  S  S  S  S  S  S  S  S  S   
-----------------------------------------------|
-----------------------------------------------|
-----------------------------------------------|
--4--------------------------------------------|
--4--------------------------------------------|
--2--2--2--2--2--2--2--2--2--0--0--2--2--5--5--|


     PM PM PM PM PM PM PM PM PM PM       
  E  S  S  S  S  S  S  S  S  S  S  Q     
----------------------------------------|
----------------------------------------|
----------------------------------------|
--4--------------------------------2----|
--4--------------------------------3----|
--2--2--2--2--2--2--2--2--2--2--2-------|


     PM PM PM PM PM PM PM PM               
  E  S  S  S  S  S  S  S  S  S  S  E  S S  
------------------------------------------|
------------------------------------------|
------------------------------------------|
--4---------------------------------------|
--4---------------------------------------|
--2--2--2--2--2--2--2--2--2--0h-1h-2--5-5-|


  S S S S S S S S S S S S S S S S  
----------------------------------|
----------------------------------|
----------------------------------|
----------------------------------|
----------------------------------|
--5-5-5-5-5-5-0-0-0-0-0-0-5-5-0-0-|


     PM PM PM PM PM PM PM PM PM PM PM PM PM PM  
  E  S  S  S  S  S  S  S  S  S  S  S  S  S  S   
-----------------------------------------------|
-----------------------------------------------|
-----------------------------------------------|
--4--------------------------------------------|
--4--------------------------------------------|
--2--2--2--2--2--2--2--2--2--0--0--2--2--5--5--|


     PM PM PM PM PM PM PM PM PM PM       
  E  S  S  S  S  S  S  S  S  S  S  Q     
----------------------------------------|
----------------------------------------|
----------------------------------------|
--4--------------------------------2----|
--4--------------------------------3----|
--2--2--2--2--2--2--2--2--2--2--2-------|


     PM PM PM PM PM PM PM PM               
  E  S  S  S  S  S  S  S  S  S  S  E  S S  
------------------------------------------|
------------------------------------------|
------------------------------------------|
--4---------------------------------------|
--4---------------------------------------|
--2--2--2--2--2--2--2--2--2--0h-1h-2--5-5-|


  S S S S S S S S S S S S S S S S             
----------------------------------|----|-----|
----------------------------------|----|-----|
----------------------------------|----|-----|
----------------------------------|----|-----|
----------------------------------|----|-----|
--5-5-5-5-5-5-0-0-0-0-0-0-5-5-0-0-|----|-----|


        PM PM       PM PM          PM PM              
  E  E  E  E  E  E  E  E     E  E  E  E  E  E  E  E   
--------------------------|--------------------------|
--------------------------|--------------------------|
--------------------------|--------------------------|
--4-----------4-----------|--4-----------4--5--4--7--|
--4-----------4-----------|--4-----------4--5--4--7--|
--2-----2--2--2-----2--2--|--2-----2--2--2--3--2--5--|


     PM PM PM    PM PM PM       PM PM PM              
  E  E  E  E  E  E  E  E     E  E  E  E  E  E  E  E   
--------------------------|--------------------------|
--------------------------|--------------------------|
--------------------------|--------------------------|
--2-----------2-----------|--2-----------2--3--2--5--|
--2-----------2-----------|--2-----------2--3--2--5--|
--0--0--0--0--0--0--0--0--|--0--0--0--0--0--1--0--3--|


     PM PM PM    PM PM PM       PM PM PM              
  E  E  E  E  E  E  E  E     E  E  E  E  E  E  E  E   
--------------------------|--------------------------|
--------------------------|--------------------------|
--------------------------|--------------------------|
--2-----------2-----------|--2-----------2--3--2--5--|
--2-----------2-----------|--2-----------2--3--2--5--|
--0--0--0--0--0--0--0--0--|--0--0--0--0--0--1--0--3--|


     PM PM PM    PM PM PM       PM PM PM              
  E  E  E  E  E  E  E  E     E  E  E  E  E  E  E  E   
--------------------------|--------------------------|
--------------------------|--------------------------|
--------------------------|--------------------------|
--4-----------4-----------|--4-----------4--5--4--7--|
--4-----------4-----------|--4-----------4--5--4--7--|
--2--2--2--2--2--2--2--2--|--2--2--2--2--2--3--2--5--|


     PM PM PM    PM PM PM       PM PM PM              
  E  E  E  E  E  E  E  E     E  E  E  E  E  E  E  E   
--------------------------|--------------------------|
--------------------------|--------------------------|
--------------------------|--------------------------|
--4-----------4-----------|--4-----------4--5--4--7--|
--4-----------4-----------|--4-----------4--5--4--7--|
--2--2--2--2--2--2--2--2--|--2--2--2--2--2--3--2--5--|


     PM PM PM    PM PM PM       PM PM PM              
  E  E  E  E  E  E  E  E     E  E  E  E  E  E  E  E   
--------------------------|--------------------------|
--------------------------|--------------------------|
--------------------------|--------------------------|
--2-----------2-----------|--2-----------2--3--2--5--|
--2-----------2-----------|--2-----------2--3--2--5--|
--0--0--0--0--0--0--0--0--|--0--0--0--0--0--1--0--3--|


     PM PM PM    PM PM PM       PM PM PM              
  E  E  E  E  E  E  E  E     E  E  E  E  E  E  E  E   
--------------------------|--------------------------|
--------------------------|--------------------------|
--------------------------|--------------------------|
--2-----------2-----------|--2-----------2--3--2--5--|
--2-----------2-----------|--2-----------2--3--2--5--|
--0--0--0--0--0--0--0--0--|--0--0--0--0--0--1--0--3--|


     PM PM PM    PM PM PM       PM PM PM              
  E  E  E  E  E  E  E  E     E  E  E  E  E  E  E  E   
--------------------------|--------------------------|
--------------------------|--------------------------|
--------------------------|--------------------------|
--4-----------4-----------|--4-----------4--5--4--7--|
--4-----------4-----------|--4-----------4--5--4--7--|
--2--2--2--2--2--2--2--2--|--2--2--2--2--2--3--2--5--|


     PM PM PM    PM PM PM       PM PM PM              
  E  E  E  E  E  E  E  E     E  E  E  E  E  E  E  E   
--------------------------|--------------------------|
--------------------------|--------------------------|
--------------------------|--------------------------|
--4-----------4-----------|--4-----------------------|
--4-----------4-----------|--4--------------5--4-----|
--2--2--2--2--2--2--2--2--|--2--2--2--2--2--------5--|


  S S S S S S S S S S S S S S S S    S S S S S S S S S S S S S S S S  
----------------------------------|----------------------------------|
----------------------------------|----------------------------------|
----------------------------------|----------------------------------|
----------------------------------|----------------------------------|
----------------------------------|----------------------5-5-4-4-----|
--2-2-2-2-2-2-2-2-2-2-2-2-2-2-2-2-|--2-2-2-2-2-2-2-2-2-2---------5-5-|


  S S S S S S S S S S S S S S S S    S S S S S S S S S S S S S S S S  
----------------------------------|----------------------------------|
----------------------------------|----------------------------------|
----------------------------------|----------------------------------|
----------------------------------|----------------------------------|
----------------------------------|----------------------5-5-4-4-----|
--2-2-2-2-2-2-2-2-2-2-2-2-2-2-2-2-|--2-2-2-2-2-2-2-2-2-2---------5-5-|


  S S S S S S S S S S S S S S S S    S S S S S S S S S S S S S S S S  
----------------------------------|----------------------------------|
----------------------------------|----------------------------------|
----------------------------------|----------------------------------|
----------------------------------|----------------------------------|
----------------------------------|----------------------------------|
--7-7-7-7-7-7-7-7-7-7-7-7-7-7-7-7-|--7-7-7-7-7-7-7-7-9-9-9-9-9-9-9-9-|


   S  S  S  S  S  S  S  S  S  S  S  S  S  S  S  S  
--------------------------------------------------|
--------------------------------------------------|
--------------------------------------------------|
--------------------------------------------------|
--------------------------------------------------|
--10-10-10-10-10-10-10-10-10-10-10-10-10-10-10-10-|


   S  S  S  S  S  S  S  S  S  S  S  S  S  S  S  S  
--------------------------------------------------|
--------------------------------------------------|
--------------------------------------------------|
--------------------------------------------------|
--------------------------------------------------|
--10-10-10-10-10-10-10-10-10-10-10-10-10-10-10-10-|


  S S S S S S S S S S S S S S S S    S S S S S S S S S S S S S S S S  
----------------------------------|----------------------------------|
----------------------------------|----------------------------------|
----------------------------------|----------------------------------|
----------------------------------|----------------------------------|
----------------------------------|----------------------5-5-4-4-----|
--2-2-2-2-2-2-2-2-2-2-2-2-2-2-2-2-|--2-2-2-2-2-2-2-2-2-2---------5-5-|


  S S S S S S S S S S S S S S S S    S S S S S S S S S S S S S S S S  
----------------------------------|----------------------------------|
----------------------------------|----------------------------------|
----------------------------------|----------------------------------|
----------------------------------|----------------------------------|
----------------------------------|----------------------5-5-4-4-----|
--2-2-2-2-2-2-2-2-2-2-2-2-2-2-2-2-|--2-2-2-2-2-2-2-2-2-2---------5-5-|


  S S S S S S S S S S S S S S S S    S S S S S S S S S S S S S S S S  
----------------------------------|----------------------------------|
----------------------------------|----------------------------------|
----------------------------------|----------------------------------|
----------------------------------|----------------------------------|
----------------------------------|----------------------------------|
--7-7-7-7-7-7-7-7-7-7-7-7-7-7-7-7-|--7-7-7-7-7-7-7-7-9-9-9-9-9-9-9-9-|


   S  S  S  S  S  S  S  S  S  S  S  S  S  S  S  S  
--------------------------------------------------|
--------------------------------------------------|
--------------------------------------------------|
--------------------------------------------------|
--------------------------------------------------|
--10-10-10-10-10-10-10-10-10-10-10-10-10-10-10-10-|


   S  S  S  S  S  S  S  S  S  S  S  S  S  S  S  S  
--------------------------------------------------|
--------------------------------------------------|
--------------------------------------------------|
--------------------------------------------------|
--------------------------------------------------|
--10-10-10-10-10-10-10-10-10-10-10-10-10-10-10-10-|


  S S S S S S S S S S S S S S S S    S S S S S S S S S S S S S S S S  
----------------------------------|----------------------------------|
----------------------------------|----------------------------------|
----------------------------------|----------------------------------|
----------------------------------|----------------------------------|
----------------------------------|----------------------5-5-4-4-----|
--2-2-2-2-2-2-2-2-2-2-2-2-2-2-2-2-|--2-2-2-2-2-2-2-2-2-2---------5-5-|


                                                         PM PM PM  
  S S S S S S S S S S S S S S S S    S S S S S S S S S S E  E  E   
----------------------------------|-------------------------------|
----------------------------------|-------------------------------|
----------------------------------|-------------------------------|
----------------------------------|------------------4-4----------|
----------------------------------|------------------4-4-2--2--2--|
--2-2-2-2-2-2-2-2-2-2-2-2-2-2-2-2-|--2-2-2-2-2-2-2-2-2-2-0--0--0--|


  S S S S S S S S S S S S S S S S    S S S S S S S S S S S S S S S S  
----------------------------------|----------------------------------|
----------------------------------|----------------------------------|
----------------------------------|----------------------------------|
----------------------------------|----------------------------------|
----------------------------------|----------------------------------|
--0-0-0-0-0-0-0-0-0-0-0-0-0-0-0-0-|--3-3-3-3-3-3-3-3-3-3-3-3-3-3-3-3-|


  S S S S S S S S S S S S S S S S    S S S S S S S S S S S S S S S S  
----------------------------------|----------------------------------|
----------------------------------|----------------------------------|
----------------------------------|----------------------------------|
----------------------------------|----------------------------------|
----------------------------------|----------------------------------|
--5-5-5-5-5-5-5-5-5-5-5-5-5-5-5-5-|--3-3-3-3-3-3-3-3-3-3-3-3-3-3-3-3-|


  S S S S S S S S S S S S S S S S    S S S S S S S S S S S S S S S S  
----------------------------------|----------------------------------|
----------------------------------|----------------------------------|
----------------------------------|----------------------------------|
----------------------------------|----------------------------------|
----------------------------------|----------------------------------|
--0-0-0-0-0-0-0-0-0-0-0-0-0-0-0-0-|--3-3-3-3-3-3-3-3-3-3-3-3-3-3-3-3-|


  S S S S S S S S S S S S S S S S    S S S S S S S S S S S S S S S S  
----------------------------------|----------------------------------|
----------------------------------|----------------------------------|
----------------------------------|----------------------------------|
----------------------------------|----------------------------------|
--8-8-8-8-8-8-8-8-8-8-8-8-8-8-8-8-|--8-8-8-8-8-8-8-8-8-8-8-8-8-8-8-8-|
----------------------------------|----------------------------------|


  S S S S S S S S S S S S S S S S    S S S S S S S S S S S S S S S S  
----------------------------------|----------------------------------|
----------------------------------|----------------------------------|
----------------------------------|----------------------------------|
----------------------------------|----------------------------------|
----------------------------------|----------------------------------|
--0-0-0-0-0-0-0-0-0-0-0-0-0-0-0-0-|--3-3-3-3-3-3-3-3-3-3-3-3-3-3-3-3-|


  S S S S S S S S S S S S S S S S    S S S S S S S S S S S S S S S S  
----------------------------------|----------------------------------|
----------------------------------|----------------------------------|
----------------------------------|----------------------------------|
----------------------------------|----------------------------------|
----------------------------------|----------------------------------|
--5-5-5-5-5-5-5-5-5-5-5-5-5-5-5-5-|--3-3-3-3-3-3-3-3-3-3-3-3-3-3-3-3-|


  S S S S S S S S S S S S S S S S    S S S S S S S S S S S S S S S S  
----------------------------------|----------------------------------|
----------------------------------|----------------------------------|
----------------------------------|----------------------------------|
----------------------------------|----------------------------------|
----------------------------------|----------------------------------|
--0-0-0-0-0-0-0-0-0-0-0-0-0-0-0-0-|--3-3-3-3-3-3-3-3-3-3-3-3-3-3-3-3-|


  S S S S S S S S S S S S S S S S    S S S S S S S S S S S S S S S S  
----------------------------------|----------------------------------|
----------------------------------|----------------------------------|
----------------------------------|----------------------------------|
----------------------------------|----------------------------------|
--8-8-8-8-8-8-8-8-8-8-8-8-8-8-8-8-|--8-8-8-8-8-8-8-8-8-8-8-8-8-8-8-8-|
----------------------------------|----------------------------------|


        PM PM       PM PM          PM PM              
  E  E  E  E  E  E  E  E     E  E  E  E  E  E  E  E   
--------------------------|--------------------------|
--------------------------|--------------------------|
--------------------------|--------------------------|
--2-----------2-----------|--2-----------------------|
--2-----------2-----------|--2-----------2--3--2--5--|
--0-----0--0--0-----0--0--|--0-----0--0--0--1--0--3--|


        PM PM       PM PM          PM PM               
  E  E  E  E  E  E  E  E     E  E  E  E  E  E  E  E    
--------------------------|--------------------------||
--------------------------|--------------------------||
--------------------------|--------------------------||
--2-----------2-----------|--2-----------------------||
--2-----------2-----------|--2-----------2--3--2--5--||
--0-----0--0--0-----0--0--|--0-----0--0--0--1--0--3--||



Git 3



                                Pickslide on the A fret 
                      H         H                       
B ||-------|-------|-----------------------------------|
F#||-------|-------|-----------------------------------|
D ||-------|-------|-----------------------------------|
A ||-------|-------|-----------21\---------------------|
E ||-------|-------|-----------------------------------|
B ||-------|-------|-----------------------------------|


  H        H                                                         
--------------------|-------|-------|-------|-------|-------|-------|
--------------------|-------|-------|-------|-------|-------|-------|
--------------------|-------|-------|-------|-------|-------|-------|
--L-----------------|-------|-------|-------|-------|-------|-------|
--------------------|-------|-------|-------|-------|-------|-------|
--------------------|-------|-------|-------|-------|-------|-------|


-------|-------|-------|-------|-------|-------|-------|-------|
-------|-------|-------|-------|-------|-------|-------|-------|
-------|-------|-------|-------|-------|-------|-------|-------|
-------|-------|-------|-------|-------|-------|-------|-------|
-------|-------|-------|-------|-------|-------|-------|-------|
-------|-------|-------|-------|-------|-------|-------|-------|


-------|-------|-------|-------|-------|-------|-------|-------|
-------|-------|-------|-------|-------|-------|-------|-------|
-------|-------|-------|-------|-------|-------|-------|-------|
-------|-------|-------|-------|-------|-------|-------|-------|
-------|-------|-------|-------|-------|-------|-------|-------|
-------|-------|-------|-------|-------|-------|-------|-------|


-------|-------|-------|-------|-------|-------|-------|-------|
-------|-------|-------|-------|-------|-------|-------|-------|
-------|-------|-------|-------|-------|-------|-------|-------|
-------|-------|-------|-------|-------|-------|-------|-------|
-------|-------|-------|-------|-------|-------|-------|-------|
-------|-------|-------|-------|-------|-------|-------|-------|


-------|-------|-------|-------|-------|-------|-------|-------|
-------|-------|-------|-------|-------|-------|-------|-------|
-------|-------|-------|-------|-------|-------|-------|-------|
-------|-------|-------|-------|-------|-------|-------|-------|
-------|-------|-------|-------|-------|-------|-------|-------|
-------|-------|-------|-------|-------|-------|-------|-------|


          H.           E   E      W                  
-------|------------------12--|--15b----------------|
-------|----------------------|---------------------|
-------|----------------------|---------------------|
-------|----------------------|---------------------|
-------|----------------------|---------------------|
-------|----------------------|---------------------|


                            PM  PM  PM  PM  PM  PM PM PM  
   H.            E   E      E   E   E   E   E   E  E  E   
--15b------------L--12--|--15--14--12--10--12--10--8--7--|
------------------------|--------------------------------|
------------------------|--------------------------------|
------------------------|--------------------------------|
------------------------|--------------------------------|
------------------------|--------------------------------|


  PM PM PM PM PM PM PM PM                        
  E  E  E  E  E  E  E  E     H.           E  E   
--8--7--5--7--5-----------|---------------------|
-----------------8--6--8--|---------------------|
--------------------------|---------------------|
--------------------------|--4---------------7--|
--------------------------|---------------------|
--------------------------|---------------------|


  PM PM PM PM PM PM PM                                 
  E  E  E  E  E  E  E    E     H.            E    E    
----------------------------|-------------------------|
-----------------------/10--|--9~------------L--/14~--|
-----4--6--7--9--7--6-------|-------------------------|
--6-------------------------|-------------------------|
----------------------------|-------------------------|
----------------------------|-------------------------|


   Q.       E    H                                                  
----------------17~--------|-------|-------|-------|-------|-------|
--14~------14~-------------|-------|-------|-------|-------|-------|
---------------------------|-------|-------|-------|-------|-------|
---------------------------|-------|-------|-------|-------|-------|
---------------------------|-------|-------|-------|-------|-------|
---------------------------|-------|-------|-------|-------|-------|


-------|-------|-------|-------|-------|-------|-------|-------|
-------|-------|-------|-------|-------|-------|-------|-------|
-------|-------|-------|-------|-------|-------|-------|-------|
-------|-------|-------|-------|-------|-------|-------|-------|
-------|-------|-------|-------|-------|-------|-------|-------|
-------|-------|-------|-------|-------|-------|-------|-------|


                           \1/                                   
                           W                   W                 
-------|-------|-------|--19----------------|--L----------------|
-------|-------|-------|--------------------|-------------------|
-------|-------|-------|--------------------|-------------------|
-------|-------|-------|--------------------|-------------------|
-------|-------|-------|--------------------|-------------------|
-------|-------|-------|--------------------|-------------------|


                                               W                     
                      H.           E    E      H.           E    E   
-------------------|-----------------------|------------------------|
-------------------|------------------/20--|--20------------L--/19--|
-------------------|-----------------------|------------------------|
-------------------|-----------------------|------------------------|
-------------------|-----------------------|------------------------|
-------------------|-----------------------|------------------------|


   W                                           
   H.           E    E      W                  
------------------------|---------------------|
--19------------L--/12--|--12~----------------|
------------------------|---------------------|
------------------------|---------------------|
------------------------|---------------------|
------------------------|---------------------|


  Q.       E   S E   S E   S S     S   E  H.           S  
-------------------------------|-------------------------|
--L------/12--15----14----12---|--12h-14--L------------L-|
-------------------------------|-------------------------|
-------------------------------|-------------------------|
-------------------------------|-------------------------|
-------------------------------|-------------------------|


  H         E   E   E    E      S   H.           S  E   
----------------------------|--------------------------|
--L--------15--14--12h--14--|--12h-14------------L-14--|
----------------------------|--------------------------|
----------------------------|--------------------------|
----------------------------|--------------------------|
----------------------------|--------------------------|


                         PM  PM  PM  PM  PM  PM  PM  PM  
   W                     E   E   E   E   E   E   E   E   
---------------------|--15--14--15--14--12--14--12--10--|
--15b----------------|----------------------------------|
---------------------|----------------------------------|
---------------------|----------------------------------|
---------------------|----------------------------------|
---------------------|----------------------------------|


   PM  PM PM  PM PM PM PM PM    PM PM PM PM PM PM PM PM  
   E   E  E   E  E  E  E  E     E  E  E  E  E  E  E  E   
--12--10--9--10--9--7--9--7--|--6--7--6--3--6--3--2--3--|
-----------------------------|--------------------------|
-----------------------------|--------------------------|
-----------------------------|--------------------------|
-----------------------------|--------------------------|
-----------------------------|--------------------------|


  PM PM PM PM PM PM PM PM                       
  E  E  E  E  E  E  E  E      W                 
--2--0--3--2--0--3--2--0--|--------------------|
--------------------------|--/7----------------|
--------------------------|--------------------|
--------------------------|--------------------|
--------------------------|--------------------|
--------------------------|--------------------|


  E  S E  S E  S S Q    E     H.           E    E   
---------------------------|-----------------------|
--8----7----5--7-5-7----8--|--7------------L--/15--|
---------------------------|-----------------------|
---------------------------|-----------------------|
---------------------------|-----------------------|
---------------------------|-----------------------|


   W            W                                             
   Q.       E   H                                             
-------------------------|-----------|-----------|-----------|
--15------/14--14--------|-----------|-----------|-----------|
-------------------------|-----------|-----------|-----------|
-------------------------|-----------|-----------|-----------|
-------------------------|-----------|-----------|-----------|
-------------------------|-----------|-----------|-----------|
comments
print report bad tab
I want to post or [tab]
guest
You may want to rate the tab now too:
select rating
Please do not post tabs as comments. Select "correction" instead!