Oops, an error
Loading. Please wait.

Black Winter Day Tab

ver3
ver3

Whole song

Interactive

More versions @911Tabs.com
3,714 views 3 this week
no commentswrite comment
1 2 3 4 5
excellent!
x 1
Autoscroll
+/-
esc
set tempo
stop
Contributor
Hey! There's an official Ultimate Guitar app which is ideal
for learning songs when you're away from computer. Get the app
WARNING: You are trying to view
                                    content from Ultimate-Guitar.com
                                    in an unauthorized application,
                                    which is prohibited.

                                    Please use an official Ultimate
                                    Guitar Tabs application for iPhone,
                                    iPad or Android to access legitimate
                                    chords, guitar, bass, and drum tabs
                                    from Ultimate-Guitar.com database.

                                    Type "ultimate guitar tabs" in Apple
                                    App Store's or Android Market's
                                    search to find the application.
#----------------------------------PLEASE NOTE---------------------------------#
#This file is the author's own work and represents their interpretation of the #
#song. You may only use this file for private study, scholarship, or research. #
#------------------------------------------------------------------------------#

BLACK WINTER DAY
As recorded by Amorphis
(From the 1994 Album "TALES FROM THE THOUSAND LAKES)


Transcribed by Israel Velasco

 Words by Traditional Music by Martenson
Arranged by Amorphis
 

F#5

2 4 4 x x x 

A5

5 7 7 x x x 

B5

7 9 9 x x x 

G5

3 5 5 x x x 

D5V

x 5 7 7 x x 

E5open

0 2 2 x x x 

D5X

10 12 12 x x x 

C5

x 3 5 5 x x 

E5VII

x 7 9 9 x x 

E5/B

7 7 9 x x x 

D5/A

5 5 7 x x x 


Gtr I (Db Gb B E Ab Db) - 'lead-guitar'
Gtr II (Db Gb B E Ab Db) - 'rythm-guitar'
Gtr III (E A D G B E) - 'key-lead'
Gtr IV (E A D G B E) - 'key-rythm'
Gtr V (E A D G B E) - 'clean-vocals'


 Intro
  Doom Metal Moderately Q=126
  Bm                  G           A       Bm
 3/4
  Gtr III
   E  E  E  E  E  E    E  E  E  E  E  E    E  E  E  E  E  E
|-------------12-14-|----------------12-|----14-12----12----|
|-12-14-15-12-------|-------12----------|-12-------12----15-|
|-------------------|-12-14----12-14----|-------------------|
|-------------------|-------------------|-------------------|
|-------------------|-------------------|-------------------|
|-------------------|-------------------|-------------------|
|
| Gtr IV
|  H           Q       H           Q       H           Q
|-------------------|-------------------|-------------------|
|-------------------|-------------------|-------------------|
|--7-----------7----|--4-----------6----|--7-----------7----|
|--9-----------9----|--5-----------7----|--9-----------9----|
|--9-----------9----|--5-----------7----|--9-----------9----|
|--7-----------7----|--3-----------5----|--7-----------7----|


  A           D5         Bm                  G           A
   E  E  E  E  S  S  E    E  E  E  E  E  E    E  E  E  E  E  E
|----------12-12-14-17-|-------------12-14-|----------------12-|
|----12-14-------------|-12-14-15-12-------|-------12----------|
|-14-------------------|-------------------|-12-14----12-14----|
|----------------------|-------------------|-------------------|
|----------------------|-------------------|-------------------|
|----------------------|-------------------|-------------------|
|
|  H           Q          H           Q       H           Q
|----------------------|-------------------|-------------------|
|----------------------|-------------------|-------------------|
|--6-----------7-------|--7-----------7----|--4-----------6----|
|--7-----------7-------|--9-----------9----|--5-----------7----|
|--7-----------5-------|--9-----------9----|--5-----------7----|
|--5-------------------|--7-----------7----|--3-----------5----|


  F#5                 A5                     B5
  Gtr II
   Q     E  E  E  E    Q     E  E  Q         Q.       E Q
   |     |  |  |  |    |     |  |  |         |        | |
   /     /  /  /  /    /     /  /  /         /        / /

  Gtr I
   Q     E  E  E  E    Q     E  E  Q         E   E  E E E  E
|-------------------|----------------------|-----------------|
|-------------------|----------------------|-----------------|
|-------------------|----------------------|------------9-11-|
|--4-----4--4--4--4-|--7-----7--7--7-------|-9--11-12-9------|
|--4-----4--4--4--4-|--7-----7--7--7-------|-----------------|
|--2-----2--2--2--2-|--5-----5--5--5-------|-----------------|
|
| Gtr III
|  E  E  E  E  E  E    E  E  E  E  S  S  E   W
|----14-12----12----|----------12-12-14-17-|-----------------|
|-12-------12----15-|----12-14-------------|-----------------|
|-------------------|-14-------------------|-----------------|
|-------------------|----------------------|-----------------|
|-------------------|----------------------|-----------------|
|-------------------|----------------------|-----------------|


  G5         A5     B5                 A5        D5V
   H          Q     Q.       E  Q       H        Q
   |          |     |        |  |       |        |
   /          /     /        /  /       /        /

   E  E E  E  E E   E   E  E E  E  E    E E  E E S  S  E
|-----------------|------------------|-------------------|
|-----------------|------------------|----------------10-|
|---------------9-|----12-11---------|---------9-9h11----|
|-------9---------|-9--------9-12-11-|----9-11-----------|
|-10-12---10-12---|------------------|-12----------------|
|-----------------|------------------|-------------------|
|
|  W                W                   W
|-----------------|------------------|-------------------|
|-----------------|------------------|-------------------|
|-----------------|------------------|-------------------|
|-----------------|------------------|-------------------|
|-----------------|------------------|-------------------|
|-----------------|------------------|-------------------|


  B5                G5         A5     F#5
  Q.       E Q       H          Q     Q     E E E  E
  |        | |       |          |     |     | | |  |
  /        / /       /          /     /     / / /  /

  E   E  E E E  E    E  E E  E  E E   E  E  E E E  E
|-----------------|-----------------|----------------|
|-----------------|-----------------|----------------|
|------------9-11-|---------------9-|----------------|
|-9--11-12-9------|-------9---------|---------9-9h11-|
|-----------------|-10-12---10-12---|-9-11-12--------|
|-----------------|-----------------|----------------|


  A5                B5                G5         A5
  Q   E     E  Q    Q.       E Q       H          Q
  |   |     |  |    |        | |       |          |
  /   /     /  /    /        / /       /          /

  Q   S  S  E  Q    E   E  E E E  E    E  E E  E  E E
|-----------------|-----------------|------------------|
|-----------------|-----------------|------------------|
|-----------------|------------9-11-|---------------9--|
|-9---------------|-9--11-12-9------|-------9----------|
|----11S12S11-----|-----------------|-10-12---10-12----|
|-------------12--|-----------------|------------------|


  B5                 A5        D5V       B5
  Q.       E  Q       H        Q         Q.       E Q
  |        |  |       |        |         |        | |
  /        /  /       /        /         /        / /

  E   E  E E  E  E    E E  E E S  S  E   E   E  E E E  E
|------------------|-------------------|-----------------|
|------------------|----------------10-|-----------------|
|----12-11---------|---------9-9h11----|------------9-11-|
|-9--------9-12-11-|----9-11-----------|-9--11-12-9------|
|------------------|-12----------------|-----------------|
|------------------|-------------------|-----------------|


  G5         A5     F#5              A5
   H          Q     Q     E E E  E   Q   E     E  Q
   |          |     |     | | |  |   |   |     |  |
   /          /     /     / / /  /   /   /     /  /

   E  E E  E  E E   E  E  E E E  E   Q   S  S  E  Q
|-----------------|----------------|-----------------|
|-----------------|----------------|-----------------|
|---------------9-|----------------|-----------------|
|-------9---------|---------9-9h11-|-9---------------|
|-10-12---10-12---|-9-11-12--------|----11S12S11-----|
|-----------------|----------------|-------------12--|


                                   Verse
  F#5               A5              E5open
  Q     E E  E  E   Q    E  E Q     H.
  |     | |  |  |   |    |  | |     |
  /     / /  /  /   /    /  / /     /

  E  E  E E  E  E   E  E E  E Q     E   E E E  E E
|-----------------|--------------||----------------|
|-----------------|--------------||----------------|
|-----------------|--------------||----------------|
|-----------------|------9h11-9--||--------------9-|
|-9-11-12-9-11-12-|-9h11---------||-7-----7-9-10---|
|-----------------|--------------||----10----------|


  G5              E5open           D5V
   H.             H.                H.
   |              |                 |
   /              /                 /

   E  E E  E Q    E   E E E  E E    E  E E  E Q
|---------------|----------------|---------------|
|---------------|----------------|---------------|
|---------------|----------------|---------------|
|---------------|--------------9-|---------------|
|-10--9-7-------|-7-----7-9-10---|-10--9-7----7--|
|---------10-7--|----10----------|---------10----|


  E5open           G5              E5oG5n F#5  C5
  H.                H.             Q   Q  Q     H.
  |                 |              |   |  |     |
  /                 /              /   /  /     /

  E   E E E  E E    E  E E  E Q    Q   Q  Q     H.
|----------------|---------------|-----------|----------|
|----------------|---------------|-----------|----------|
|----------------|---------------|-----------|----------|
|--------------9-|---------------|-----------|----------|
|-7-----7-9-10---|-10--9-7-------|-7--10--9--|-10-------|
|----10----------|---------10-7--|-----------|----------|


  E5open           G5              E5open           D5X
  H.                H.             H.                H.
  |                 |              |                 |
  /                 /              /                 /

  E   E E E  E E    E  E E  E Q    E   E E E  E E    E  E E  E Q
|----------------|---------------|----------------|-----------------|
|----------------|---------------|----------------|-----------------|
|----------------|---------------|----------------|-----------------|
|--------------9-|---------------|--------------9-|-----------------|
|-7-----7-9-10---|-10--9-7-------|-7-----7-9-10---|-10--9-7---------|
|----10----------|---------10-7--|----10----------|---------10-7----|


  E5open           G5              E5oF#5D5V
  H.                H.             Q  Q   Q
  |                 |              |  |   |
  /                 /              /  /   /

  E   E E E  E E    E  E E  E Q    Q  Q   Q
|----------------|---------------|-----------|
|----------------|---------------|-----------|
|----------------|---------------|-----------|
|--------------9-|---------------|-----------|
|-7-----7-9-10---|-10--9-7----7--|-7--9------|
|----10----------|---------10----|-------10--|
|
| Gtr III
| W                 W              W
|----------------|---------------|-----------|
|----------------|---------------|-----------|
|----------------|---------------|-----------|
|----------------|---------------|-----------|
|----------------|---------------|-----------|
|----------------|---------------|-----------|


           Bridge
  C5        B5                       D5X
                       |-3-|
  H.         Q.        S S S  Q       Q.        E  Q
  |          |         | | |  |       |         |  |
  /          /         / / /  /       /         /  /

                       |-3-|
  H.         Q.        S S S  Q       Q.        E  Q
|---------|------------------------|------------------|
|---------|------------------------|------------------|
|---------|------------------------|------------------|
|---------|--9---------9-9-9--9----|-12--------12-12--|
|-7-------|--9---------9-9-9--9----|-12--------12-12--|
|---------|--7---------7-7-7--7----|-10--------10-10--|
|
| W          E   E  E  E      E  E    E   E  E  E  Q
|---------|------------------------|------------------|
|---------|--------16-18-----19-21-|-19--18-16-14-16--|
|---------|-20--18-----------------|------------------|
|---------|------------------------|------------------|
|---------|------------------------|------------------|
|---------|------------------------|------------------|


  B5                       E5VII
  Gtrs I, II
             |-3-|
   Q.        S S S  Q       Q.        E  Q
   |         | | |  |       |         |  |
   /         / / /  /       /         /  /

  Gtr III
   E   E  E  E      E  E    E   E  E  E  Q
|------------------------|-----------14-13--|
|-16--14-16-18-----19-21-|-19--18-16--------|
|------------------------|------------------|
|------------------------|------------------|
|------------------------|------------------|
|------------------------|------------------|
|
| Gtr IV
|  W                        W
|------------------------|------------------|
|------------------------|------------------|
|------------------------|------------------|
|------------------------|------------------|
|------------------------|------------------|
|------------------------|------------------|


  B5                  B5               E5opF#5
           |-3-|
   Q.      S S S Q      H.              E  Q  E Q
   |       | | | |      |               |  |  | |
   /       / / / /      /               /  /  / /

   E  E  H             +H      +E  E    H.
|-11--9-11----------|-(11)----(11)-9-|-11----------|
|-------------------|----------------|-------------|
|-------------------|----------------|-------------|
|-------------------|----------------|-------------|
|-------------------|----------------|-------------|
|-------------------|----------------|-------------|
|
|  W                    H.             +H.
|-------------------|---6------------|-(6)---------|
|-------------------|---7------------|-(7)---------|
|-------------------|---8------------|-(8)---------|
|-------------------|---8------------|-(8)---------|
|-------------------|----------------|-------------|
|-------------------|----------------|-------------|


               Chorus
  E5opF#5       B5                      D5X
                          |-3-|
   E  Q  E Q     Q.       S S S  Q       Q.       E  Q
   |  |  | |     |        | | |  |       |        |  |
   /  /  / /     /        / / /  /       /        /  /

   W             E  E  E  E      E  E    E   E  E E  Q
|-------------|-11--9-11-13-----14-16-|-14--13-11-9-11--|
|-------------|-----------------------|-----------------|
|-------------|-----------------------|-----------------|
|-------------|-----------------------|-----------------|
|-------------|-----------------------|-----------------|
|-------------|-----------------------|-----------------|
|
| +H.           +H.                     +H.
|-(6)---------|-(6)-------------------|-(6)-------------|
|-(7)---------|-(7)-------------------|-(7)-------------|
|-(8)---------|-(8)-------------------|-(8)-------------|
|-(8)---------|-(8)-------------------|-(8)-------------|
|-------------|-----------------------|-----------------|
|-------------|-----------------------|-----------------|


  B5                      E5VII
            |-3-|
   Q.       S S S  Q       Q.        E  Q
   |        | | |  |       |         |  |
   /        / / /  /       /         /  /

   E  E  E  E      E  E    E   E  E  E  Q
|-11--9-11-13-----14-16-|-14--13-11-14-13--|
|-----------------------|------------------|
|-----------------------|------------------|
|-----------------------|------------------|
|-----------------------|------------------|
|-----------------------|------------------|
|
|  W                       W
|-----------------------|------------------|
|-----------------------|------------------|
|-----------------------|------------------|
|-----------------------|------------------|
|-----------------------|------------------|
|-----------------------|------------------|


  B5                  B5               E5opF#5
           |-3-|
   Q.      S S S Q      H.              E  Q  E Q
   |       | | | |      |               |  |  | |
   /       / / / /      /               /  /  / /

   E  E  H             +H      +E  E    H.
|-11--9-11----------|-(11)----(11)-9-|-11----------|
|-------------------|----------------|-------------|
|-------------------|----------------|-------------|
|-------------------|----------------|-------------|
|-------------------|----------------|-------------|
|-------------------|----------------|-------------|
|
|  W                    H.             +H.
|-------------------|---6------------|-(6)---------|
|-------------------|---7------------|-(7)---------|
|-------------------|---8------------|-(8)---------|
|-------------------|---8------------|-(8)---------|
|-------------------|----------------|-------------|
|-------------------|----------------|-------------|


  E5opeF#5       B5
                           |-3-|
    E  Q  E Q     Q.       S S S  Q
    |  |  | |     |        | | |  |
    /  /  / /     /        / / /  /

   +H.            E  E  E  E      E  E
|-(11)---------|-11--9-11-13-----14-16-|
|--------------|-----------------------|
|--------------|-----------------------|
|--------------|-----------------------|
|--------------|-----------------------|
|--------------|-----------------------|
|
|  +H.           +H.
|--(6)---------|-(6)-------------------|
|--(7)---------|-(7)-------------------|
|--(8)---------|-(8)-------------------|
|--(8)---------|-(8)-------------------|
|--------------|-----------------------|
|--------------|-----------------------|


  D5X               B5
                              |-3-|
   Q.       E  Q     Q.       S S S  Q
   |        |  |     |        | | |  |
   /        /  /     /        / / /  /

   E   E  E E  Q     E  E  E  E      E  E
|-14--13-11-9-11--|-11--9-11-13-----14-16-|
|-----------------|-----------------------|
|-----------------|-----------------------|
|-----------------|-----------------------|
|-----------------|-----------------------|
|-----------------|-----------------------|
|
| +H.                W
|-(6)-------------|-----------------------|
|-(7)-------------|-----------------------|
|-(8)-------------|-----------------------|
|-(8)-------------|-----------------------|
|-----------------|-----------------------|
|-----------------|-----------------------|


  E5VII              B5                   B5
                               |-3-|
   Q.        E  Q     Q.       S S S Q      H.
   |         |  |     |        | | | |      |
   /         /  /     /        / / / /      /

   E   E  E  E  Q     E   E  H             +H      +E   E
|-14--13-11-16-14--|--------------------|-----------------|
|------------------|-16--14-16----------|-(16)----(16)-14-|
|------------------|--------------------|-----------------|
|------------------|--------------------|-----------------|
|------------------|--------------------|-----------------|
|------------------|--------------------|-----------------|
|
|  W                  H.                   +H.
|------------------|--4-----------------|--(4)------------|
|------------------|--4-----------------|--(4)------------|
|------------------|--4-----------------|--(4)------------|
|------------------|--------------------|-----------------|
|------------------|--------------------|-----------------|
|------------------|--------------------|-----------------|


  F#5          A5            B5
                                        |-3-|
   Q.   E Q      Q.   E Q     Q.        S S S  Q
   |    | |      |    | |     |         | | |  |
   /    / /      /    / /     /         / / /  /

   H.           +H.           E   E  E  E      E  E
|------------|-------------|------------------------|
|-16---------|-(16)--------|-16--14-16-18-----19-21-|
|------------|-------------|------------------------|
|------------|-------------|------------------------|
|------------|-------------|------------------------|
|------------|-------------|------------------------|
|
|  H.           +H.           W
|--2---------|--(2)--------|------------------------|
|--4---------|--(4)--------|------------------------|
|--3---------|--(3)--------|------------------------|
|------------|-------------|------------------------|
|------------|-------------|------------------------|
|------------|-------------|------------------------|


  D5X                B5
                                |-3-|
   Q.        E  Q     Q.        S S S  Q
   |         |  |     |         | | |  |
   /         /  /     /         / / /  /

   E   E  E  E  Q     E   E  E  E      E  E
|------------------|------------------------||
|-19--18-16-14-16--|-16--14-16-18-----19-21-||
|------------------|------------------------||
|------------------|------------------------||
|------------------|------------------------||
|------------------|------------------------||
|
|  W                  W
|------------------|------------------------||
|------------------|------------------------||
|------------------|------------------------||
|------------------|------------------------||
|------------------|------------------------||
|------------------|------------------------||


  E5VII              B5
                               |-3-|
   Q.        E  Q     Q.       S S S Q      H.
   |         |  |     |        | | | |      |
   /         /  /     /        / / / /      /

  Gtr I
                               |-3-|
   Q.        E  Q     Q.       S S S Q      H.
|------------------|--------------------|-----------------|
|------------------|--------------------|-----------------|
|--9---------9--9--|--------------------|-----------------|
|--9---------9--9--|--------------------|-----------------|
|--7---------7--7--|--9--------9-9-9-9--|---9-------------|
|------------------|--7--------7-7-7-7--|---7-------------|
|
| Gtr III
|  E   E  E  E  Q     E   E  H             +H      +E   E
|-----------16-14--|--------------------|-----------------|
|-19--18-16--------|-16--14-16----------|-(16)----(16)-14-|
|------------------|--------------------|-----------------|
|------------------|--------------------|-----------------|
|------------------|--------------------|-----------------|
|------------------|--------------------|-----------------|


                             Interlude
  F#5          A5             E5/B
   Q.   E Q      Q.   E Q     H         E E
   |    | |      |    | |     |         | |
   /    / /      /    / /     /         / /

                                        ~
   Q.   E Q      Q.   E Q     E  E E  E Q
|------------|-------------||---------------|
|------------|-------------||---------------|
|------------|-------------||---------------|
|------------|-------------||---10-9--------|
|--4----4-4--|---7----7-7--||-7------10-7---|
|--2----2-2--|---5----5-5--||---------------|
|
|  H.           +H.           W
|------------|-------------||---------------|
|-16---------|-(16)--------||---------------|
|------------|-------------||---------------|
|------------|-------------||---------------|
|------------|-------------||---------------|
|------------|-------------||---------------|


  E5/B D5/A    E5/B                A5
  Q     H      H        E E   Q     H
  |     |      |        | |   |     |
  /     /      /        / /   /     /

        ~~              ~           ~~
  E  E  H      E E  E E Q     E  E  Q  Q
|------------|--------------|-------------|
|------------|--------------|-------------|
|------------|--------------|-------------|
|-9-10S12----|--------9-----|-------------|
|------------|-7-9-10---7---|-9-10S12-----|
|------------|--------------|-------------|


  E5/B                 D5/A    E5/B
  H         E E   Q     H      H        E E
  |         | |   |     |      |        | |
  /         / /   /     /      /        / /

            ~           ~~              ~
  E  E E  E Q     E  E  H      E E  E E Q
|---------------|------------|--------------|
|---------------|------------|--------------|
|---------------|------------|--------------|
|---10-9--------|-9-10S12----|--------9-----|
|-7------10-7---|------------|-7-9-10---7---|
|---------------|------------|--------------|


  E5/B A5       E5/B                 D5/A
  Q     H       H         E E   Q     H
  |     |       |         | |   |     |
  /     /       /         / /   /     /

        ~~                ~           ~~
  E  E  Q  Q    E  E E  E Q     E  E  H
|-------------|---------------|------------|
|-------------|---------------|------------|
|-------------|---------------|------------|
|-------------|---10-9--------|-9-10S12----|
|-9-10S12-----|-7------10-7---|------------|
|-------------|---------------|------------|


  E5/B                A5       E5/B
  H        E E   Q     H       H         E E
  |        | |   |     |       |         | |
  /        / /   /     /       /         / /

           ~           ~~                ~
  E E  E E Q     E  E  Q  Q    E  E E  E Q
|--------------|-------------|---------------|
|--------------|-------------|---------------|
|--------------|-------------|---------------|
|--------9-----|-------------|---10-9--------|
|-7-9-10---7---|-9-10S12-----|-7------10-7---|
|--------------|-------------|---------------|


                                           Keyboard  Solo
  E5/B D5/A    E5/B                A5       B5              D5V
  Q     H      H        E E   Q     H        Q.   E  Q       Q.        E  Q
  |     |      |        | |   |     |        |    |  |       |         |  |
  /     /      /        / /   /     /        /    /  /       /         /  /

        ~~              ~           ~~
  E  E  H      E E  E E Q     E  E  Q  Q     Q.   E  Q       Q.        E  Q
|------------|--------------|-------------|---------------|--------------------|
|------------|--------------|-------------|---------------|--------------------|
|------------|--------------|-------------|---------------|--7---------7--7----|
|-9-10S12----|--------9-----|-------------|---------------|--7---------7--7----|
|------------|-7-9-10---7---|-9-10S12-----|--9----9--9----|--5---------5--5----|
|------------|--------------|-------------|--7----7--7----|--------------------|
|
| Gtr III
| W            W              W              H       E  E    E   E  E  E  E  E
|------------|--------------|-------------|---------------|--------------------|
|------------|--------------|-------------|---------------|-----------14-12----|
|------------|--------------|-------------|---------16----|-19--18-16-------13-|
|------------|--------------|-------------|-18---------18-|--------------------|
|------------|--------------|-------------|---------------|--------------------|
|------------|--------------|-------------|---------------|--------------------|


  B5                       E5VII
   Q.             E Q       E  Q     Q   E
   |              | |       |  |     |   |
   /              / /       /  /     /   /

  Gtr III
   S   S S  S  E  E E  E    E  E  E  E E E
|----------11---------14-|----13----11---9-|
|-11--12------12-11-9----|-------------9---|
|------------------------|-13----13--------|
|------------------------|-----------------|
|------------------------|-----------------|
|------------------------|-----------------|


  B5
  Q.           E Q       Q.     E Q
  |            | |       |      | |
  /            / /       /      / /

  S  S S S S S E E S S   E  E E E E E
|-7--9-7-6-7-6-4-2---2-|-6------------|
|------------------4---|----7---9-7---|
|----------------------|------8-----8-|
|----------------------|--------------|
|----------------------|--------------|
|----------------------|--------------|


  F#5
  Q.         E Q     Q.         E Q
  |          | |     |          | |
  /          / /     /          / /

  S  S S S E E E E   S  S S S E E E E
|--------2-4-2-----|----2---------2---|
|----4---------4-2-|-4----4-2-4-4---4-|
|-6----------------|------------------|
|------------------|------------------|
|------------------|------------------|
|------------------|------------------|


  B5                 D5V           B5
  Q.      E    Q     Q.     E Q    Q.       E Q
  |       |    |     |      | |    |        | |
  /       /    /     /      / /    /        / /

  Q   S S S S  E E   E  E E E Q    E  S S E E E E
|-4---2-4---7-11---|-9----7-6----|------------2---|
|----------------9-|----9-----7--|-9--7-----4---4-|
|------------------|-------------|------8-6-------|
|------------------|-------------|----------------|
|------------------|-------------|----------------|
|------------------|-------------|----------------|


  E5VII          B5
  Q.     E E E   Q.    E Q      Q.      E  Q
  |      | | |   |     | |      |       |  |
  /      / / /   /     / /      /       /  /

  E  E E E E E   Q   E E E E    Q    E  E  E  E
|-2--1---4-----|-4---2-4-6-7-|-11---------------|
|------2---6---|-------------|------12----11-12-|
|------------6-|-------------|---------13-------|
|--------------|-------------|------------------|
|--------------|-------------|------------------|
|--------------|-------------|------------------|


                                      Chorus
  F#5                                  B5
                                                 |-3-|
   Q.       E  Q      Q.       E  Q     Q.       S S S  Q
   |        |  |      |        |  |     |        | | |  |
   /        /  /      /        /  /     /        / / /  /

   E  E  E  E  E E    E  E  E  E  Q     E  E  E  E      E  E
|-11--9----------9-|-11--9-----------|-11--9-11-13-----14-16-|
|-------11----11---|-------11--------|-----------------------|
|----------11------|----------11-----|-----------------------|
|------------------|-------------13--|-----------------------|
|------------------|-----------------|-----------------------|
|------------------|-----------------|-----------------------|


  D5X               B5
                              |-3-|
   Q.       E  Q     Q.       S S S  Q
   |        |  |     |        | | |  |
   /        /  /     /        / / /  /

   E   E  E E  Q     E  E  E  E      E  E
|-14--13-11-9-11--|-11--9-11-13-----14-16-|
|-----------------|-----------------------|
|-----------------|-----------------------|
|-----------------|-----------------------|
|-----------------|-----------------------|
|-----------------|-----------------------|
|
| Gtr IV
|  W                 W
|-----------------|-----------------------|
|-----------------|-----------------------|
|-----------------|-----------------------|
|-----------------|-----------------------|
|-----------------|-----------------------|
|-----------------|-----------------------|


  E5VII              B5
                                       |-3-|
   Q.        E  Q     Q.               S S S Q      H.
   |         |  |     |                | | | |      |
   /         /  /     /                / / / /      /

   E   E  E  E  Q     S   S  S  S  +H              +H.
|-14--13-11-14-13--|-13--14-13-11-(11)----------|-(11)----|
|------------------|----------------------------|---------|
|------------------|----------------------------|---------|
|------------------|----------------------------|---------|
|------------------|----------------------------|---------|
|------------------|----------------------------|---------|
|
|  W                  W                             H.
|------------------|----------------------------|---6-----|
|------------------|----------------------------|---7-----|
|------------------|----------------------------|---8-----|
|------------------|----------------------------|---8-----|
|------------------|----------------------------|---------|
|------------------|----------------------------|---------|


  F#5             A5            B5
                                          |-3-|
   Q.      E Q      Q.   E Q     Q.       S S S  Q
   |       | |      |    | |     |        | | |  |
   /       / /      /    / /     /        / / /  /

   E  E  H         +H.           E  E  E  E      E  E
|-11--9-11------|-(11)--------|-11--9-11-13-----14-16-|
|---------------|-------------|-----------------------|
|---------------|-------------|-----------------------|
|---------------|-------------|-----------------------|
|---------------|-------------|-----------------------|
|---------------|-------------|-----------------------|
|
| +H.              +H.          +H.
|-(6)-----------|--(6)--------|-(6)-------------------|
|-(7)-----------|--(7)--------|-(7)-------------------|
|-(8)-----------|--(8)--------|-(8)-------------------|
|-(8)-----------|--(8)--------|-(8)-------------------|
|---------------|-------------|-----------------------|
|---------------|-------------|-----------------------|


  D5X               B5
                              |-3-|
   Q.       E  Q     Q.       S S S  Q
   |        |  |     |        | | |  |
   /        /  /     /        / / /  /

   E   E  E E  Q     E  E  E  E      E  E
|-14--13-11-9-11--|-11--9-11-13-----14-16-|
|-----------------|-----------------------|
|-----------------|-----------------------|
|-----------------|-----------------------|
|-----------------|-----------------------|
|-----------------|-----------------------|
|
| +H.                W
|-(6)-------------|-----------------------|
|-(7)-------------|-----------------------|
|-(8)-------------|-----------------------|
|-(8)-------------|-----------------------|
|-----------------|-----------------------|
|-----------------|-----------------------|


  E5VII              B5
                                       |-3-|
   Q.        E  Q     Q.               S S S Q
   |         |  |     |                | | | |
   /         /  /     /                / / / /

  Gtr I
                                       |-3-|
   Q.        E  Q     Q.               S S S Q
|------------------|----------------------------|
|------------------|----------------------------|
|--9---------9--9--|----------------------------|
|--9---------9--9--|----------------------------|
|--7---------7--7--|--9----------------9-9-9-9--|
|------------------|--7----------------7-7-7-7--|
|
| Gtr III
|  E   E  E  E  Q     S   S  S  S  +H
|-14--13-11-14-13--|-13--14-13-11-(11)----------|
|------------------|----------------------------|
|------------------|----------------------------|
|------------------|----------------------------|
|------------------|----------------------------|
|------------------|----------------------------|


              F#5             A5
    H.         Q.      E Q      Q.   E E E
    |          |       | |      |    | | |
    /          /       / /      /    / / /

    H.         Q.      E Q      Q.   E Q
|-----------|---------------|--------------|
|-----------|---------------|--------------|
|-----------|---------------|--------------|
|-----------|---------------|--------------|
|---9-------|--4-------4-4--|---7----7-7---|
|---7-------|--2-------2-2--|---5----5-5---|
|
|  +H.         E  E  H         +H.
|-(11)------|-11--9-11------|-(11)---------|
|-----------|---------------|--------------|
|-----------|---------------|--------------|
|-----------|---------------|--------------|
|-----------|---------------|--------------|
|-----------|---------------|--------------|


  B5                 G5          A5     B5
   Q.       E Q       H           Q     Q.       E  Q
   |        | |       |           |     |        |  |
   /        / /       /           /     /        /  /

   E   E  E E E  E    E   E E  E  E E   E   E  E E  E  E
|------------------|------------------|------------------|
|------------------|------------------|------------------|
|-------------9-11-|----------------9-|----12-11---------|
|--9--11-12-9------|--------9---------|-9--------9-12-11-|
|------------------|-10--12---10-12---|------------------|
|------------------|------------------|------------------|
|
| Gtr IV
| +H.                +H.                W
|-(6)--------------|-(6)--------------|------------------|
|-(7)--------------|-(7)--------------|------------------|
|-(8)--------------|-(8)--------------|------------------|
|-(8)--------------|-(8)--------------|------------------|
|------------------|------------------|------------------|
|------------------|------------------|------------------|


  A5        D5V       B5                G5         A5
   H        Q         Q.       E Q       H          Q
   |        |         |        | |       |          |
   /        /         /        / /       /          /

   E E  E E S  S  E   E   E  E E E  E    E  E E  E  E E
|-------------------|-----------------|------------------|
|----------------10-|-----------------|------------------|
|---------9-9h11----|------------9-11-|---------------9--|
|----9-11-----------|-9--11-12-9------|-------9----------|
|-12----------------|-----------------|-10-12---10-12----|
|-------------------|-----------------|------------------|
|
|  W                  W                  W
|-------------------|-----------------|------------------|
|-------------------|-----------------|------------------|
|-------------------|-----------------|------------------|
|-------------------|-----------------|------------------|
|-------------------|-----------------|------------------|
|-------------------|-----------------|------------------|


 Bridge
  F#5              A5                B5
  Q     E E E  E   Q   E     E  Q    Q.       E Q
  |     | | |  |   |   |     |  |    |        | |
  /     / / /  /   /   /     /  /    /        / /

  E  E  E E E  E   Q   S  S  E  Q    E   E  E E E  E
|----------------|-----------------|-----------------|
|----------------|-----------------|-----------------|
|----------------|-----------------|------------9-11-|
|---------9-9h11-|-9---------------|-9--11-12-9------|
|-9-11-12--------|----11-12-11-----|-----------------|
|----------------|-------------12--|-----------------|


  G5         A5     B5
   H          Q     Q.       E  Q
   |          |     |        |  |
   /          /     /        /  /

   E  E E  E  E E   E   E  E E  E  E
|-----------------|-------------------|
|-----------------|-------------------|
|---------------9-|----12-11----------|
|-------9---------|-9--------9-12-11--|
|-10-12---10-12---|-------------------|
|-----------------|-------------------|


  A5        D5V       B5                G5         A5
   H        Q         Q.       E Q       H          Q
   |        |         |        | |       |          |
   /        /         /        / /       /          /

   E E  E E S  S  E   E   E  E E E  E    E  E E  E  E E
|-------------------|-----------------|-----------------|
|----------------10-|-----------------|-----------------|
|---------9-9h11----|------------9-11-|---------------9-|
|----9-11-----------|-9--11-12-9------|-------9---------|
|-12----------------|-----------------|-10-12---10-12---|
|-------------------|-----------------|-----------------|


  F#5              A5                F#5
  Q     E E E  E   Q   E     E  Q    Q     E E  E  E
  |     | | |  |   |   |     |  |    |     | |  |  |
  /     / / /  /   /   /     /  /    /     / /  /  /

  E  E  E E E  E   Q   S  S  E  Q    E  E  E E  E  E
|----------------|-----------------|-----------------|
|----------------|-----------------|-----------------|
|----------------|-----------------|-----------------|
|---------9-9h11-|-9---------------|-----------------|
|-9-11-12--------|----11-12-11-----|-9-11-12-9-11-12-|
|----------------|-------------12--|-----------------|


                  Verse
  A5               E5open           G5              E5open
  Q    E  E Q      H.                H.             H.
  |    |  | |      |                 |              |
  /    /  / /      /                 /              /

  E  E E  E Q      E   E E E  E E    E  E E  E Q    E   E E E  E E
|--------------||-----------------|---------------|----------------|
|--------------||o----------------|---------------|----------------|
|------9h11-9--||-----------------|---------------|----------------|
|-9h11---------||---------------9-|---------------|--------------9-|
|--------------||o-7-----7-9-10---|-10--9-7----7--|-7-----7-9-10---|
|--------------||-----10----------|---------10----|----10----------|


  D5V             E5open           G5              E5oG5n F#5
   H.             H.                H.             Q   Q  Q
   |              |                 |              |   |  |
   /              /                 /              /   /  /

   E  E E  E Q    E   E E E  E E    E  E E  E Q    Q   Q  Q
|---------------|----------------|---------------|-------------|
|---------------|----------------|---------------|-------------|
|---------------|----------------|---------------|-------------|
|---------------|--------------9-|---------------|-------------|
|-10--9-7-------|-7-----7-9-10---|-10--9-7----7--|-7--10--9----|
|---------10-7--|----10----------|---------10----|-------------|


  C5         E5open           G5
   H.        H.                H.
   |         |                 |
   /         /                 /

   H.        E   E E E  E E    E  E E  E Q
|----------|----------------|---------------|
|----------|----------------|---------------|
|----------|----------------|---------------|
|----------|--------------9-|---------------|
|-10-------|-7-----7-9-10---|-10--9-7----7--|
|----------|----10----------|---------10----|


  E5open           D5X             E5open
  H.                H.             H.
  |                 |              |
  /                 /              /

  E   E E E  E E    E  E E  E Q    E   E E E  E E
|----------------|---------------|----------------|
|----------------|---------------|----------------|
|----------------|---------------|----------------|
|--------------9-|---------------|--------------9-|
|-7-----7-9-10---|-10--9-7-------|-7-----7-9-10---|
|----10----------|---------10-7--|----10----------|


                                         Outro
                 1.                       2.
  G5              E5oF#5D5V   C5          E5oF#5D5V
   H.             Q  Q   Q    H.          Q  Q   Q
   |              |  |   |    |           |  |   |
   /              /  /   /    /           /  /   /

   E  E E  E Q    Q  Q   Q    H.          Q  Q   Q
|---------------|-----------|----------||-----------|
|---------------|-----------|---------o||-----------|
|---------------|-----------|----------||-----------|
|---------------|-----------|----------||-----------|
|-10--9-7----7--|-7--9------|-7-------o||-7--9------|
|---------10----|-------10--|----------||-------10--|


  Q=56
  C5        B5                D5X
  H.        H.                 H.
  |         |                  |
  /         /                  /

            ~~~~~~~~~~~~~~~~~~~~~~~~~~~~~~~~~~~~~~~
  H.        H.                 H.
|---------|-----------------|---------------------|
|---------|-----------------|---------------------|
|---------|-4---------------|--7------------------|
|---------|-----------------|---------------------|
|-7-------|-----------------|---------------------|
|---------|-----------------|---------------------|
|
| Gtr III
| W         S   E. E E E  E    S   E.  E  E  E  E
|---------|----11--9---9-11-|-----14-----------14-|
|---------|-9--------9------|-12------16----16----|
|---------|-----------------|------------16-------|
|---------|-----------------|---------------------|
|---------|-----------------|---------------------|
|---------|-----------------|---------------------|


  E5open
   H.                +H.          W
   |                  |
   /                  /

 ~~~~~~~~~~~~~~~~~~~~~~~~
   H.                +H.          W
|-----------------|-----------|-----------------*|
|-----------------|-----------|-----------------*|
|--9--------------|--(9)------|-----------------*|
|-----------------|-----------|-----------------*|
|-----------------|-----------|-----------------*|
|-----------------|-----------|-----------------*|
|
|  S   E.  +H        +H.         +S  S E Q  Q
|-----16--(16)----|-(16)------|-(16)------------*|
|-14--------------|-----------|-----------------*|
|-----------------|-----------|-----------------*|
|-----------------|-----------|-----------------*|
|-----------------|-----------|-----------------*|
|-----------------|-----------|-----------------*|




--------------------------------------------------------------------------------


Duration Legend
---------------
W - whole; H - half; Q - quarter; E - 8th; S - 16th; T - 32nd; X - 64th; a - acciaccatura
+ - note tied to previous; . - note dotted; .. - note double dotted
Uncapitalized letters represent notes that are staccato (1/2 duration)
Irregular groupings are notated above the duration line
Duration letters will always appear directly above the note/fret number it represents the
duration for.  Duration letters with no fret number below them represent rests.  Multi-
bar rests are notated in the form Wxn, where n is the number of bars to rest for.  Low
melody durations appear below the staff

Tablature Legend
----------------
 h   - hammer-on
 p   - pull-off
 b   - bend
 pb  - pre-bend
 r   - bend release (if no number after the r, then release immediately)
 /\  - slide into or out of (from/to "nowhere")
 s   - legato slide
 S   - shift slide
 - natural harmonic
[n]  - artificial harmonic
n(n) - tapped harmonic
 ~   - vibrato
 tr  - trill
 T   - tap
 TP  - trem. picking
 PM  - palm muting
\n/  - tremolo bar dip; n = amount to dip
 \n  - tremolo bar down
 n/  - tremolo bar up
/n\  - tremolo bar inverted dip
 =   - hold bend; also acts as connecting device for hammers/pulls
 <> - volume swell (louder/softer)
 x   - on rhythm slash represents muted slash
 o   - on rhythm slash represents single note slash

Misc Legend
-----------
 |  - bar
||  - double bar
||o - repeat start
o|| - repeat end
*|  - double bar (ending)
 :  - bar (freetime)
 $  - Segno
 &  - Coda
Tempo markers -  = BPM(8/16=s8/s16), where s8 = swing 8ths, s16 = swing 16ths

comments
We did not receive enough feedback on this tab! Please rate:
print report bad tab
1 2 3 4 5
I want to post or [tab]
guest
You may want to rate the tab now too:
select rating
Please do not post tabs as comments. Select "correction" instead!