Oops, an error
Loading. Please wait.

Born Of Fire Tab

1,259 views 1 this week
1 commentread comment
1 2 3 4 5
excellent!
x 1
add to favorites launch autoscroll
font size
0
reset
Autoscroll
+/-
esc
set tempo
stop
Contributor
WARNING: You are trying to view
                                    content from Ultimate-Guitar.com
                                    in an unauthorized application,
                                    which is prohibited.

                                    Please use an official Ultimate
                                    Guitar Tabs application for iPhone,
                                    iPad or Android to access legitimate
                                    chords, guitar, bass, and drum tabs
                                    from Ultimate-Guitar.com database.

                                    Type "ultimate guitar tabs" in Apple
                                    App Store's or Android Market's
                                    search to find the application.
#----------------------------------PLEASE NOTE---------------------------------#
#This file is the author's own work and represents their interpretation of the #
#song. You may only use this file for private study, scholarship, or research. #
#------------------------------------------------------------------------------#

BORN OF FIRE
As recorded by Amorphis
(From the 2006 Album ECLIPSE)


Transcribed by Danny Heater (hauntedinflames)

 Words by Paavi Haavikko Music by Kallio

 

Gtr I (D G C F A D) - 'Untitled'
Gtr II (D G C F A D) - 'Untitled'
Gtr III (D G C F A D) - 'Untitled'
Gtr IV (D G C F A D) - 'Untitled'


 Intro/Verse
  Q=120
 4/4
  Gtr II
                  |-3--|
  H        Q.     S  S S   Q    Q   Q.     E
|------------------------|-------------------|
|------------------------|-------------------|
|------------------------|-------------------|
|-9-------10------9-10-9-|-7---10---9------7-|
|------------------------|-------------------|
|------------------------|-------------------|
|
| Gtr I
| E E E E  E  E E E        E E  E E E  E E E
|------------------------|-------------------|
|------------------------|-------------------|
|------------------------|-------------------|
|------------------------|-------------------|
|-2-2-2-2--2--2-2-2------|-2-2--2-2-2--2-2-2-|
|-0-0-0-0--0--0-0-0------|-0-0--0-0-0--0-0-0-|


   Q   Q   Q.      E   E E  H.
|--------------------|-------------------|
|--------------------|-------------------|
|--------------------|-------------------|
|------9---7---------|-------------------|
|-10--------------10-|-9-7---------------|
|--------------------|-----10------------|
|
|  E E E E E  E E  E   E E  E  E E E E E
|--------------------|-------------------|
|--------------------|-------------------|
|--------------------|-7-7--7--7-7-7-7-7-|
|--------------------|-7-7--7--7-7-7-7-7-|
|--2-2-2-2-2--2-2--2-|-5-5--5--5-5-5-5-5-|
|--0-0-0-0-0--0-0--0-|-------------------|


    $
                    |-3--|
    H        Q.     S  S S   Q    Q   Q.     E
||-------------------------|-------------------|
||o------------------------|-------------------|
||-------------------------|-------------------|
||--9-------10------9-10-9-|-7---10---9------7-|
||o------------------------|-------------------|
||-------------------------|-------------------|
|
|   E E E E  E  E E E        E E  E E E  E E E
||-------------------------|-------------------|
||o------------------------|-------------------|
||-------------------------|-------------------|
||-------------------------|-------------------|
||o-2-2-2-2--2--2-2-2------|-2-2--2-2-2--2-2-2-|
||--0-0-0-0--0--0-0-0------|-0-0--0-0-0--0-0-0-|


   Q   Q   Q.      E   E E  H.             3x
|--------------------|---------------------||
|--------------------|--------------------o||
|--------------------|---------------------||
|------9---7---------|---------------------||
|-10--------------10-|-9-7----------------o||
|--------------------|-----10--------------||
|
|  E E E E E  E E  E   E E  E  E E E E E   3x
|--------------------|---------------------||
|--------------------|--------------------o||
|--------------------|-7-7--7--7-7-7-7-7---||
|--------------------|-7-7--7--7-7-7-7-7---||
|--2-2-2-2-2--2-2--2-|-5-5--5--5-5-5-5-5--o||
|--0-0-0-0-0--0-0--0-|---------------------||


   Pre-Chorus
    E E E E E E E E   +E  E E E E E E E
||------------------|-------------------|
||o-----------------|-------------------|
||----5-5-5---5---5-|-(5)-4-------------|
||--5-5-5-5-5-5-5---|-------7-5-4-------|
||o-3-3-3-3-3-3-3---|-------------7-5-7-|
||------------------|-------------------|
|
|   E E E E E E E E   +E  E E E E E E E
||------------------|-------------------|
||o-----------------|-------------------|
||----5-5-5---5---5-|-(5)-4-------------|
||--5-5-5-5-5-5-5---|-------7-5-4-------|
||o-3-3-3-3-3-3-3---|-------------7-5-7-|
||------------------|-------------------|


                                  ~
  E E E E E E E E   +E  E E E E E Q
|-----------------|--------------------||
|-----------------|-------------------o||
|-----------------|--------------------||
|---2-2-2---2-2-5-|-(5)-4--------------||
|-2-2-2-2-2-2-2---|-------7-5-5s7-7---o||
|-0-0-0-0-0-0-0---|--------------------||
|
|                                 ~
| E E E E E E E E   +E  E E E E E Q
|-----------------|--------------------||
|-----------------|-------------------o||
|-----------------|--------------------||
|---2-2-2---2-2-5-|-(5)-4--------------||
|-2-2-2-2-2-2-2---|-------7-5-5s7-7---o||
|-0-0-0-0-0-0-0---|--------------------||


                                        D.S.
    E E E E S S E E E   S S E E S S E E E E
||--------------------|---------------------|
||o-------------------|---------------------|
||--7-7-7-7-x-x-7-7-7-|-x-x-5-5-x-x-5-5-5-5-|
||--7-7-7-7-x-x-7-7-7-|-x-x-5-5-x-x-5-5-5-5-|
||o-5-5-5-5-x-x-5-5-5-|-x-x-3-3-x-x-3-3-3-3-|
||--------------------|---------------------|
|
|   E E E E S S E E E   S S E E S S E E E E
||--------------------|---------------------|
||o-------------------|---------------------|
||--7-7-7-7-x-x-7-7-7-|-x-x-5-5-x-x-5-5-5-5-|
||--7-7-7-7-x-x-7-7-7-|-x-x-5-5-x-x-5-5-5-5-|
||o-5-5-5-5-x-x-5-5-5-|-x-x-3-3-x-x-3-3-3-3-|
||--------------------|---------------------|


                                      ~
  Q   S S E +H          +E  E E E E E Q
|---------------------|---------------------||
|---------------------|--------------------o||
|---------------------|---------------------||
|---------5-(5)-------|-(5)-4---------------||
|-7---5-7-------------|-------7-5-5s7-7----o||
|---------------------|---------------------||
|
| E E E   E  E  E E E    E  E E E E E E E
|---------------------|---------------------||
|---------------------|--------------------o||
|---------------------|---------------------||
|---------------------|---------------------||
|-2-2-2---2--2--2-2-2-|--2--2-2-2-2-2-2-2--o||
|-0-0-0---0--0--0-0-0-|--0--0-0-0-0-0-0-0---||


   horus
    Gtrs I, II
    E E E E S S E E E   S S E E S S E E E E
||--------------------|----------------------||
||o-------------------|---------------------o||
||--7-7-7-7-x-x-7-7-7-|-x-x-5-5-x-x-5-5-5-5--||
||--7-7-7-7-x-x-7-7-7-|-x-x-5-5-x-x-5-5-5-5--||
||o-5-5-5-5-x-x-5-5-5-|-x-x-3-3-x-x-3-3-3-3-o||
||--------------------|----------------------||


  E E E E S S E E E   S S E E S S E E E E
|-------------------|-----------------------||
|-------------------|-----------------------||
|-7-7-7-7-x-x-7-7-7-|-x-x-5-5-x-x-5-5-5-5---||
|-7-7-7-7-x-x-7-7-7-|-x-x-5-5-x-x-5-5-5-5---||
|-5-5-5-5-x-x-5-5-5-|-x-x-3-3-x-x-3-3-3-3---||
|-------------------|-----------------------||


 Interlude
  Gtr III
   H     Q.    E    Q    Q   Q.    E    Q    Q   Q.    E    E   E  H.
|----------------|-------------------|-------------------|---------------|
|-12----13----12-|------13--12-------|------12-----------|---------------|
|----------------|-14-------------14-|-12-------14----12-|-11-----11-----|
|----------------|-------------------|-------------------|-----14--------|
|----------------|-------------------|-------------------|---------------|
|----------------|-------------------|-------------------|---------------|
|
| Gtrs I, II
|  >
|  W               +W                  +W                  +W
|----------------|-------------------|-------------------|---------------|
|----------------|-------------------|-------------------|---------------|
|----------------|-------------------|-------------------|---------------|
|----------------|-------------------|-------------------|---------------|
|--2-------------|-(2)---------------|-(2)---------------|-(2)-----------|
|--0-------------|-(0)---------------|-(0)---------------|-(0)-----------|


    H      Q.    E    Q    Q   Q.    E    Q   Q   Q.    E
|------------------|-------------------|------------------|
|--12-----13----12-|------13--12-------|-----12-----------|
|------------------|-14-------------14-|-12------14----12-|
|------------------|-------------------|------------------|
|------------------|-------------------|------------------|
|------------------|-------------------|------------------|
|
| Gtr II
|   H      Q.    E    Q    Q   Q.    E    Q   Q   Q.    E
|------------------|-------------------|------------------|
|------------------|-------------------|------------------|
|-/12----/14----12-|-11--/14--12----11-|--9--12--11-----9-|
|------------------|-------------------|------------------|
|------------------|-------------------|------------------|
|------------------|-------------------|------------------|
|
| Gtr I
|   W                 W                   W
|------------------|-------------------|------------------|
|------------------|-------------------|------------------|
|------------------|-------------------|------------------|
|------------------|-------------------|------------------|
|------------------|-------------------|------------------|
|------------------|-------------------|------------------|


   E  E  H.         +E   E  E  E   E  E  E  E
|----------------|----------------------------|
|----------------|------------17--17-19-19-20-|
|-11----11-------|-(11)-19-19-----------------|
|----14----------|----------------------------|
|----------------|----------------------------|
|----------------|----------------------------|
|
|  E  E  H.         +W
|----------------|----------------------------|
|----------------|----------------------------|
|-11--9--7-------|--(7)-----------------------|
|----------------|----------------------------|
|----------------|----------------------------|
|----------------|----------------------------|
|
|  Q     H.         +H        +E   E  E  E
|----------------|----------------------------|
|----------------|----------------------------|
|--7-----7-------|--(7)-------(7)-----7--7----|
|--7-----7-------|--(7)-------(7)--7--7--7----|
|--5-----5-------|--(5)-------(5)--5--5--5----|
|----------------|----------------------------|


  Gtr II
  H.           +E  E   +H        E E E E
|--------------------|-------------------|
|--------------------|-------------------|
|-5------------(5)-5-|-(5)-------5s7-7s9-|
|--------------------|-------------------|
|-3------------(3)-3-|-(3)-------3s5-5s7-|
|--------------------|-------------------|
|
| Gtr I
|          PM           PM     PM
| E  E E E E E  E  E    E  E E E E E E E
|--------------------|-------------------|
|--------------------|-------------------|
|-5--5-5-5---5--5--5-|-----5-5---5-7-7-7-|
|-5--5-5-5-5-5--5--5-|--5--5-5-5-5-7-7-7-|
|-3--3-3-5-3-3--3--3-|--3--3-3-3-3-5-5-5-|
|--------------------|-------------------|


                  ~~~~~~~~
  H       +E  E E E   +H        H
|-------------------|--------------------|
|-------------------|--------------------|
|-9-------(9)-7s9-9-|-(9)-------9\-------|
|-------------------|--------------------|
|-7-------(7)-------|--------------------|
|-------------------|--------------------|
|
| PM       PM
| E E E E  E  E E E    E  E E E E  E E E
|-------------------|--------------------|
|-------------------|--------------------|
|-------------------|--------------------|
|---2-2-2-----2-2-2-|--2--2-2-2-2--2-2-2-|
|-2-2-2-2--2--2-2-2-|--2--2-2-2-2--2-2-2-|
|-0-0-0-0--0--0-0-0-|--0--0-0-0-0--0-0-0-|


  H.           +E  E   +H        E E E E
|--------------------|-------------------|
|--------------------|-------------------|
|-5------------(5)-5-|-(5)-------5s7-7s9-|
|--------------------|-------------------|
|-3------------(3)-3-|-(3)-------3s5-5s7-|
|--------------------|-------------------|
|
|          PM           PM     PM
| E  E E E E E  E  E    E  E E E E E E E
|--------------------|-------------------|
|--------------------|-------------------|
|-5--5-5-5---5--5--5-|-----5-5---5-7-7-7-|
|-5--5-5-5-5-5--5--5-|--5--5-5-5-5-7-7-7-|
|-3--3-3-5-3-3--3--3-|--3--3-3-3-3-5-5-5-|
|--------------------|-------------------|


  ~~~~~~~~~~~~      ~~~~~~~~~~~~~~~~~~~~~
  H       +E  E  E  E    +H         +E   E  E  E
|---------------------|--------------------10----|
|-------------8-10-12-|-(12)-------(12)p10-------|
|-9-------(9)---------|-----------------------12-|
|---------------------|--------------------------|
|---------------------|--------------------------|
|---------------------|--------------------------|
|
| PM       PM
| E E E E  E  E  E  E     E  E E E   E   E  E  E
|---------------------|--------------------------|
|---------------------|--------------------------|
|---------------------|--------------------------|
|---2-2-2-----2--2--2-|---2--2-2-2---2---2--2--2-|
|-2-2-2-2--2--2--2--2-|---2--2-2-2---2---2--2--2-|
|-0-0-0-0--0--0--0--0-|---0--0-0-0---0---0--0--0-|


   ~~~~~~~~~~~~~~
                                     |--3--|
   H        +E     E  E  E    +E     S  S  S E  E   E  E S S +E
|--------------------10----|-------------------------------------|
|--------------------------|-------------------------------------|
|-11-------(11)h==12----11-|-(11)---11-12-11-9-------------------|
|--------------------------|------------------------9-12-7s5-(5)-|
|--------------------------|-------------------12----------------|
|--------------------------|-------------------------------------|
|
|  E E E E   S  S  E  E  E     S  S  E       E  S S E  E E    E
|--------------------------|-------------------------------------|
|--------------------------|-------------------------------------|
|--7-7-7-7---x--x--7--7--7-|---x--x--5-------5--x-x-5--5-5----5--|
|--7-7-7-7---x--x--7--7--7-|---x--x--5-------5--x-x-5--5-5----5--|
|--5-5-5-5---x--x--5--5--5-|---x--x--3-------3--x-x-3--3-3----3--|
|--------------------------|-------------------------------------|


  E E E E Q.     E   +Q.     +E.   T T  Q   E
|------------------|---------------------------|
|------------------|-----------------8-10---8--|
|------------------|---------------9-----------|
|-5s4--------------|---------------------------|
|-----5s7-7--------|---------------------------|
|----------------0-|-(0)-----(0)---------------|
|
| E E E E E  E E E    E  E E  E  E      E E E
|------------------|---------------------------|
|------------------|---------------------------|
|------------------|---------------------------|
|-2-2-2-2-2--2-2-2-|--2--2-2--2--2------2-2-2--|
|-2-2-2-2-2--2-2-2-|--2--2-2--2--2------2-2-2--|
|-0-0-0-0-0--0-0-0-|--0--0-0--0--0------0-0-0--|


                                |-3-|
  H       E     +E  E E   +E    S S S E E   E E E E
|-----------------------|---------------------------|
|-7-------7b8r==(7)-----|---------------------------|
|-------------------9-7-|-(7)---------------7-------|
|-----------------------|-------5-7-5-5-4-----4-4s5-|
|-----------------------|---------------------------|
|-----------------------|---------------------------|
|
| E E E E S   S  E  E E    S  S E     E S S E E E E
|-----------------------|---------------------------|
|-----------------------|---------------------------|
|-7-7-7-7-x---x--7--7-7-|--x--x-5-----5-x-x-5-5-5-5-|
|-7-7-7-7-x---x--7--7-7-|--x--x-5-----5-x-x-5-5-5-5-|
|-5-5-5-5-x---x--5--5-5-|--x--x-3-----3-x-x-3-3-3-3-|
|-----------------------|---------------------------|


      |-3-|
  E E S S S E  Q.       E    +E  E E E E E  S  S  E
|-------------------------|----------------------10--||
|-------------------------|--------------8-10-12-----||
|-------------------------|----------7-9-------------||
|-4-5-4-5-4---------------|------9-7-----------------||
|-----------5-/7------/10-|-(10)---------------------||
|-------------------------|--------------------------||
|
| E E E     E  E  E E   E     E  E E E E E  E     E
|-------------------------|--------------------------||
|-------------------------|--------------------------||
|-------------------------|--------------------------||
|-2-2-2-----2--2--2-2---2-|---2--2-2-2-2-2--2-----2--||
|-2-2-2-----2--2--2-2---2-|---2--2-2-2-2-2--2-----2--||
|-0-0-0-----0--0--0-0---0-|---0--0-0-0-0-0--0-----0--||


 Chorus
   Q.      Q.         Q      +E     Q.        Q    E  E
|-12------10--------/15---|-(15)---14-------------------|
|-------------------------|------------------17---15s17-|
|-------------------------|-----------------------------|
|-------------------------|-----------------------------|
|-------------------------|-----------------------------|
|-------------------------|-----------------------------|
|
|  E  E E  E  S S E   E E     S  S  E  E S S  E E  E  E
|-------------------------|-----------------------------|
|-------------------------|-----------------------------|
|--7--7-7--7--x-x-7---7-7-|---x--x--5--5-x-x--5-5--5--5-|
|--7--7-7--7--x-x-7---7-7-|---x--x--5--5-x-x--5-5--5--5-|
|--5--5-5--5--x-x-5---5-5-|---x--x--3--3-x-x--3-3--3--3-|
|-------------------------|-----------------------------|


                       ~~~~~~~~~~~
   Q.      Q.          Q      +E     E  E  E    E  E  E  S  S
|-14------17b19-------17---|-(17)---15-14-----------------------|
|--------------------------|--------------15--------------------|
|--------------------------|-------------------14-12-11-12-11---|
|--------------------------|------------------------------------|
|--------------------------|------------------------------------|
|--------------------------|------------------------------------|
|
|  E  E E  E    S S E  E E     S  S  E  E  S S  E  E  E  E
|--------------------------|------------------------------------|
|--------------------------|------------------------------------|
|--7--7-7--7----x-x-7--7-7-|---x--x--5--5--x-x--5--5--5--5------|
|--7--7-7--7----x-x-7--7-7-|---x--x--5--5--x-x--5--5--5--5------|
|--5--5-5--5----x-x-5--5-5-|---x--x--3--3--x-x--3--3--3--3------|
|--------------------------|------------------------------------|


  ~~
  Q.     Q.       Q     +E    E E E   E E  E E
|---------------------|------------------------|
|---------------------|------------------------|
|-9------7------------|------------------------|
|-----------------7---|-(7)---5-4------------7-|
|---------------------|-----------5---5s7-10---|
|---------------------|------------------------|
|
| E  E E E  S S E E E    S  S E E S S E E  E E
|---------------------|------------------------|
|---------------------|------------------------|
|-7--7-7-7--x-x-7-7-7-|--x--x-5-5-x-x-5-5--5-5-|
|-7--7-7-7--x-x-7-7-7-|--x--x-5-5-x-x-5-5--5-5-|
|-5--5-5-5--x-x-5-5-5-|--x--x-3-3-x-x-3-3--3-3-|
|---------------------|------------------------|


  Q.     Q.       Q     +E    E E E   E E E E
|---------------------|-----------------------||
|-----------------8---|-(8)---8-7-------------||
|-7------9------------|-----------7-------9-7-||
|---------------------|---------------7-9-----||
|---------------------|-----------------------||
|---------------------|-----------------------||
|
| E  E E E  S S E E E    S  S E E S S E E E E
|---------------------|-----------------------||
|---------------------|-----------------------||
|-7--7-7-7--x-x-7-7-7-|--x--x-5-5-x-x-5-5-5-5-||
|-7--7-7-7--x-x-7-7-7-|--x--x-5-5-x-x-5-5-5-5-||
|-5--5-5-5--x-x-5-5-5-|--x--x-3-3-x-x-3-3-3-3-||
|---------------------|-----------------------||


   Outro
    Gtr IV
     E  E  E  E  E   E  E  E        E  E  E  E  E   E  E  E
||-------------------------------|--------------------------|
||o------------------------------|--------------------------|
||--10-10-10-10-10--10-10-10-----|-10-10-10-10-10--10-10-10-|
||-------------------------------|--------------------------|
||o------------------------------|--------------------------|
||-------------------------------|--------------------------|
|
|   Gtr II
|                          |-3-|
|    H           Q.        S S S    Q     Q     Q.        E
||-------------------------------|--------------------------|
||o------------------------------|--------------------------|
||-------------------------------|--------------------------|
||---7-----------8---------7-8-7-|--5-----8-----7---------5-|
||o------------------------------|--------------------------|
||-------------------------------|--------------------------|
|
|   Gtr I
|    E  E  E  E  E   E  E  E        E  E  E  E  E   E  E  E
||-------------------------------|--------------------------|
||o------------------------------|--------------------------|
||---7--7--7--7--7---7--7--7-----|--7--7--7--7--7---7--7--7-|
||---7--7--7--7--7---7--7--7-----|--7--7--7--7--7---7--7--7-|
||o--5--5--5--5--5---5--5--5-----|--5--5--5--5--5---5--5--5-|
||-------------------------------|--------------------------|


   E  E  E  E  E   E  E  E   E E E  E E E E E
|--------------------------|--------------------||
|--------------------------|-------------------o||
|-10-10-10-10-10--10-10-10-|-9-7-5--5-5-5-5-5---||
|--------------------------|--------------------||
|--------------------------|-------------------o||
|--------------------------|--------------------||
|
|  Q     Q     Q.        E   E E H.
|--------------------------|--------------------||
|--------------------------|-------------------o||
|--------------------------|--------------------||
|--------7-----5-----------|--------------------||
|--8---------------------8-|-7-5---------------o||
|--------------------------|-----8--------------||
|
|  E  E  E  E  E   E  E  E   E E E  E E E E E
|--------------------------|--------------------||
|--------------------------|-------------------o||
|--7--7--7--7--7---7--7--7-|-5-5-5--5-5-5-5-5---||
|--7--7--7--7--7---7--7--7-|-5-5-5--5-5-5-5-5---||
|--5--5--5--5--5---5--5--5-|-3-3-3--3-3-3-3-3--o||
|--------------------------|--------------------||


    H        Q.      E       Q     Q    Q.     E
|--------------------------|---------------------|
|--------------------------|---------------------|
|-/10-------12------10-----|-9---/12---10------9-|
|--------------------------|---------------------|
|--------------------------|---------------------|
|--------------------------|---------------------|
|
|                    |-3-|
|   H        Q.      S S S   Q     Q    Q.     E
|--------------------------|---------------------|
|--------------------------|---------------------|
|--------------------------|---------------------|
|---7--------8-------7-8-7-|-5-----8----7------5-|
|--------------------------|---------------------|
|--------------------------|---------------------|
|
|   E E E E  E  E E  E       E E   E E  E  E E E
|--------------------------|---------------------|
|--------------------------|---------------------|
|---7-7-7-7--7--7-7--7-----|-7-7---7-7--7--7-7-7-|
|---7-7-7-7--7--7-7--7-----|-7-7---7-7--7--7-7-7-|
|---5-5-5-5--5--5-5--5-----|-5-5---5-5--5--5-5-5-|
|--------------------------|---------------------|


  Q     Q    Q.     E    E  E  H.
|---------------------|-----------------------|
|---------------------|-----------------------|
|-7---/10---10------7-|-12-10-12--------------|
|---------------------|-----------------------|
|---------------------|-----------------------|
|---------------------|-----------------------|
|
| Q     Q    Q.     E    E  E  H.
|---------------------|-----------------------|
|---------------------|-----------------------|
|---------------------|-----------------------|
|-------7----5--------|-----------------------|
|-8-----------------8-|--7--5-----------------|
|---------------------|--------8--------------|
|
| E E   E E  E  E E E    E  E  E  E E E E E
|---------------------|-----------------------|
|---------------------|-----------------------|
|-7-7---7-7--7--7-7-7-|--5--5--5--5-5-5-5-5---|
|-7-7---7-7--7--7-7-7-|--5--5--5--5-5-5-5-5---|
|-5-5---5-5--5--5-5-5-|--3--3--3--3-3-3-3-3---|
|---------------------|-----------------------|


    H        Q.      E       Q     Q    Q.     E   Q     Q    Q.     E
|--------------------------|---------------------|----------------------|
|--------------------------|---------------------|----------------------|
|-/10-------12------10-----|-9---/12---10------9-|-7---/10---10------7--|
|--------------------------|---------------------|----------------------|
|--------------------------|---------------------|----------------------|
|--------------------------|---------------------|----------------------|
|
|                    |-3-|
|   H        Q.      S S S   Q     Q    Q.     E   Q     Q    Q.     E
|--------------------------|---------------------|----------------------|
|--------------------------|---------------------|----------------------|
|--------------------------|---------------------|----------------------|
|---7--------8-------7-8-7-|-5-----8----7------5-|-------7----5---------|
|--------------------------|---------------------|-8-----------------8--|
|--------------------------|---------------------|----------------------|
|
|   E E E E  E  E E  E       E E   E E  E  E E E   E E   E E  E  E E E
|--------------------------|---------------------|----------------------|
|--------------------------|---------------------|----------------------|
|---7-7-7-7--7--7-7--7-----|-7-7---7-7--7--7-7-7-|-7-7---7-7--7--7-7-7--|
|---7-7-7-7--7--7-7--7-----|-7-7---7-7--7--7-7-7-|-7-7---7-7--7--7-7-7--|
|---5-5-5-5--5--5-5--5-----|-5-5---5-5--5--5-5-5-|-5-5---5-5--5--5-5-5--|
|--------------------------|---------------------|----------------------|


  E E H.        +H     H        W           +W
|-------------|-------------|------------|---------*|
|-------------|-------------|------------|---------*|
|-9-7-5-------|-(5)----5----|--/7--------|--(7)----*|
|-------------|-------------|------------|---------*|
|-------------|-------------|------------|---------*|
|-------------|-------------|------------|---------*|
|
| E E H.        +H     H        W           +W
|-------------|-------------|------------|---------*|
|-------------|-------------|------------|---------*|
|-------------|-------------|------------|---------*|
|-------------|-------------|------------|---------*|
|-7-5---------|-------------|------------|---------*|
|-----8-------|-(8)----8----|-/10--------|-(10)----*|
|
| E E H.        +H     H        W           +W
|-------------|-------------|------------|---------*|
|-------------|-------------|------------|---------*|
|-5-5-5-------|-(5)----5----|---7--------|--(7)----*|
|-5-5-5-------|-(5)----5----|---7--------|--(7)----*|
|-3-3-3-------|-(3)----3----|---5--------|--(5)----*|
|-------------|-------------|------------|---------*|




--------------------------------------------------------------------------------


Duration Legend
---------------
W - whole; H - half; Q - quarter; E - 8th; S - 16th; T - 32nd; X - 64th; a - acciaccatura
+ - note tied to previous; . - note dotted; .. - note double dotted
Uncapitalized letters represent notes that are staccato (1/2 duration)
Irregular groupings are notated above the duration line
Duration letters will always appear directly above the note/fret number it represents the
duration for.  Duration letters with no fret number below them represent rests.  Multi-
bar rests are notated in the form Wxn, where n is the number of bars to rest for.  Low
melody durations appear below the staff

Tablature Legend
----------------
 h   - hammer-on
 p   - pull-off
 b   - bend
 pb  - pre-bend
 r   - bend release (if no number after the r, then release immediately)
 /\  - slide into or out of (from/to "nowhere")
 s   - legato slide
 S   - shift slide
 - natural harmonic
[n]  - artificial harmonic
n(n) - tapped harmonic
 ~   - vibrato
 tr  - trill
 T   - tap
 TP  - trem. picking
 PM  - palm muting
\n/  - tremolo bar dip; n = amount to dip
 \n  - tremolo bar down
 n/  - tremolo bar up
/n\  - tremolo bar inverted dip
 =   - hold bend; also acts as connecting device for hammers/pulls
 <> - volume swell (louder/softer)
 x   - on rhythm slash represents muted slash
 o   - on rhythm slash represents single note slash

Misc Legend
-----------
 |  - bar
||  - double bar
||o - repeat start
o|| - repeat end
*|  - double bar (ending)
 :  - bar (freetime)
 $  - Segno
 &  - Coda
Tempo markers -  = BPM(8/16=s8/s16), where s8 = swing 8ths, s16 = swing 16ths

comments
We did not receive enough feedback on this tab! Please rate:
print report bad tab
1 2 3 4 5
1 comment total.
0 reply
roardo1 wrote on September 5 2010, 08:49 am

good tab =)
but the song is called "Born From Fire" and not "Born Of Fire"

-Roardo

I want to post or [tab]
guest
You may want to rate the tab now too:
select rating
Please do not post tabs as comments. Select "correction" instead!