Oops, an error
Loading. Please wait.

Day Of Your Beliefs Tab

ver2
ver2

Whole song

Interactive

More versions @911Tabs.com
626 views 3 this week
no commentswrite comment
1 2 3 4 5
please rate
Autoscroll
+/-
esc
set tempo
stop
Contributor
Tuning
D G C F A D
WARNING: You are trying to view
                                    content from Ultimate-Guitar.com
                                    in an unauthorized application,
                                    which is prohibited.

                                    Please use an official Ultimate
                                    Guitar Tabs application for iPhone,
                                    iPad or Android to access legitimate
                                    chords, guitar, bass, and drum tabs
                                    from Ultimate-Guitar.com database.

                                    Type "ultimate guitar tabs" in Apple
                                    App Store's or Android Market's
                                    search to find the application.
#----------------------------------PLEASE NOTE---------------------------------#
#This file is the author's own work and represents their interpretation of the #
#song. You may only use this file for private study, scholarship, or research. #
#------------------------------------------------------------------------------#

DAY OF YOUR BELIEFS
As recorded by Amorphis

Transcribed by Bolus
        



Gtr I (D G C F A D) - 'Acoustic'
Gtr II (D G C F A D) - 'Distorted '
Gtr III (D G C F A D) - 'Overdriven'
Gtr IV (D G C F A D) - 'Keyboard'

 A
  Moderately Q=115
 4/4
  Gtr I
  T  Q.   T  T T H      +H     +Q.   S S    Q  Q  E S S  Q    W
|---------------------|------------------|------------------|------|
|-8-10----8-10-8------|------------------|------------------|------|
|----------------9----|-(9)----(9)-------|-----9------------|------|
|---------------------|--------------7-9-|-10-----7-9-7-----|-7----|
|---------------------|------------------|--------------10--|------|
|---------------------|------------------|------------------|------|


  T  E  E.  +T  E H      +H     +Q.   S S    Q  Q  E S S  Q    W
|----------------------|------------------|------------------|------|
|-8-10-10--(10)-8------|------------------|------------------|------|
|-----------------9----|-(9)----(9)-------|-----9------------|------|
|----------------------|--------------7-9-|-10-----7-9-7-----|-7----|
|----------------------|------------------|--------------10--|------|
|----------------------|------------------|------------------|------|


   Q   E E Q.   E   E E  E E Q  E E    Q  Q  E S S  Q    W
|-----------------|-----------------|------------------|------|
|-10--10-8--------|-----------------|------------------|------|
|----------9----7-|-9-7-------------|-----9------------|------|
|-----------------|-----10-9-7--7-9-|-10-----7-9-7-----|-7----|
|-----------------|-----------------|--------------10--|------|
|-----------------|-----------------|------------------|------|


   Q   E E Q.   E   E E  E E Q  E E    Q  Q  E S S  Q
|-----------------|-----------------|-------------------|
|-10--10-8--------|-----------------|-------------------|
|----------9----7-|-9-7-------------|-----9-------------|
|-----------------|-----10-9-7--7-9-|-10-----7-9-7------|
|-----------------|-----------------|--------------10---|
|-----------------|-----------------|-------------------|


  H.      +E   S  S    Q   Q   E  S  S  Q
|-------------------|-----12---------------||
|-------------10-12-|-13------10-12-10-----||
|-------------------|------------------12--||
|-7-------(7)-------|----------------------||
|-------------------|----------------------||
|-------------------|----------------------||


 B
  Gtr II
   Q    E E Q.     E   E E  E E Q   E E
|--------------------|------------------|
|-10---10-8----------|------------------|
|-----------9------7-|-9-7--------------|
|--------------------|-----10-9-7---7-9-|
|--------------------|------------------|
|--------------------|------------------|
|
| Gtr III
|  E E  E E E  E E E   E E  E E E E E E
|--------------------|------------------|
|--------------------|------------------|
|--------------------|------------------|
|--7-7--7-7-7--7-7-7-|-7-7--7-7-7-7-7-7-|
|--7-7--7-7-7--7-7-7-|-7-7--7-7-7-7-7-7-|
|--5-5--5-5-5--5-5-5-|-5-5--5-5-5-5-5-5-|


   E E E E E S S  Q     H       H
|---------------------|------------------|
|---------------------|------------------|
|------9--------------|------------------|
|-10-7---7-7-9-7------|-7-------9--------|
|----------------10---|------------------|
|---------------------|------------------|
|
|  E E E E E E    E E   E E E E E E E E
|---------------------|------------------|
|---------------------|------------------|
|--5-5-5-5------------|------------------|
|--5-5-5-5-5-5----5-5-|-3-3-3-3-2-2-2-2--|
|--3-3-3-3-5-5----5-5-|-3-3-3-3-2-2-2-2--|
|----------3-3----3-3-|-1-1-1-1-0-0-0-0--|


   Q    E E Q.     E   E E  E E Q   E E    E E E E E S S  Q
|--------------------|------------------|----------------------||
|-10---10-8----------|------------------|----------------------||
|-----------9------7-|-9-7--------------|------9---------------||
|--------------------|-----10-9-7---7-9-|-10-7---7-7-9-7-------||
|--------------------|------------------|----------------10----||
|--------------------|------------------|----------------------||
|
|  E E  E E E  E E E   E E  E E E E E E    E E E E E E    E E
|--------------------|------------------|----------------------||
|--------------------|------------------|----------------------||
|--------------------|------------------|--5-5-5-5-------------||
|--7-7--7-7-7--7-7-7-|-7-7--7-7-7-7-7-7-|--5-5-5-5-5-5----5-5--||
|--7-7--7-7-7--7-7-7-|-7-7--7-7-7-7-7-7-|--3-3-3-3-5-5----5-5--||
|--5-5--5-5-5--5-5-5-|-5-5--5-5-5-5-5-5-|----------3-3----3-3--||


 C
  W                  E E E E E E E E   E E E E E E E E   E E E E E E E E
|------------------|-----------------|-----------------|-----------------|
|------------------|-----------------|-----------------|-----------------|
|------------------|-----------------|-----------------|-5-5-5-5---------|
|-7----------------|-7-7-7-7-7-7-7-7-|-7-7-7-7-7-7-7-7-|-5-5-5-5-5-5-5-5-|
|------------------|-7-7-7-7-7-7-7-7-|-7-7-7-7-7-7-7-7-|-3-3-3-3-5-5-5-5-|
|------------------|-5-5-5-5-5-5-5-5-|-5-5-5-5-5-5-5-5-|---------3-3-3-3-|
|
| E  E E E E E E E   E E E E E E E E   E E E E E E E E   E E E E E E E E
|------------------|-----------------|-----------------|-----------------|
|------------------|-----------------|-----------------|-----------------|
|------------------|-----------------|-----------------|-5-5-5-5---------|
|-7--7-7-7-7-7-7-7-|-7-7-7-7-7-7-7-7-|-7-7-7-7-7-7-7-7-|-5-5-5-5-5-5-5-5-|
|-7--7-7-7-7-7-7-7-|-7-7-7-7-7-7-7-7-|-7-7-7-7-7-7-7-7-|-3-3-3-3-5-5-5-5-|
|-5--5-5-5-5-5-5-5-|-5-5-5-5-5-5-5-5-|-5-5-5-5-5-5-5-5-|---------3-3-3-3-|
|
| Gtr IV
| H.           E E   Q   E H       E   E E E E Q   E E   E Q   E Q   Q
|------------------|-----------------|-----------------|-----------------|
|------------------|-----5-5-------5-|-5-3-------------|-----------------|
|--------------5-4-|-----------------|-----5-4-------4-|-5-4-----4---4---|
|------------------|-7---------------|---------7---7---|-------7---------|
|------------------|-----------------|-----------------|-----------------|
|------------------|-----------------|-----------------|-----------------|


  E E E E E E E E   E E E E E E E E   E E E E E E  E E    Q   Q   E S S  Q
|-----------------|-----------------|------------------|---------------------|
|-----------------|-----------------|------------------|------8--------------|
|-----------------|-----------------|----------------7-|--9-------7-9-7------|
|-3-3-3-3-2-2-2-2-|-7-7-7-7-7-7-7-7-|-7-7-7-7-7-7-10---|-----------------9---|
|-3-3-3-3-2-2-2-2-|-7-7-7-7-7-7-7-7-|-7-7-7-7-7-7------|---------------------|
|-1-1-1-1-0-0-0-0-|-5-5-5-5-5-5-5-5-|-5-5-5-5-5-5------|---------------------|
|
| E E E E E E E E   E E E E E E E E   E E E E E E  E E    Q   Q   E S S  Q
|-----------------|-----------------|------------------|---------------------|
|-----------------|-----------------|------------------|---------------------|
|-----------------|-----------------|------------------|------9--------------|
|-3-3-3-3-2-2-2-2-|-7-7-7-7-7-7-7-7-|-7-7-7-7-7-7--7-9-|-10-------7-9-7------|
|-3-3-3-3-2-2-2-2-|-7-7-7-7-7-7-7-7-|-7-7-7-7-7-7------|----------------10---|
|-1-1-1-1-0-0-0-0-|-5-5-5-5-5-5-5-5-|-5-5-5-5-5-5------|---------------------|
|
| H       Q   E E   Q   E H       E   E E E E Q    E E    E Q   E Q      Q
|-----------------|-----------------|------------------|---------------------|
|-----------------|-----5-5-------5-|-5-3--------------|---------------------|
|-------------5-4-|-----------------|-----5-4--------4-|--5-4-----4------4---|
|-7---------------|-7---------------|---------7----7---|--------7------------|
|-----------------|-----------------|------------------|---------------------|
|-----------------|-----------------|------------------|---------------------|


   H.        E E    Q  Q   E S S  Q     W
|----------------|-------------------|--------------||
|----------------|-----8-------------|--------------||
|--------------7-|--9------7-9-7-----|--------------||
|-10--------10---|----------------9--|-10-----------||
|----------------|-------------------|--------------||
|----------------|-------------------|--------------||
|
|  H.        E E    Q  Q   E S S  Q     H.      Q
|----------------|-------------------|--------------||
|----------------|-------------------|--------------||
|----------------|-----9-------------|--------------||
|--7---------7-9-|-10------7-9-7-----|--7-----------||
|----------------|---------------10--|--------------||
|----------------|-------------------|--------------||
|
|  H     Q   E E    Q  E E Q      Q     W
|----------------|-------------------|--------------||
|----------------|-----5-5-----------|--------------||
|------------5-4-|--5------4---------|--------------||
|--7-------------|----------------5--|--7-----------||
|----------------|-------------------|--------------||
|----------------|-------------------|--------------||


 D
  Gtrs II, III
  Q  E E Q  E E   Q   E E Q  E E   E E E E E  E E E   E E E E E  E  Q
|---------------|----------------|------------------|-------------------|
|---------------|----------------|------------------|-------------------|
|-7--7-5-7--7-5-|-7---7-5-7--7-5-|------------------|-------------------|
|-7--7-5-7--7-5-|-7---7-5-7--7-5-|-8-8-8-8-8--8-8-8-|-8-8-8-8-8-10-10---|
|-5--5-3-5--5-3-|-5---5-3-5--5-3-|-8-8-8-8-8--8-8-8-|-8-8-8-8-8-10-10---|
|---------------|----------------|-6-6-6-6-6--6-6-6-|-6-6-6-6-6--8--8---|
|
| Gtr IV
| W               H.         E E   E E E E Q.     E   Q   Q   Q     E E
|---------------|----------------|------------------|-------------------|
|---------------|--------------5-|-6-6-6-5----------|-6---6---5-----6-5-|
|---------------|------------7---|---------7------7-|-------------------|
|---------------|----------------|------------------|-------------------|
|---------------|----------------|------------------|-------------------|
|---------------|----------------|------------------|-------------------|


  Q  E E Q  E E   Q   E E Q  E E   E E E E E E E E   E E E E E E E  E
|---------------|----------------|-----------------|------------------||
|---------------|----------------|-----------------|------------------||
|-7--7-5-7--7-5-|-7---7-5-7--7-5-|-----------------|------------------||
|-7--7-5-7--7-5-|-7---7-5-7--7-5-|-8-8-8-8-8-8-8-8-|-5-5-5-5-5-5-5--5-||
|-5--5-3-5--5-3-|-5---5-3-5--5-3-|-8-8-8-8-8-8-8-8-|-5-5-5-5-5-5-5--5-||
|---------------|----------------|-6-6-6-6-6-6-6-6-|-3-3-3-3-3-3-3--3-||
|
| H      H        H.         E E   E E E Q   Q   E   Q   Q   Q   E  E
|---------------|----------------|-----------------|------------------||
|---------------|--------------5-|-6-6-6-5---------|-8---8---6---8-10-||
|-7-------------|------------7---|-----------7---7-|------------------||
|---------------|----------------|-----------------|------------------||
|---------------|----------------|-----------------|------------------||
|---------------|----------------|-----------------|------------------||


 E
    Q     E E Q.     E   E E  E E Q   E E
|----------------------|------------------|
|--10----10-8----------|------------------|
|-------------9------7-|-9-7--------------|
|----------------------|-----10-9-7---7-9-|
|----------------------|------------------|
|----------------------|------------------|
|
| Gtr III
|   E  E  E E E  E E E   E E  E E E E E E
|----------------------|------------------|
|----------------------|------------------|
|----------------------|------------------|
|---7--7--7-7-7--7-7-7-|-7-7--7-7-7-7-7-7-|
|---7--7--7-7-7--7-7-7-|-7-7--7-7-7-7-7-7-|
|---5--5--5-5-5--5-5-5-|-5-5--5-5-5-5-5-5-|
|
| Gtr IV
|  +W                    W
|----------------------|------------------|
|-(10)-----------------|------------------|
|----------------------|------------------|
|----------------------|------------------|
|----------------------|------------------|
|----------------------|------------------|


   E E E E E S S  Q     H       H
|---------------------|-----------------|
|---------------------|-----------------|
|------9--------------|-----------------|
|-10-7---7-7-9-7------|-7-------9-------|
|----------------10---|-----------------|
|---------------------|-----------------|
|
|  E E E E E E    E E   E E E E E E E E
|---------------------|-----------------|
|---------------------|-----------------|
|--5-5-5-5------------|-----------------|
|--5-5-5-5-5-5----5-5-|-3-3-3-3-2-2-2-2-|
|--3-3-3-3-5-5----5-5-|-3-3-3-3-2-2-2-2-|
|----------3-3----3-3-|-1-1-1-1-0-0-0-0-|
|
|  W                    W
|---------------------|-----------------|
|---------------------|-----------------|
|---------------------|-----------------|
|---------------------|-----------------|
|---------------------|-----------------|
|---------------------|-----------------|


   Q    E E Q.     E   E E  E E Q   E E
|--------------------|------------------|
|-10---10-8----------|------------------|
|-----------9------7-|-9-7--------------|
|--------------------|-----10-9-7---7-9-|
|--------------------|------------------|
|--------------------|------------------|
|
|  E E  E E E  E E E   E E  E E E E E E
|--------------------|------------------|
|--------------------|------------------|
|--------------------|------------------|
|--7-7--7-7-7--7-7-7-|-7-7--7-7-7-7-7-7-|
|--7-7--7-7-7--7-7-7-|-7-7--7-7-7-7-7-7-|
|--5-5--5-5-5--5-5-5-|-5-5--5-5-5-5-5-5-|


   E E E E E S S  Q     W
|---------------------|-----------------||
|---------------------|-----------------||
|------9--------------|-----------------||
|-10-7---7-7-9-7------|-7---------------||
|----------------10---|-----------------||
|---------------------|-----------------||
|
|  E E E E E E    E E   E E E E E E E E
|---------------------|-----------------||
|---------------------|-----------------||
|--5-5-5-5------------|---------9-9-9-9-||
|--5-5-5-5-5-5----5-5-|-7-7-7-7-9-9-9-9-||
|--3-3-3-3-5-5----5-5-|-7-7-7-7-7-7-7-7-||
|----------3-3----3-3-|-5-5-5-5---------||


 F
  Gtrs II, III
  E E E E E E E E   E E E E E E E E   E E E E E E E E   E E E E E E E E
|-----------------|-----------------|-----------------|-----------------|
|-----------------|-----------------|-----------------|-----------------|
|-----------------|-----------------|-5-5-5-5---------|-----------------|
|-7-7-7-7-7-7-7-7-|-7-7-7-7-7-7-7-7-|-5-5-5-5-5-5-5-5-|-3-3-3-3-2-2-2-2-|
|-7-7-7-7-7-7-7-7-|-7-7-7-7-7-7-7-7-|-3-3-3-3-5-5-5-5-|-3-3-3-3-2-2-2-2-|
|-5-5-5-5-5-5-5-5-|-5-5-5-5-5-5-5-5-|---------3-3-3-3-|-1-1-1-1-0-0-0-0-|
|
| Gtr IV
| Q   E H       E   E E E E Q   E E   E Q   E Q   Q     H       Q   E E
|-----------------|-----------------|-----------------|-----------------|
|-----5-5-------5-|-5-3-------------|-----------------|-----------------|
|-----------------|-----5-4-------4-|-5-4-----4---4---|-------------5-4-|
|-----------------|---------7---7---|-------7---------|-7---------------|
|-7---------------|-----------------|-----------------|-----------------|
|-----------------|-----------------|-----------------|-----------------|


  E E E E E E E E   E E E E E E  E E    Q   Q   E S S  Q
|-----------------|------------------|--------------------|
|-----------------|------------------|------8-------------|
|-----------------|----------------7-|--9-------7-9-7-----|
|-7-7-7-7-7-7-7-7-|-7-7-7-7-7-7-10---|-----------------9--|
|-7-7-7-7-7-7-7-7-|-7-7-7-7-7-7------|--------------------|
|-5-5-5-5-5-5-5-5-|-5-5-5-5-5-5------|--------------------|
|
| Gtr III
| E E E E E E E E   E E E E E E  E E    Q   Q   E S S  Q
|-----------------|------------------|--------------------|
|-----------------|------------------|--------------------|
|-----------------|------------------|------9-------------|
|-7-7-7-7-7-7-7-7-|-7-7-7-7-7-7--7-9-|-10-------7-9-7-----|
|-7-7-7-7-7-7-7-7-|-7-7-7-7-7-7------|----------------10--|
|-5-5-5-5-5-5-5-5-|-5-5-5-5-5-5------|--------------------|
|
| Gtr IV
| Q   E H       E   E E E E Q    E E    E Q   E Q      Q
|-----------------|------------------|--------------------|
|-----5-5-------5-|-5-3--------------|--------------------|
|-----------------|-----5-4--------4-|--5-4-----4------4--|
|-----------------|---------7----7---|--------7-----------|
|-7---------------|------------------|--------------------|
|-----------------|------------------|--------------------|


   H.        E E    Q  Q   E S S  Q     W
|----------------|-------------------|-------------||
|----------------|-----8-------------|-------------||
|--------------7-|--9------7-9-7-----|-------------||
|-10--------10---|----------------9--|-10----------||
|----------------|-------------------|-------------||
|----------------|-------------------|-------------||
|
|  H.        E E    Q  Q   E S S  Q     H.      Q
|----------------|-------------------|-------------||
|----------------|-------------------|-------------||
|----------------|-----9-------------|-------------||
|--7---------7-9-|-10------7-9-7-----|--7----------||
|----------------|---------------10--|-------------||
|----------------|-------------------|-------------||
|
|  H     Q   E E    Q  E E Q      Q     W
|----------------|-------------------|-------------||
|----------------|-----5-5-----------|-------------||
|------------5-4-|--5------4---------|-------------||
|--7-------------|----------------5--|--7----------||
|----------------|-------------------|-------------||
|----------------|-------------------|-------------||


 G
  Gtrs II, III
  Q  E E Q  E E   Q   E E Q  E E   E E E E E  E E E   E E E E E  E  Q
|---------------|----------------|------------------|-------------------|
|---------------|----------------|------------------|-------------------|
|-7--7-5-7--7-5-|-7---7-5-7--7-5-|------------------|-------------------|
|-7--7-5-7--7-5-|-7---7-5-7--7-5-|-8-8-8-8-8--8-8-8-|-8-8-8-8-8-10-10---|
|-5--5-3-5--5-3-|-5---5-3-5--5-3-|-8-8-8-8-8--8-8-8-|-8-8-8-8-8-10-10---|
|---------------|----------------|-6-6-6-6-6--6-6-6-|-6-6-6-6-6--8--8---|
|
| Gtr IV
| W               H.         E E   E E E E Q.     E   Q   Q   Q     E E
|---------------|----------------|------------------|-------------------|
|---------------|--------------5-|-6-6-6-5----------|-6---6---5-----6-5-|
|---------------|------------7---|---------7------7-|-------------------|
|---------------|----------------|------------------|-------------------|
|---------------|----------------|------------------|-------------------|
|---------------|----------------|------------------|-------------------|


  Q  E E Q  E E   Q   E E Q  E E   E E E E E E E E   E E E E E E E  E
|---------------|----------------|-----------------|------------------||
|---------------|----------------|-----------------|------------------||
|-7--7-5-7--7-5-|-7---7-5-7--7-5-|-----------------|------------------||
|-7--7-5-7--7-5-|-7---7-5-7--7-5-|-8-8-8-8-8-8-8-8-|-5-5-5-5-5-5-5--5-||
|-5--5-3-5--5-3-|-5---5-3-5--5-3-|-8-8-8-8-8-8-8-8-|-5-5-5-5-5-5-5--5-||
|---------------|----------------|-6-6-6-6-6-6-6-6-|-3-3-3-3-3-3-3--3-||
|
| H      H        H.         E E   E E E Q   Q   E   Q   Q   Q   E  E
|---------------|----------------|-----------------|------------------||
|---------------|--------------5-|-6-6-6-5---------|-8---8---6---8-10-||
|-7-------------|------------7---|-----------7---7-|------------------||
|---------------|----------------|-----------------|------------------||
|---------------|----------------|-----------------|------------------||
|---------------|----------------|-----------------|------------------||


 Solo
  Gtr II
    Q    E E H      +H     +E  E E  E   H    E S S  Q    W
|-----------------|-------------------|----------------|------|
|--10---10-8------|-------------------|----------------|------|
|------------9----|-(9)----(9)--------|-9--------------|------|
|-----------------|------------7-9-10-|------7-9-7-----|-7----|
|-----------------|-------------------|------------10--|------|
|-----------------|-------------------|----------------|------|
|
|  +W                W                  W                W
|-----------------|-------------------|----------------|------|
|-(10)------------|-------------------|----------------|------|
|-----------------|-------------------|----------------|------|
|-----------------|-------------------|----------------|------|
|-----------------|-------------------|----------------|------|
|-----------------|-------------------|----------------|------|


         |-3--|
   E  Q  S  S S H      +H     +E    Q   S  S    H     H       W
|--------------------|-----------------10----|-12----15----|-17----|
|-10-10--8-10-8------|------------/10-----10-|-------------|-------|
|---------------9----|-(9)----(9)------------|-------------|-------|
|--------------------|-----------------------|-------------|-------|
|--------------------|-----------------------|-------------|-------|
|--------------------|-----------------------|-------------|-------|


        |-3--|
   Q.   S  S S H      +Q.   Q   Q.       Q  Q  E S S  Q    H    +E  E  E E
|-------------------|-----------------|------------------|------------------|
|-10----8-10-8------|-------8--(8)----|------------------|------------------|
|--------------9----|-(9)-------7b8r==|=====9------------|---------------9--|
|-------------------|-----------------|-10-----7-9-7-----|-7----(7)-9-10----|
|-------------------|-----------------|--------------10--|------------------|
|-------------------|-----------------|------------------|------------------|


             |-3--|
  T  Q   +S. S  S S H      +H.      E E    Q  Q  E S S  Q
|------------------------|--------------|------------------|
|-8-10--(10)-8-10-8------|--------------|------------------|
|-------------------9----|-(9)----------|-----9------------|
|------------------------|----------7-9-|-10-----7-9-7-----|
|------------------------|--------------|--------------10--|
|------------------------|--------------|------------------|


  H.      E E    Q  Q  E S S  Q    W
|-------------|------------------|------||
|-------------|------------------|------||
|-------------|-----9------------|------||
|-7-------7-9-|-10-----7-9-7-----|-7----||
|-------------|--------------10--|------||
|-------------|------------------|------||


 I
  Gtrs II, III
  Q  E E Q  E E   Q   E E Q  E E   E E E E E  E E E   E E E E E  E  Q
|---------------|----------------|------------------|-------------------|
|---------------|----------------|------------------|-------------------|
|-7--7-5-7--7-5-|-7---7-5-7--7-5-|------------------|-------------------|
|-7--7-5-7--7-5-|-7---7-5-7--7-5-|-8-8-8-8-8--8-8-8-|-8-8-8-8-8-10-10---|
|-5--5-3-5--5-3-|-5---5-3-5--5-3-|-8-8-8-8-8--8-8-8-|-8-8-8-8-8-10-10---|
|---------------|----------------|-6-6-6-6-6--6-6-6-|-6-6-6-6-6--8--8---|
|
| Gtr IV
| W               H.         E E   E E E E Q.     E   Q   Q   Q     E E
|---------------|----------------|------------------|-------------------|
|---------------|--------------5-|-6-6-6-5----------|-6---6---5-----6-5-|
|---------------|------------7---|---------7------7-|-------------------|
|---------------|----------------|------------------|-------------------|
|---------------|----------------|------------------|-------------------|
|---------------|----------------|------------------|-------------------|


  Q  E E Q  E E   Q   E E Q  E E   E E E E E E E E   E E E E E E E  E
|---------------|----------------|-----------------|------------------|
|---------------|----------------|-----------------|------------------|
|-7--7-5-7--7-5-|-7---7-5-7--7-5-|-----------------|------------------|
|-7--7-5-7--7-5-|-7---7-5-7--7-5-|-8-8-8-8-8-8-8-8-|-5-5-5-5-5-5-5--5-|
|-5--5-3-5--5-3-|-5---5-3-5--5-3-|-8-8-8-8-8-8-8-8-|-5-5-5-5-5-5-5--5-|
|---------------|----------------|-6-6-6-6-6-6-6-6-|-3-3-3-3-3-3-3--3-|
|
| H      H        H.         E E   E E E Q   Q   E   Q   Q   Q   E  E
|---------------|----------------|-----------------|------------------|
|---------------|--------------5-|-6-6-6-5---------|-8---8---6---8-10-|
|-7-------------|------------7---|-----------7---7-|------------------|
|---------------|----------------|-----------------|------------------|
|---------------|----------------|-----------------|------------------|
|---------------|----------------|-----------------|------------------|


  Q  E E Q  E E   Q   E E Q  E E   E E E E E  E E E   E E E E E  E  Q
|---------------|----------------|------------------|-------------------|
|---------------|----------------|------------------|-------------------|
|-7--7-5-7--7-5-|-7---7-5-7--7-5-|------------------|-------------------|
|-7--7-5-7--7-5-|-7---7-5-7--7-5-|-8-8-8-8-8--8-8-8-|-8-8-8-8-8-10-10---|
|-5--5-3-5--5-3-|-5---5-3-5--5-3-|-8-8-8-8-8--8-8-8-|-8-8-8-8-8-10-10---|
|---------------|----------------|-6-6-6-6-6--6-6-6-|-6-6-6-6-6--8--8---|
|
| H      H        H.         E E   E E E E Q.     E   Q   Q   Q     E E
|---------------|----------------|------------------|-------------------|
|---------------|--------------5-|-6-6-6-5----------|-6---6---5-----6-5-|
|-7-------------|------------7---|---------7------7-|-------------------|
|---------------|----------------|------------------|-------------------|
|---------------|----------------|------------------|-------------------|
|---------------|----------------|------------------|-------------------|


  Q  E E Q  E E   Q   E E Q  E E   E E E E E E E E   E E E E E E E  E
|---------------|----------------|-----------------|------------------|
|---------------|----------------|-----------------|------------------|
|-7--7-5-7--7-5-|-7---7-5-7--7-5-|-----------------|------------------|
|-7--7-5-7--7-5-|-7---7-5-7--7-5-|-8-8-8-8-8-8-8-8-|-5-5-5-5-5-5-5--5-|
|-5--5-3-5--5-3-|-5---5-3-5--5-3-|-8-8-8-8-8-8-8-8-|-5-5-5-5-5-5-5--5-|
|---------------|----------------|-6-6-6-6-6-6-6-6-|-3-3-3-3-3-3-3--3-|
|
| H      H        H.         E E   E E E Q   Q   E   Q   Q   Q   E  E
|---------------|----------------|-----------------|------------------|
|---------------|--------------5-|-6-6-6-5---------|-8---8---6---8-10-|
|-7-------------|------------7---|-----------7---7-|------------------|
|---------------|----------------|-----------------|------------------|
|---------------|----------------|-----------------|------------------|
|---------------|----------------|-----------------|------------------|


    E  E E E E E E E   S S E E S S E E S S E   S S E E S S E E S S E
|--------------------|-----------------------|------------------------||
|--------------------|-----------------------|-8-8-8-8-8-8-8-8-8-8-8--||
|--------------------|-7-7-7-7-7-7-7-7-7-7-7-|-7-7-7-7-7-7-7-7-7-7-7--||
|---5--5-5-5-5-5-5-5-|-7-7-7-7-7-7-7-7-7-7-7-|-5-5-5-5-5-5-5-5-5-5-5--||
|---5--5-5-5-5-5-5-5-|-5-5-5-5-5-5-5-5-5-5-5-|------------------------||
|---3--3-3-3-3-3-3-3-|-----------------------|------------------------||
|
|  +W                  W                       W
|--------------------|-----------------------|------------------------||
|-(10)---------------|-----------------------|------------------------||
|--------------------|-----------------------|------------------------||
|--------------------|-----------------------|------------------------||
|--------------------|-----------------------|------------------------||
|--------------------|-----------------------|------------------------||


 J
   Q    E  E  Q.      E    E  E  E  E  Q    E  E
|-----------------------|------------------------|
|-13---13-11------------|------------------------|
|------------12------10-|-12-10------------------|
|-----------------------|-------13-12-10---10-12-|
|-----------------------|------------------------|
|-----------------------|------------------------|
|
| Gtr III
|  E E  E  E  E  E E  E    E  E  E  E  E E  E  E
|-----------------------|------------------------|
|-----------------------|------------------------|
|--5-5--5--5--5--5-5--5-|--5--5--5--5--5-5--5--5-|
|--5-5--5--5--5--5-5--5-|--5--5--5--5--5-5--5--5-|
|--3-3--3--3--3--3-3--3-|--3--3--3--3--3-3--3--3-|
|-----------------------|------------------------|


   E  E  E  E  E  S  S  Q      H        H
|---------------------------|-------------------|
|---------------------------|-------------------|
|-------12------------------|-------------------|
|-13-10----10-10-12-10------|-10-------12-------|
|----------------------13---|-------------------|
|---------------------------|-------------------|
|
|  E  E  E  E  E  E     E E    E E E E  E E E E
|---------------------------|-------------------|
|---------------------------|-------------------|
|--8--8--8--8---------------|-------------------|
|--8--8--8--8--8--8-----8-8-|--6-6-6-6--5-5-5-5-|
|--6--6--6--6--8--8-----8-8-|--6-6-6-6--5-5-5-5-|
|--------------6--6-----6-6-|--4-4-4-4--3-3-3-3-|


   Q    E  E  Q.      E    E  E  E  E  Q    E  E
|-----------------------|------------------------|
|-13---13-11------------|------------------------|
|------------12------10-|-12-10------------------|
|-----------------------|-------13-12-10---10-12-|
|-----------------------|------------------------|
|-----------------------|------------------------|
|
|  E E  E  E  E  E E  E    E  E  E  E  E E  E  E
|-----------------------|------------------------|
|-----------------------|------------------------|
|--5-5--5--5--5--5-5--5-|--5--5--5--5--5-5--5--5-|
|--5-5--5--5--5--5-5--5-|--5--5--5--5--5-5--5--5-|
|--3-3--3--3--3--3-3--3-|--3--3--3--3--3-3--3--3-|
|-----------------------|------------------------|


   E  E  E  E  E  S  S  Q      H        H
|---------------------------|-------------------|
|---------------------------|-------------------|
|-------12------------------|-------------------|
|-13-10----10-10-12-10------|-10-------12-------|
|----------------------13---|-------------------|
|---------------------------|-------------------|
|
|  E  E  E  E  E  E     E E    E E E E  E E E E
|---------------------------|-------------------|
|---------------------------|-------------------|
|--8--8--8--8---------------|-------------------|
|--8--8--8--8--8--8-----8-8-|--6-6-6-6--5-5-5-5-|
|--6--6--6--6--8--8-----8-8-|--6-6-6-6--5-5-5-5-|
|--------------6--6-----6-6-|--4-4-4-4--3-3-3-3-|


   Q    E  E  Q.      E    E  E  E  E  Q    E  E
|-----------------------|------------------------|
|-13---13-11------------|------------------------|
|------------12------10-|-12-10------------------|
|-----------------------|-------13-12-10---10-12-|
|-----------------------|------------------------|
|-----------------------|------------------------|
|
|  E E  E  E  E  E E  E    E  E  E  E  E E  E  E
|-----------------------|------------------------|
|-----------------------|------------------------|
|--5-5--5--5--5--5-5--5-|--5--5--5--5--5-5--5--5-|
|--5-5--5--5--5--5-5--5-|--5--5--5--5--5-5--5--5-|
|--3-3--3--3--3--3-3--3-|--3--3--3--3--3-3--3--3-|
|-----------------------|------------------------|


   E  E  E  E  E  S  S  Q      H        H
|---------------------------|-------------------|
|---------------------------|-------------------|
|-------12------------------|-------------------|
|-13-10----10-10-12-10------|-10-------12-------|
|----------------------13---|-------------------|
|---------------------------|-------------------|
|
|  E  E  E  E  E  E     E E    E E E E  E E E E
|---------------------------|-------------------|
|---------------------------|-------------------|
|--8--8--8--8---------------|-------------------|
|--8--8--8--8--8--8-----8-8-|--6-6-6-6--5-5-5-5-|
|--6--6--6--6--8--8-----8-8-|--6-6-6-6--5-5-5-5-|
|--------------6--6-----6-6-|--4-4-4-4--3-3-3-3-|


   Q    E  E  Q.      E    E  E  E  E  Q    E  E
|-----------------------|------------------------|
|-13---13-11------------|------------------------|
|------------12------10-|-12-10------------------|
|-----------------------|-------13-12-10---10-12-|
|-----------------------|------------------------|
|-----------------------|------------------------|
|
|  E E  E  E  E  E E  E    E  E  E  E  E E  E  E
|-----------------------|------------------------|
|-----------------------|------------------------|
|--5-5--5--5--5--5-5--5-|--5--5--5--5--5-5--5--5-|
|--5-5--5--5--5--5-5--5-|--5--5--5--5--5-5--5--5-|
|--3-3--3--3--3--3-3--3-|--3--3--3--3--3-3--3--3-|
|-----------------------|------------------------|


   E  E  E  E  E  S  S  Q     H.       E  E
|--------------------------|----------------|
|--------------------------|----------------|
|-------12-----------------|----------------|
|-13-10----10-10-12-10-----|-10-------10-12-|
|----------------------13--|----------------|
|--------------------------|----------------|
|
|  H           H              W
|--------------------------|----------------|
|--------------------------|----------------|
|--8-----------------------|----------------|
|--8-----------8-----------|-10-------------|
|--6-----------8-----------|-10-------------|
|--------------6-----------|--8-------------|


                         H.=H             Q=85
   Q   Q   E  S  S  Q     H.       E  E    Q   Q   E  S  S  Q     W
|----------------------|----------------|----------------------|-------*|
|----------------------|----------------|----------------------|-------*|
|-----12---------------|----------------|-----12---------------|-------*|
|-13------10-12-10-----|-10-------10-12-|-13------10-12-10-----|-10----*|
|------------------13--|----------------|------------------13--|-------*|
|----------------------|----------------|----------------------|-------*|
|
|  H       H              W                H       H              W
|----------------------|----------------|----------------------|-------*|
|----------------------|----------------|----------------------|-------*|
|--8-------------------|----------------|--8-------------------|-------*|
|--8-------8-----------|-10-------------|--8-------8-----------|-10----*|
|--6-------8-----------|-10-------------|--6-------8-----------|-10----*|
|----------6-----------|--8-------------|----------6-----------|--8----*|



Duration Legend
---------------
W - whole; H - half; Q - quarter; E - 8th; S - 16th; T - 32nd; X - 64th; a - acciaccatura
+ - note tied to previous; . - note dotted; .. - note double dotted
Uncapitalized letters represent notes that are staccato (1/2 duration)
Irregular groupings are notated above the duration line
Duration letters will always appear directly above the note/fret number it represents the
duration for.  Duration letters with no fret number below them represent rests.  Multi-
bar rests are notated in the form Wxn, where n is the number of bars to rest for.  Low
melody durations appear below the staff

Tablature Legend
----------------
 h   - hammer-on
 p   - pull-off
 b   - bend
 pb  - pre-bend
 r   - bend release (if no number after the r, then release immediately)
 /\  - slide into or out of (from/to "nowhere")
 s   - legato slide
 S   - shift slide
<n> - natural harmonic
[n]  - artificial harmonic
n(n) - tapped harmonic
 ~   - vibrato
 tr  - trill
 T   - tap
 TP  - trem. picking
 PM  - palm muting
\n/  - tremolo bar dip; n = amount to dip
 \n  - tremolo bar down
 n/  - tremolo bar up
/n\  - tremolo bar inverted dip
 =   - hold bend; also acts as connecting device for hammers/pulls
 <> - volume swell (louder/softer)
 x   - on rhythm slash represents muted slash
 o   - on rhythm slash represents single note slash

Misc Legend
-----------
 |  - bar
||  - double bar
||o - repeat start
o|| - repeat end
*|  - double bar (ending)
 :  - bar (freetime)
 $  - Segno
 &  - Coda
Tempo markers - <E/E./Q/Q./H/H.> = BPM(8/16=s8/s16), where s8 = swing 8ths, s16 = swing 16ths

comments
We did not receive enough feedback on this tab! Please rate:
print report bad tab
1 2 3 4 5
I want to post or [tab]
guest
You may want to rate the tab now too:
select rating
Please do not post tabs as comments. Select "correction" instead!