Oops, an error
Loading. Please wait.

Divinity Tab

ver2
ver2

Whole song

Interactive

More versions @911Tabs.com
579 views 1 this week
no commentswrite comment
1 2 3 4 5
please rate
Autoscroll
+/-
esc
set tempo
stop
Contributor
Tuning
D G C F A D
Hey! There's an official Ultimate Guitar app which is ideal
for learning songs when you're away from computer. Get the app
WARNING: You are trying to view
                                    content from Ultimate-Guitar.com
                                    in an unauthorized application,
                                    which is prohibited.

                                    Please use an official Ultimate
                                    Guitar Tabs application for iPhone,
                                    iPad or Android to access legitimate
                                    chords, guitar, bass, and drum tabs
                                    from Ultimate-Guitar.com database.

                                    Type "ultimate guitar tabs" in Apple
                                    App Store's or Android Market's
                                    search to find the application.
#----------------------------------PLEASE NOTE---------------------------------#
#This file is the author's own work and represents their interpretation of the #
#song. You may only use this file for private study, scholarship, or research. #
#------------------------------------------------------------------------------#

DIVINITY 
As recorded by Amorphis
(From the 1999 Album TUONELA)


Transcribed by Carlos Acosta (geeko)

 Words and Music by Amorphis

 

D
x x 12 x x x 

A5
x 0 2 2 x x 

E5
0 2 2 x x x 

F5
1 3 3 x x x 

G5
3 5 5 x x x 


Gtr I (D G C F A D) - 'Synth'
Gtr II (D G C F A D) - 'Synth'
Gtr III (D G C F A D) - 'Rythym'
Gtr IV (D G C F A D) - 'Rhythm'
Gtr V (D G C F A D) - 'Lead'
Gtr VI (D G C F A D) - 'Synth Solo'


 Synth Intro
  Moderate Rock Q=139
 4/4
  Gtr I
   <
   W                +W                 +W                 +W
|-----------------|------------------|------------------|-------------------|
|-----------------|------------------|------------------|-------------------|
|-----------------|------------------|------------------|-------------------|
|-----------------|------------------|------------------|-------------------|
|--7--------------|-(7)--------------|-(7)--------------|-(7)---------------|
|-----------------|------------------|------------------|-------------------|
|
| Gtr II
|  <
|  q   q   q   q     q    q   q   q     q    q   q   q     q    q   q   q
|-12--12--12--12--|-12---12--12--12--|-14---14--14--14--|-------------------|
|-----------------|------------------|------------------|-15---15--15--15---|
|--9---9---9---9--|--9----9---9---9--|------------------|-------------------|
|-----------------|------------------|------------------|-------------------|
|-----------------|------------------|------------------|-------------------|
|-----------------|------------------|------------------|-------------------|


  +W                 +W                 +W                 +W
|------------------|------------------|------------------|------------------|
|------------------|------------------|------------------|------------------|
|------------------|------------------|------------------|------------------|
|------------------|------------------|------------------|------------------|
|-(7)--------------|-(7)--------------|-(7)--------------|-(7)--------------|
|------------------|------------------|------------------|------------------|
|
|  q    q   q   q     q    q   q   q     q    q   q   q     q    q   q   q
|-12---12--12--12--|-12---12--12--12--|-14---14--14--14--|------------------|
|------------------|------------------|------------------|-15---15--15--15--|
|------------------|------------------|------------------|------------------|
|------------------|------------------|------------------|------------------|
|------------------|------------------|------------------|------------------|
|------------------|------------------|------------------|------------------|


   <
  +W                 +W                 +W                 +W
|------------------|------------------|------------------|------------------|
|------------------|------------------|------------------|------------------|
|------------------|------------------|------------------|------------------|
|------------------|------------------|------------------|------------------|
|-(7)--------------|-(7)--------------|-(7)--------------|-(7)--------------|
|--0---------------|-(0)--------------|-(0)--------------|-(0)--------------|
|  W                 +W                 +W                 +W
|
|  q    q   q   q     q    q   q   q     q    q   q   q     q    q   q   q
|-12---12--12--12--|-12---12--12--12--|-14---14--14--14--|------------------|
|------------------|------------------|------------------|-15---15--15--15--|
|------------------|------------------|------------------|------------------|
|------------------|------------------|------------------|------------------|
|------------------|------------------|------------------|------------------|
|------------------|------------------|------------------|------------------|


    +W                 +W
||-------------------|------------------|
||o------------------|------------------|
||-------------------|------------------|
||-------------------|------------------|
||o-(7)--------------|-(7)--------------|
||--(0)--------------|-(0)--------------|
|
|    q    q   q   q     q    q   q   q
||--12---12--12--12--|-12---12--12--12--|
||o------------------|------------------|
||-------------------|------------------|
||-------------------|------------------|
||o------------------|------------------|
||-------------------|------------------|


  +W                 +W
|------------------|--------------------||
|------------------|-------------------o||
|------------------|--------------------||
|------------------|--------------------||
|-(7)--------------|-(7)---------------o||
|-(0)--------------|-(0)----------------||
|
|  q    q   q   q     q    q   q   q
|-14---14--14--14--|--------------------||
|------------------|-15---15--15--15---o||
|------------------|--------------------||
|------------------|--------------------||
|------------------|-------------------o||
|------------------|--------------------||


 Verse
  E5                          F5
  Gtrs III, IV
  E E E E E E Q    W          E E E E E E Q    H      H
|----------------|----------|----------------|--------------|
|----------------|----------|----------------|--------------|
|----------------|----------|----------------|--------------|
|-2-2---2-2------|----------|-3-3---3-3------|--------------|
|-2-2---2-2------|----------|-3-3---3-3------|--------------|
|-0-0---0-0------|----------|-1-1---1-1------|------/19\----|


  $
  A5              A5          E5   F5           G5   G5
  Gtr III
  Q.   E Q  E E   +E  E Q  Q  Q    Q  E E E E E  E   +E  E  Q   Q   Q
|---------------|----------------|-----------------|--------------------|
|---------------|----------------|-----------------|--------------------|
|-2----2-2--2-2-|-(2)-2-2--5--4--|-5--5-5-5-5-5-/7-|-(7)-7-\4---5---4---|
|-x----x-x--x-x-|-(x)-x-x--x--x--|-x--x-x-x-x-x--x-|-(x)-x--x---x---x---|
|-0----0-0--0-0-|-(0)-0-0--3--2--|-3--3-3-3-3-3-/5-|-(5)-5-\2---3---2---|
|---------------|----------------|-----------------|--------------------|
|
| Gtr IV
| Q.   E Q  E E   +E  E H     Q    H      Q   E  E   +E  E  E E E E E E
|---------------|----------------|-----------------|--------------------|
|---------------|----------------|-----------------|--------------------|
|-2----2-2--2-2-|-(2)-2-2--------|-----------------|--------------------|
|-2----2-2--2-2-|-(2)-2-2-----2--|-3------3---3--5-|-(5)-5--5-5-5-5-5-5-|
|-0----0-0--0-0-|-(0)-0-0-----2--|-3------3---3--5-|-(5)-5--5-5-5-5-5-5-|
|---------------|-------------0--|-1------1---1--3-|-(3)-3--3-3-3-3-3-3-|


  E5             E5                 F5             F5
  Gtrs III, IV
  E E E E H      +H     +Q.   S S   E E E E H      +W
|--------------|------------------|--------------|--------|
|--------------|------------------|--------------|--------|
|--------------|------------------|--------------|--------|
|-2-2---2-2----|-(2)----(2)---x-x-|-3-3---3-3----|-(3)----|
|-2-2---2-2----|-(2)----(2)---x-x-|-3-3---3-3----|-(3)----|
|-0-0---0-0----|-(0)----(0)---x-x-|-1-1---1-1----|-(1)----|


  A5              A5          E5   F5           G5   G5
  Gtr III
  Q.   E Q  E E   +E  E Q  Q  Q    Q  E E E E E  E   +E  E  Q   Q   Q
|---------------|----------------|-----------------|--------------------|
|---------------|----------------|-----------------|--------------------|
|-2----2-2--2-2-|-(2)-2-2--5--4--|-5--5-5-5-5-5-/7-|-(7)-7-\4---5---4---|
|-x----x-x--x-x-|-(x)-x-x--x--x--|-x--x-x-x-x-x--x-|-(x)-x--x---x---x---|
|-0----0-0--0-0-|-(0)-0-0--3--2--|-3--3-3-3-3-3-/5-|-(5)-5-\2---3---2---|
|---------------|----------------|-----------------|--------------------|
|
| Gtr IV
| Q.   E Q  E E   +E  E H     Q    H      Q   E  E   +E  E  E E E E E E
|---------------|----------------|-----------------|--------------------|
|---------------|----------------|-----------------|--------------------|
|-2----2-2--2-2-|-(2)-2-2--------|-----------------|--------------------|
|-2----2-2--2-2-|-(2)-2-2-----2--|-3------3---3--5-|-(5)-5--5-5-5-5-5-5-|
|-0----0-0--0-0-|-(0)-0-0-----2--|-3------3---3--5-|-(5)-5--5-5-5-5-5-5-|
|---------------|-------------0--|-1------1---1--3-|-(3)-3--3-3-3-3-3-3-|


   Chorus
    $$
    E5               E5                    D5               D5
    Q  E E E E E E   +E  E Q    Q    Q     Q  E E E E E E   +E  E E E Q   Q
||-----------------|---------------------|----------------|--------------------|
||o----------------|---------------------|----------------|--------------------|
||--9--9-9-9-9-9-9-|-(9)-9-9---12---11---|-7--7-7-6s7s6-4-|-(4)-4-4-4-4---6----|
||--x--x-x-x-x-x-x-|-(x)-x-x----x----x---|-x--x-x-x-x-x-x-|-(x)-x-x-x-x---x----|
||o-7--7-7-7-7-7-7-|-(7)-7-7---10----9---|-5--5-5-4s5s4-2-|-(2)-2-2-2-2---4----|
||-----------------|---------------------|----------------|--------------------|
|
|   Q  E E E E E E   +E  E E E  E E  E E   Q  E E E E E E   +E  E E E E E E E
||-----------------|---------------------|----------------|--------------------|
||o----------------|---------------------|----------------|--------------------|
||--9--9-9-9-9-9-9-|-(9)-9-9-9--9-9--9-9-|-7--7-7-7-7-7-7-|-(7)-7-7-7-7-7-7-7--|
||--9--9-9-9-9-9-9-|-(9)-9-9-9--9-9--9-9-|-7--7-7-7-7-7-7-|-(7)-7-7-7-7-7-7-7--|
||o-7--7-7-7-7-7-7-|-(7)-7-7-7--7-7--7-7-|-5--5-5-5-5-5-5-|-(5)-5-5-5-5-5-5-5--|
||-----------------|---------------------|----------------|--------------------|


  1.
  G5               G5                  A5               A5
  Q  E E E E E E   +E  E E E Q   Q     Q  E E E E E E   +Q    H.
|----------------|-------------------|----------------|---------------------||
|----------------|-------------------|----------------|--------------------o||
|-7--7-7-6s7s6-4-|-(4)-4-4-4-4---6---|-7--7-7-6s7s6---|---------------------||
|-x--x-x-x-x-x-x-|-(x)-x-x-x-x---x---|-x--x-x-x-x-x-7-|-(7)---4-------------||
|-5--5-5-4s5s4-2-|-(2)-2-2-2-2---4---|-5--5-5-4s5s4-x-|-(x)---x------------o||
|----------------|-------------------|--------------5-|-(5)---2-------------||
|
| Q  E E E E E E   +E  E E E E E E E   Q  E E E E E E   +E  E E  E E E E E
|----------------|-------------------|----------------|---------------------||
|----------------|-------------------|----------------|--------------------o||
|----------------|-------------------|----------------|---------------------||
|-5--5-5-5-5-5-5-|-(5)-5-5-5-5-5-5-5-|-7--7-7-7-7-7-7-|-(7)-7-7--7-7-7-7-7--||
|-5--5-5-5-5-5-5-|-(5)-5-5-5-5-5-5-5-|-7--7-7-7-7-7-7-|-(7)-7-7--7-7-7-7-7-o||
|-3--3-3-3-3-3-3-|-(3)-3-3-3-3-3-3-3-|-5--5-5-5-5-5-5-|-(5)-5-5--5-5-5-5-5--||


  2.
                                                                 To Coda
                                                                 To Coda
  G5               G5                  A5               A5
  Q  E E E E E E   +E  E E E Q   Q     H      E E Q      H        H
|----------------|-------------------|----------------|-------------------|
|----------------|-------------------|----------------|-------------------|
|-7--7-7-6s7s6-4-|-(4)-4-4-4-4---6---|-7------6-7-9---|--6----------------|
|-x--x-x-x-x-x-x-|-(x)-x-x-x-x---x---|-x------x-x-x---|--x--------7-------|
|-5--5-5-4s5s4-2-|-(2)-2-2-2-2---4---|-5------4-5-7---|--4--------x-------|
|----------------|-------------------|----------------|-----------5-------|
|
| Q  E E E E E E   +E  E E E E E E E   Q  E E E E E E   +E  E E E E E E E
|----------------|-------------------|----------------|-------------------|
|----------------|-------------------|----------------|-------------------|
|----------------|-------------------|----------------|-------------------|
|-5--5-5-5-5-5-5-|-(5)-5-5-5-5-5-5-5-|-7--7-7-7-7-7-7-|-(7)-7-7-7-7-7-7-7-|
|-5--5-5-5-5-5-5-|-(5)-5-5-5-5-5-5-5-|-7--7-7-7-7-7-7-|-(7)-7-7-7-7-7-7-7-|
|-3--3-3-3-3-3-3-|-(3)-3-3-3-3-3-3-3-|-5--5-5-5-5-5-5-|-(5)-5-5-5-5-5-5-5-|


 Verse
                                   D.S. al Coda
  E5                          F5
  Gtrs III, IV
  E E E E E E Q    W          E E E E E E Q    W
|----------------|----------|----------------|------|
|----------------|----------|----------------|------|
|----------------|----------|----------------|------|
|-2-2---2-2------|----------|-3-3---3-3------|------|
|-2-2---2-2------|----------|-3-3---3-3------|------|
|-0-0---0-0------|----------|-1-1---1-1------|------|


 Synth Solo
  &
  D5                D5                   Bb5   C5    D5    D5
  Gtrs III, IV
   Q  E E E E E E    +E  E E E E E E E    Q.    Q.    Q      E  E E E E E E E
|-----------------|--------------------|-----------------|--------------------|
|-----------------|--------------------|-----------------|--------------------|
|--7--7-7-7-7-7-7-|--(7)-7-7-7-7-7-7-7-|--3-----5-----7--|---7--7-7-7-7-7-7-7-|
|--7--7-7-7-7-7-7-|--(7)-7-7-7-7-7-7-7-|--3-----5-----7--|---7--7-7-7-7-7-7-7-|
|--5--5-5-5-5-5-5-|--(5)-5-5-5-5-5-5-5-|--1-----3-----5--|---5--5-5-5-5-5-5-5-|
|-----------------|--------------------|-----------------|--------------------|
|
| Gtr VI
|  W                 +W                   Q.    Q.    Q     +W
|-17--------------|-(17)---------------|-------15----17--|-(17)---------------|
|-----------------|--------------------|-18--------------|--------------------|
|-----------------|--------------------|-----------------|--------------------|
|-----------------|--------------------|-----------------|--------------------|
|-----------------|--------------------|-----------------|--------------------|
|-----------------|--------------------|-----------------|--------------------|


  D5                D5
   Q  E E E E E E    +E  E E E E E E E    Q.    Q.    Q     +E  Q.   H
|-----------------|--------------------|-----------------|-----------------|
|-----------------|--------------------|-----------------|-----------------|
|--7--7-7-7-7-7-7-|--(7)-7-7-7-7-7-7-7-|-----------------|-----------------|
|--7--7-7-7-7-7-7-|--(7)-7-7-7-7-7-7-7-|--3-----5--------|-----------------|
|--5--5-5-5-5-5-5-|--(5)-5-5-5-5-5-5-5-|--------------3--|--(3)-5----5\----|
|-----------------|--------------------|-----------------|-----------------|
|
|  W                 +W                   Q.    Q.    Q     +W
|-17--------------|-(17)---------------|-------15----17--|-(17)------------|
|-----------------|--------------------|-18--------------|-----------------|
|-----------------|--------------------|-----------------|-----------------|
|-----------------|--------------------|-----------------|-----------------|
|-----------------|--------------------|-----------------|-----------------|
|-----------------|--------------------|-----------------|-----------------|


  A5                      A5                 E5
  Gtr III
   Q.      E Q     E  E    +E  E  Q     Q     Q
|-----------------------|------------------------|
|-----------------------|------------------------|
|--2-------2-2-----2--2-|--(2)-2--2-----5-----4--|
|--x-------x-x-----x--x-|--(x)-x--x-----x-----x--|
|--0-------0-0-----0--0-|--(0)-0--0-----3-----2--|
|-----------------------|------------------------|
|
| Gtr IV
|  Q.      E Q     E  E    +E  E  H           Q
|-----------------------|------------------------|
|-----------------------|------------------------|
|--2-------2-2-----2--2-|--(2)-2--2--------------|
|--2-------2-2-----2--2-|--(2)-2--2-----------2--|
|--0-------0-0-----0--0-|--(0)-0--0-----------2--|
|-----------------------|---------------------0--|
|
| Gtr VI
|  Q    E  Q    E  E  E    +Q     E  E  E  E  Q
|-----------------------|------------------------|
|-10------10------10-10-|-(10)---12-13-12-10-12--|
|-----------------------|------------------------|
|------10------10-------|------------------------|
|-----------------------|------------------------|
|-----------------------|------------------------|


  F5                 G5   G5
   Q   E  E  E  E  E  E    +E  E  Q    Q    Q
|-----------------------|-----------------------|
|-----------------------|-----------------------|
|--5---5--5--5--5--5-/7-|--(7)-7-\4----5----4---|
|--x---x--x--x--x--x--x-|--(x)-x--x----x----x---|
|--3---3--3--3--3--3-/5-|--(5)-5-\2----3----2---|
|-----------------------|-----------------------|
|
|  H         Q     E  E    +E  E  E E  E E  E E
|-----------------------|-----------------------|
|-----------------------|-----------------------|
|-----------------------|-----------------------|
|--3---------3-----3--5-|--(5)-5--5-5--5-5--5-5-|
|--3---------3-----3--5-|--(5)-5--5-5--5-5--5-5-|
|--1---------1-----1--3-|--(3)-3--3-3--3-3--3-3-|
|
|  Q.     E  E  E  E  E    +Q     Q    Q    Q
|-----------------------|-----------------------|
|-10--------10-12-------|-------------10--------|
|--------12-------12-12-|-(12)---12--------12---|
|-----------------------|-----------------------|
|-----------------------|-----------------------|
|-----------------------|-----------------------|


  A5                       A5                 E5
   Q.      E  Q     E  E    +E  E  Q     Q     Q
|------------------------|------------------------|
|------------------------|------------------------|
|--2-------2--2-----2--2-|--(2)-2--2-----5-----4--|
|--x-------x--x-----x--x-|--(x)-x--x-----x-----x--|
|--0-------0--0-----0--0-|--(0)-0--0-----3-----2--|
|------------------------|------------------------|
|
|  Q.      E  Q     E  E    +E  E  H           Q
|------------------------|------------------------|
|------------------------|------------------------|
|--2-------2--2-----2--2-|--(2)-2--2--------------|
|--2-------2--2-----2--2-|--(2)-2--2-----------2--|
|--0-------0--0-----0--0-|--(0)-0--0-----------2--|
|------------------------|---------------------0--|
|
|  Q    E  E  E  E  E  E    +Q     E  E  E  E  Q
|------------------------|------------------------|
|-10------10-10----10----|--------12-13-12-10-12--|
|------------------------|------------------------|
|------10-------10----10-|-(10)-------------------|
|------------------------|------------------------|
|------------------------|------------------------|


  F5                 G5   G5
   Q   E  E  E  E  E  E    +E  E  Q    Q    Q
|-----------------------|-----------------------|
|-----------------------|-----------------------|
|--5---5--5--5--5--5-/7-|--(7)-7-\4----5----4---|
|--x---x--x--x--x--x--x-|--(x)-x--x----x----x---|
|--3---3--3--3--3--3-/5-|--(5)-5-\2----3----2---|
|-----------------------|-----------------------|
|
|  H         Q     E  E    +E  E  E E  E E  E E
|-----------------------|-----------------------|
|-----------------------|-----------------------|
|-----------------------|-----------------------|
|--3---------3-----3--5-|--(5)-5--5-5--5-5--5-5-|
|--3---------3-----3--5-|--(5)-5--5-5--5-5--5-5-|
|--1---------1-----1--3-|--(3)-3--3-3--3-3--3-3-|
|
|  Q.     E  E  E  E  E    +Q     Q    Q    Q
|-----------------------|-----------------------|
|-10--------10-12-------|-------------10--------|
|--------12-------12-12-|-(12)---12--------12---|
|-----------------------|-----------------------|
|-----------------------|-----------------------|
|-----------------------|-----------------------|


    A5                     A5               E5
     Q.    E  Q     E  E    +E  E  Q   Q    Q
||-----------------------|-----------------------|
||o----------------------|-----------------------|
||---2-----2--2-----2--2-|--(2)-2--2---5----4----|
||---x-----x--x-----x--x-|--(x)-x--x---x----x----|
||o--0-----0--0-----0--0-|--(0)-0--0---3----2----|
||-----------------------|-----------------------|
|
|    Q.    E  Q     E  E    +E  E  H        Q
||-----------------------|-----------------------|
||o----------------------|-----------------------|
||---2-----2--2-----2--2-|--(2)-2--2-------------|
||---2-----2--2-----2--2-|--(2)-2--2--------2----|
||o--0-----0--0-----0--0-|--(0)-0--0--------2----|
||-----------------------|------------------0----|
|
|    Q.    E  E  E  E  E    +Q     Q   E  Q    E
||-----------------------|-----------------------|
||o-10-------10----10-10-|-(10)---10--10-10---10-|
||--------12----12-------|-----------------------|
||-----------------------|-----------------------|
||o----------------------|-----------------------|
||-----------------------|-----------------------|


                             D.S.S. al Dbl. Coda
  F5                 G5   G5
   Q   E  E  E  E  E  E    +E  E  Q     Q     Q
|-----------------------|----------------------------||
|-----------------------|---------------------------o||
|--5---5--5--5--5--5-/7-|--(7)-7-\4-----5-----4------||
|--x---x--x--x--x--x--x-|--(x)-x--x-----x-----x------||
|--3---3--3--3--3--3-/5-|--(5)-5-\2-----3-----2-----o||
|-----------------------|----------------------------||
|
|  H         Q     E  E    +E  E  E  E  E  E  E  E
|-----------------------|----------------------------||
|-----------------------|---------------------------o||
|-----------------------|----------------------------||
|--3---------3-----3--5-|--(5)-5--5--5--5--5--5--5---||
|--3---------3-----3--5-|--(5)-5--5--5--5--5--5--5--o||
|--1---------1-----1--3-|--(3)-3--3--3--3--3--3--3---||
|
|  Q.     E  E  E  E  E    +Q.       E  E  E  E  E
|-----------------------|----------------------------||
|-10--------10----10-10-|-(10)---------10----10-----o||
|--------12----12-------|-----------12----12----12---||
|-----------------------|----------------------------||
|-----------------------|---------------------------o||
|-----------------------|----------------------------||


 Guitar Solo
  &&
  D5                    D5
  Gtrs III, IV
   Q   E  E E  E  E E    +E  E E  E  E  E  E E
|---------------------|------------------------|
|---------------------|------------------------|
|--7---7--7-7--7--7-7-|--(7)-7-7--7--7--7--7-7-|
|--7---7--7-7--7--7-7-|--(7)-7-7--7--7--7--7-7-|
|--5---5--5-5--5--5-5-|--(5)-5-5--5--5--5--5-5-|
|---------------------|------------------------|
|
| Gtr V
|  Q   E  Q    E  Q      +Q.      E  E  E  Q
|-10--10-10---10-10---|-(10)-----10------------|
|---------------------|-------------10---------|
|---------------------|----------------10------|
|---------------------|-------------------12---|
|---------------------|------------------------|
|---------------------|------------------------|


  Bb5     C5        D5    D5
   Q.      Q.        Q      E  E E  E E  E  E E
|-----------------------|-----------------------|
|-----------------------|-----------------------|
|--3-------5---------7--|---7--7-7--7-7--7--7-7-|
|--3-------5---------7--|---7--7-7--7-7--7--7-7-|
|--1-------3---------5--|---5--5-5--5-5--5--5-5-|
|-----------------------|-----------------------|
|
|                    ~~~~~~~~~~
|  E E  E  E   E  E  Q     +Q.      E E  E  Q
|-----------------------|-----------------------|
|-----------------------|-----------------------|
|-10s9------------------|----------10p9h10-10---|
|------12-----10h12-12--|-(12)------------------|
|---------12------------|-----------------------|
|-----------------------|-----------------------|


  D5                     D5
  Q    E  E  E  E  E E    +E  E  E E     E     E  E E
|----------------------|------------------------------|
|----------------------|------------------------------|
|-7----7--7--7--7--7-7-|--(7)-7--7-7-----7-----7--7-7-|
|-7----7--7--7--7--7-7-|--(7)-7--7-7-----7-----7--7-7-|
|-5----5--5--5--5--5-5-|--(5)-5--5-5-----5-----5--5-5-|
|----------------------|------------------------------|
|
|                  ~~~~~~~~~~~
| E  E E  E  E  E  Q      +Q     E S  S  S  S  E  Q
|-8--------------------|------------------------------|
|----------------------|------------------------------|
|---10-9---------------|------------------------------|
|-----------10s12-12---|-(12)-----------------10-12---|
|--------10------------|-----------9-10-11-12---------|
|----------------------|--------10--------------------|


  Bb5    C5     D5   D5
  Q.     Q.     Q     E  E  E     E  E E   E E
|------------------|----------------------------|
|------------------|----------------------------|
|-3------5------7--|--7--7--7-----7--7-7---7-7--|
|-3------5------7--|--7--7--7-----7--7-7---7-7--|
|-1------3------5--|--5--5--5-----5--5-5---5-5--|
|------------------|----------------------------|
|
| E  E E E   Q  Q    +Q     S  S  Q.       Q
|------------------|----------------------------|
|------------------|----------------------------|
|-9s10-9-7---------|----------------------------|
|---------------7--|-(7)------10-12------/12----|
|-----------10-----|-------12-------------------|
|------------------|----------------------------|


  D5                    D5
  Q      E E  E E E E   +E  E   E  E  E  E  E  E
|---------------------|--------------------------|
|---------------------|--------------------------|
|-7------7-7--7-7-7-7-|-(7)-7---7--7--7--7--7--7-|
|-7------7-7--7-7-7-7-|-(7)-7---7--7--7--7--7--7-|
|-5------5-5--5-5-5-5-|-(5)-5---5--5--5--5--5--5-|
|---------------------|--------------------------|
|
|                 ~~~~~~~~~~
| S  S E E Q.     Q     +Q      E  E  E  E  E  E
|---------------------|-----------------------10-|
|---------------------|--------------13----13----|
|-9s10s9-7-9------7---|-(7)---/10h12----12-------|
|---------------------|--------------------------|
|---------------------|--------------------------|
|---------------------|--------------------------|


  Bb5      C5        D5    D5
   Q.       Q.        Q      E  E E E     E E E E
|------------------------|------------------------|
|------------------------|------------------------|
|--3--------5---------7--|---7--7-7-7-----7-7-7-7-|
|--3--------5---------7--|---7--7-7-7-----7-7-7-7-|
|--1--------3---------5--|---5--5-5-5-----5-5-5-5-|
|------------------------|------------------------|
|
|                                         ~~
|  E  E  E  E   E  E  Q     +Q.     S  S  H
|-12s13-12--------10-10--|-(10)-----8h10-10-------|
|----------13--10--------|------------------------|
|------------------------|------------------------|
|------------------------|------------------------|
|------------------------|------------------------|
|------------------------|------------------------|


  D5                         D5
   Q       E   E E  E  E E    +E  E E  E     E  E  E  E
|--------------------------|----------------------------|
|--------------------------|----------------------------|
|--7-------7---7-7--7--7-7-|--(7)-7-7--7-----7--7--7--7-|
|--7-------7---7-7--7--7-7-|--(7)-7-7--7-----7--7--7--7-|
|--5-------5---5-5--5--5-5-|--(5)-5-5--5-----5--5--5--5-|
|--------------------------|----------------------------|
|
|              ~~      ~~~~~~~~~~~
|  Q      +E   Q    E  Q      +Q.      S  S  E  E  E  e
|-15b17--(15)-15---13-12---|-(12)-----15p13-12----------|
|--------------------------|-------------------13-------|
|--------------------------|----------------------12s14-|
|--------------------------|----------------------------|
|--------------------------|----------------------------|
|--------------------------|----------------------------|


  Bb5           C5       D5    D5
   Q.           Q.        Q      E   E  E E  E E  E E
|----------------------------|-------------------------|
|----------------------------|-------------------------|
|--3------------5---------7--|---7---7--7-7--7-7--7-7--|
|--3------------5---------7--|---7---7--7-7--7-7--7-7--|
|--1------------3---------5--|---5---5--5-5--5-5--5-5--|
|----------------------------|-------------------------|
|
|  E     +E   E E   E  E  Q     +E   E  Q    Q    Q
|----------------------------|-------------------------|
|----------------------------|-------------------------|
|-12b14r(12)-10-9------------|---------10--------10----|
|------------------10----12--|-(12)-10------10---------|
|---------------------12-----|-------------------------|
|----------------------------|-------------------------|


 Outro
  D     A5               A5
  Gtr V
   W                       W
   |
   /

  Gtr III
   Q.    E  Q     E  E    +E  E Q     Q     Q
|----------------------|-------------------------|
|----------------------|-------------------------|
|--2-----2--2-----2--2-|--(2)-2-2-----5-----4----|
|--x-----x--x-----x--x-|--(x)-x-x-----x-----x----|
|--0-----0--0-----0--0-|--(0)-0-0-----3-----2----|
|----------------------|-------------------------|
|
| Gtr IV
|  Q.    E  Q     E  E    +E  E H           Q
|----------------------|-------------------------|
|----------------------|-------------------------|
|--2-----2--2-----2--2-|--(2)-2-2----------------|
|--2-----2--2-----2--2-|--(2)-2-2-----------2----|
|--0-----0--0-----0--0-|--(0)-0-0-----------2----|
|----------------------|--------------------0----|
|
| Gtr VI
|  Q.    E  E  E  E  E    +Q.      E  E  E  E  E
|----------------------|-------------------------|
|-10-------10----10-10-|-(10)--------10----10----|
|-------12----12-------|----------12----12----12-|
|----------------------|-------------------------|
|----------------------|-------------------------|
|----------------------|-------------------------|


  F5                 G5   G5
   W                        W
   Q   E  E  E  E  E  E    +E  E  Q    Q           Q
|-----------------------|-------------------------------|
|-----------------------|-------------------------------|
|--5---5--5--5--5--5-/7-|--(7)-7-\4----5-----------4----|
|--x---x--x--x--x--x--x-|--(x)-x--x----x-----------x----|
|--3---3--3--3--3--3-/5-|--(5)-5-\2----3-----------2----|
|-----------------------|-------------------------------|
|
|  H         Q     E  E    +E  E  E E  E  E        E  E
|-----------------------|-------------------------------|
|-----------------------|-------------------------------|
|-----------------------|-------------------------------|
|--3---------3-----3--5-|--(5)-5--5-5--5--5--------5--5-|
|--3---------3-----3--5-|--(5)-5--5-5--5--5--------5--5-|
|--1---------1-----1--3-|--(3)-3--3-3--3--3--------3--3-|
|
|                                         |--3--|
|  Q.     E  E  E  E  E    +Q     Q    E  S  S  S  E  E
|-----------------------|-------------------------------|
|-10--------10----10-12-|-(12)---12---13-13p12h13-------|
|--------12----12-------|-------------------------14-12-|
|-----------------------|-------------------------------|
|-----------------------|-------------------------------|
|-----------------------|-------------------------------|


    A5                     A5                E5
     Q.    E  Q     E  E    +E  E Q     Q     Q
||-----------------------|-------------------------|
||o----------------------|-------------------------|
||---2-----2--2-----2--2-|--(2)-2-2-----5-----4----|
||---x-----x--x-----x--x-|--(x)-x-x-----x-----x----|
||o--0-----0--0-----0--0-|--(0)-0-0-----3-----2----|
||-----------------------|-------------------------|
|
|    Q.    E  Q     E  E    +E  E H           Q
||-----------------------|-------------------------|
||o----------------------|-------------------------|
||---2-----2--2-----2--2-|--(2)-2-2----------------|
||---2-----2--2-----2--2-|--(2)-2-2-----------2----|
||o--0-----0--0-----0--0-|--(0)-0-0-----------2----|
||-----------------------|--------------------0----|
|
|    Q.    E  E  E  E  E    +Q.      E  E  E  E  E
||-----------------------|-------------------------|
||o-10-------10----10-10-|-(10)--------10----10----|
||--------12----12-------|----------12----12----12-|
||-----------------------|-------------------------|
||o----------------------|-------------------------|
||-----------------------|-------------------------|


  F5                 G5   G5
   Q   E  E  E  E  E  E    +E  E  Q    Q           Q
|-----------------------|---------------------------------||
|-----------------------|--------------------------------o||
|--5---5--5--5--5--5-/7-|--(7)-7-\4----5-----------4------||
|--x---x--x--x--x--x--x-|--(x)-x--x----x-----------x------||
|--3---3--3--3--3--3-/5-|--(5)-5-\2----3-----------2-----o||
|-----------------------|---------------------------------||
|
|  H         Q     E  E    +E  E  E E  E  E        E  E
|-----------------------|---------------------------------||
|-----------------------|--------------------------------o||
|-----------------------|---------------------------------||
|--3---------3-----3--5-|--(5)-5--5-5--5--5--------5--5---||
|--3---------3-----3--5-|--(5)-5--5-5--5--5--------5--5--o||
|--1---------1-----1--3-|--(3)-3--3-3--3--3--------3--3---||
|
|                                         |--3--|
|  Q.     E  E  E  E  E    +Q     Q    E  S  S  S  E  E
|-----------------------|---------------------------------||
|-10--------10----10-12-|-(12)---12---13-13p12h13--------o||
|--------12----12-------|-------------------------14-12---||
|-----------------------|---------------------------------||
|-----------------------|--------------------------------o||
|-----------------------|---------------------------------||


    A5                                       E5
    Gtr IV
     Q.    E  Q     E  E    +E  E H           Q
     |     |  |     |  |     |  | |           |
     /     /  /     /  /     /  / /           /

     Q.    E  Q     E  E    +E  E Q     Q     Q
||-----------------------|-------------------------|
||o----------------------|-------------------------|
||---2-----2--2-----2--2-|--(2)-2-2-----5-----4----|
||---x-----x--x-----x--x-|--(x)-x-x-----x-----x----|
||o--0-----0--0-----0--0-|--(0)-0-0-----3-----2----|
||-----------------------|-------------------------|
|
|   Gtr V
|    Q.    E  E  E  E  E    +Q.      E  E  E  E  E
||-----------------------|-------------------------|
||o----------------------|-------------------------|
||-----------------------|-------------------------|
||---7-----5--7--5--7--7-|--(7)------5--7--5--7--5-|
||o----------------------|-------------------------|
||-----------------------|-------------------------|
|
|   Gtr VI
|    Q.    E  E  E  E  E    +Q.      E  E  E  E  E
||-----------------------|-------------------------|
||o-10-------10----10-10-|-(10)--------10----10----|
||--------12----12-------|----------12----12----12-|
||-----------------------|-------------------------|
||o----------------------|-------------------------|
||-----------------------|-------------------------|


  F5                 G5
   H         Q     E  E    +E  E  E E  E  E        E  E
   |         |     |  |     |  |  | |  |  |        |  |
   /         /     /  /     /  /  / /  /  /        /  /

   Q   E  E  E  E  E  E    +E  E  Q    Q           Q      3x
|-----------------------|---------------------------------||
|-----------------------|--------------------------------o||
|--5---5--5--5--5--5-/7-|--(7)-7-\4----5-----------4------||
|--x---x--x--x--x--x--x-|--(x)-x--x----x-----------x------||
|--3---3--3--3--3--3-/5-|--(5)-5-\2----3-----------2-----o||
|-----------------------|---------------------------------||
|
|                                         |--3--|
|  Q.     E  E  E  E  E    +Q     Q    E  S  S  S  E  E   3x
|-----------------------|---------------------------------||
|-----------------------|--------------------------------o||
|---------------------4-|--(4)----4----5--5p=4h=5---------||
|--7------5--7--5--7----|--------------------------7--5---||
|-----------------------|--------------------------------o||
|-----------------------|---------------------------------||
|
|                                         |--3--|
|  Q.     E  E  E  E  E    +Q     Q    E  S  S  S  E  E   3x
|-----------------------|---------------------------------||
|-10--------10----10-12-|-(12)---12---13-13p12h13--------o||
|--------12----12-------|-------------------------14-12---||
|-----------------------|---------------------------------||
|-----------------------|--------------------------------o||
|-----------------------|---------------------------------||


  A5                                         E5
   Q.     E  Q     E  E    +E  E  H           Q
   |      |  |     |  |     |  |  |           |
   /      /  /     /  /     /  /  /           /

   Q.     E  Q     E  E    +E  E  Q     Q     Q
|-----------------------|--------------------------|
|-----------------------|--------------------------|
|--2------2--2-----2--2-|--(2)-2--2-----5-----4----|
|--x------x--x-----x--x-|--(x)-x--x-----x-----x----|
|--0------0--0-----0--0-|--(0)-0--0-----3-----2----|
|-----------------------|--------------------------|
|
|  E  Q   E  E  E  E  E    +E  E  E  E  E  E  E  E
|-----------------------|--------------------------|
|--8h10---8-10--8--8s10-|-(10)-8-10p=8-10p=8-10p=8-|
|-----------------------|--------------------------|
|-----------------------|--------------------------|
|-----------------------|--------------------------|
|-----------------------|--------------------------|
|
|  Q.     E  E  E  E  E    +Q.       E  E  E  E  E
|-----------------------|--------------------------|
|-10--------10----10-10-|-(10)---------10----10----|
|--------12----12-------|-----------12----12----12-|
|-----------------------|--------------------------|
|-----------------------|--------------------------|
|-----------------------|--------------------------|


  F5                  G5
   H          Q     E  E    +E   E  E E  E  E        E  E
   |          |     |  |     |   |  | |  |  |        |  |
   /          /     /  /     /   /  / /  /  /        /  /

   Q    E  E  E  E  E  E    +E   E  Q    Q           Q
|------------------------|--------------------------------|
|------------------------|--------------------------------|
|--5----5--5--5--5--5-/7-|--(7)--7-\4----5-----------4----|
|--x----x--x--x--x--x--x-|--(x)--x--x----x-----------x----|
|--3----3--3--3--3--3-/5-|--(5)--5-\2----3-----------2----|
|------------------------|--------------------------------|
|
|                                           |--3--|
|  E  Q    E  E  E  E  E    +E   E  Q    E  S  S  S  E  E
|------------------------|--------------------------------|
|--8h10----8-10p=8-10-10-|-(10)-10-12---13-13p12h13-------|
|------------------------|--------------------------14-12-|
|------------------------|--------------------------------|
|------------------------|--------------------------------|
|------------------------|--------------------------------|
|
|                                           |--3--|
|  Q.      E  E  E  E  E    +Q      Q    E  S  S  S  E  E
|------------------------|--------------------------------|
|-10---------10----10-12-|-(12)----12---13-13p12h13-------|
|---------12----12-------|--------------------------14-12-|
|------------------------|--------------------------------|
|------------------------|--------------------------------|
|------------------------|--------------------------------|


  A5                                                            E5
   Q.        E     Q     E     E    +E   E     H                 Q
   |         |     |     |     |     |   |     |                 |
   /         /     /     /     /     /   /     /                 /

   Q.        E     Q     E     E    +E   E     Q        Q        Q
|--------------------------------|---------------------------------------|
|--------------------------------|---------------------------------------|
|--2---------2-----2-----2-----2-|--(2)--2-----2--------5--------4-------|
|--x---------x-----x-----x-----x-|--(x)--x-----x--------x--------x-------|
|--0---------0-----0-----0-----0-|--(0)--0-----0--------3--------2-------|
|--------------------------------|---------------------------------------|
|
|  E     Q   E     Q     E     E    +E   E     E  E     E  E     E  E
|-------15--------15----------15-|-(15)-------15-------15-------15-------|
|--------------------------------|---------------------------------------|
|-15b17-----15b17-------15b17----|------15b17----15b17----15b17----15b17-|
|--------------------------------|---------------------------------------|
|--------------------------------|---------------------------------------|
|--------------------------------|---------------------------------------|
|
|  Q.        E     E  E  E     E    +Q.           E     E  E     E  E
|--------------------------------|---------------------------------------|
|-10--------------10----10----10-|-(10)----------------10-------10-------|
|-----------12-------12----------|---------------12-------12-------12----|
|--------------------------------|---------------------------------------|
|--------------------------------|---------------------------------------|
|--------------------------------|---------------------------------------|


  F5                  G5
   H          Q     E  E    +E   E  E E  E  E        E  E
   |          |     |  |     |   |  | |  |  |        |  |
   /          /     /  /     /   /  / /  /  /        /  /

   Q    E  E  E  E  E  E    +E   E  Q    Q           Q
|------------------------|--------------------------------*|
|------------------------|--------------------------------*|
|--5----5--5--5--5--5-/7-|--(7)--7-\4----5-----------4----*|
|--x----x--x--x--x--x--x-|--(x)--x--x----x-----------x----*|
|--3----3--3--3--3--3-/5-|--(5)--5-\2----3-----------2----*|
|------------------------|--------------------------------*|
|
|                                           |--3--|
|  E  Q    E  E  E  E  E    +E   E  Q    E  S  S  S  E  E
|------------------------|--------------------------------*|
|------------------------|---------12---13-13p12h13-------*|
|-12h14---12-14p12-14-14-|-(14)-14------------------14-12-*|
|------------------------|--------------------------------*|
|------------------------|--------------------------------*|
|------------------------|--------------------------------*|
|
|                                           |--3--|
|  Q.      E  E  E  E  E    +Q      Q    E  S  S  S  E  E
|------------------------|--------------------------------*|
|-10---------10----10-12-|-(12)----12---13-13p12h13-------*|
|---------12----12-------|--------------------------14-12-*|
|------------------------|--------------------------------*|
|------------------------|--------------------------------*|
|------------------------|--------------------------------*|




--------------------------------------------------------------------------------


Duration Legend
---------------
W - whole; H - half; Q - quarter; E - 8th; S - 16th; T - 32nd; X - 64th; a - acciaccatura
+ - note tied to previous; . - note dotted; .. - note double dotted
Uncapitalized letters represent notes that are staccato (1/2 duration)
Irregular groupings are notated above the duration line
Duration letters will always appear directly above the note/fret number it represents the
duration for.  Duration letters with no fret number below them represent rests.  Multi-
bar rests are notated in the form Wxn, where n is the number of bars to rest for.  Low
melody durations appear below the staff

Tablature Legend
----------------
 h   - hammer-on
 p   - pull-off
 b   - bend
 pb  - pre-bend
 r   - bend release (if no number after the r, then release immediately)
 /\  - slide into or out of (from/to "nowhere")
 s   - legato slide
 S   - shift slide
 - natural harmonic
[n]  - artificial harmonic
n(n) - tapped harmonic
 ~   - vibrato
 tr  - trill
 T   - tap
 TP  - trem. picking
 PM  - palm muting
\n/  - tremolo bar dip; n = amount to dip
 \n  - tremolo bar down
 n/  - tremolo bar up
/n\  - tremolo bar inverted dip
 =   - hold bend; also acts as connecting device for hammers/pulls
 <> - volume swell (louder/softer)
 x   - on rhythm slash represents muted slash
 o   - on rhythm slash represents single note slash

Misc Legend
-----------
 |  - bar
||  - double bar
||o - repeat start
o|| - repeat end
*|  - double bar (ending)
 :  - bar (freetime)
 $  - Segno
 &  - Coda
Tempo markers -  = BPM(8/16=s8/s16), where s8 = swing 8ths, s16 = swing 16ths

comments
We did not receive enough feedback on this tab! Please rate:
print report bad tab
1 2 3 4 5
I want to post or [tab]
guest
You may want to rate the tab now too:
select rating
Please do not post tabs as comments. Select "correction" instead!