Oops, an error
Loading. Please wait.

I Of Crimson Blood Tab

ver1
ver1

Whole song

Interactive

More versions @911Tabs.com
1,756 views 3 this week
no commentswrite comment
1 2 3 4 5
excellent!
x 1
Autoscroll
+/-
esc
set tempo
stop
Contributor
WARNING: You are trying to view
                                    content from Ultimate-Guitar.com
                                    in an unauthorized application,
                                    which is prohibited.

                                    Please use an official Ultimate
                                    Guitar Tabs application for iPhone,
                                    iPad or Android to access legitimate
                                    chords, guitar, bass, and drum tabs
                                    from Ultimate-Guitar.com database.

                                    Type "ultimate guitar tabs" in Apple
                                    App Store's or Android Market's
                                    search to find the application.
#----------------------------------PLEASE NOTE---------------------------------#
#This file is the author's own work and represents their interpretation of the #
#song. You may only use this file for private study, scholarship, or research. #
#------------------------------------------------------------------------------#




Transcribed by hauntedinflames



 

 

Gtr I (C G C F A D) - 'Untitled'
Gtr II (D G C F A D) - 'Untitled'
Gtr III (D G C F A D) - 'Untitled'
Gtr IV (D G C F A D) - 'Untitled'
Gtr V (D G C F A D) - 'Untitled'


  Q=90
 6/8
  Gtr I
  E.  E.  E.  E.      E.  E.  E  E   E
|------------------|---------------------|
|----12--10--12----|-----12--------------|
|-9----------------|-12------11--9-------|
|------------------|----------------12---|
|------------------|---------------------|
|-2--(2)-(2)-(2)---|-(2)-(2)--0-(0)-(0)--|
|
| Gtr II
| H.                  H.
|------------------|---------------------|
|------------------|---------------------|
|------------------|---------------------|
|------------------|---------------------|
|------------------|---------------------|
|------------------|---------------------|


  E.  E.  E.  E.      E.  E.  E  E   E
|------------------|---------------------|
|----12--10--12----|-----12--------------|
|-9----------------|-12------11--9-------|
|------------------|----------------12---|
|------------------|---------------------|
|-2--(2)-(2)-(2)---|-(2)-(2)--0-(0)-(0)--|
|
| H.                  Q.      E  E   E
|------------------|---------------------|
|------------------|---------------------|
|------------------|---------11-12--14---|
|------------------|---------------------|
|------------------|---------------------|
|------------------|---------------------|


   E.  E.  E.  E.    E.  E.  E  E   E
|-----------------|--------------------|
|-----12--10--12--|-----12-------------|
|--9--------------|-12------11--9------|
|-----------------|----------------12--|
|-----------------|--------------------|
|--2--(2)-(2)-(2)-|-(2)-(2)--0-(0)-(0)-|
|
|  Q.      E.  E.    E.  E.  E  E   E
|-----------------|--------------------|
|---------10--12--|-----12-------------|
|-/9--------------|-12------11--9------|
|-----------------|----------------12--|
|-----------------|--------------------|
|-----------------|--------------------|


  E.  E.  E.  E.    E.  E.  E        E   E
|----------------|--------------------------|
|----12--10--12--|-----12-------------------|
|-9--------------|-12------11--------9------|
|----------------|----------------------12--|
|----------------|--------------------------|
|-2--(2)-(2)-(2)-|-(2)-(2)--0-------(0)-(0)-|
|
|                           |--3--|
| E.  E.  E.  E.    E.  E.  S  S  S  E   E
|----------------|--------------------------|
|----12--10--12--|-----12-------------------|
|-9--------------|-12------11-12-11--9------|
|----------------|----------------------12--|
|----------------|--------------------------|
|----------------|--------------------------|


     S  S  S  S  S  S  E.    E.        S  S  S  S  S  S  S  S  S  S  S  S
||-----17----------15---------------|----15-------------------------------|
||o-17----17-15-13------------------|-15----15-13-12-13----12-------------|
||--------------------16----14------|-------------------14----12-14-12----|
||----------------------------------|----------------------------------12-|
||o---------------------------------|-------------------------------------|
||----------------------------------|-------------------------------------|
|
|    S  S  S  S  S  S  E.    E.        S  S  S  S  S  S  S  S  S  S  S  S
||----------------------------------|-------------------------------------|
||o----10-----------8---------------|-----8-------------------------------|
||---9-----9--7---------------------|--7-----7----------------------------|
||--------------10-----9-----7------|----------10--9-10--7--9--5--7--5----|
||o---------------------------------|-----------------------------------5-|
||----------------------------------|-------------------------------------|
|
|   Gtr III
|    E     S  S  S  S  E  S  S  S S    E     S  S  S  S  E     S  S  S  S
||---0-----0--0--0--0--0--0--0--0-0-|--3-----3--3--3--3--3-----3--3--3--3-|
||o--1-----1--1--1--1--1--1--1--1-1-|--3-----3--3--3--3--3-----3--3--3--3-|
||---2-----2--2--2--2--2--2--2--2-2-|--0-----0--0--0--0--0-----0--0--0--0-|
||---2-----2--2--2--2--2--2--2--2-2-|--0-----0--0--0--0--0-----0--0--0--0-|
||o--0-----0--0--0--0--0--0--0--0-0-|--2-----2--2--2--2--2-----2--2--2--2-|
||----------------------------------|--3-----3--3--3--3--3-----3--3--3--3-|


   S  S  S  S  S  S  E.    E.        S  S  S  S  S  S  S  S  S  S  S  S
|----17----------15---------------|----15--------------------------------||
|-17----17-15-13------------------|-15----15-13-12-13----12-------------o||
|-------------------16----14------|-------------------14----12-14-12-----||
|---------------------------------|----------------------------------12--||
|---------------------------------|-------------------------------------o||
|---------------------------------|--------------------------------------||
|
|  S  S  S  S  S  S  E.    E.        S  S  S  S  S  S  S  S  S  S  S  S
|---------------------------------|--------------------------------------||
|----10-----------8---------------|-----8-------------------------------o||
|--9-----9--7---------------------|--7-----7-----------------------------||
|-------------10-----9-----7------|----------10--9-10--7--9--5--7--5-----||
|---------------------------------|-----------------------------------5-o||
|---------------------------------|--------------------------------------||
|
|  E     S  S  S  S  E  S  S  S S    E     S  S  S  S  E     S  S  S  S
|--0-----0--0--0--0--0--0--0--0-0-|--3-----3--3--3--3--3-----3--3--3--3--||
|--1-----1--1--1--1--1--1--1--1-1-|--3-----3--3--3--3--3-----3--3--3--3-o||
|--2-----2--2--2--2--2--2--2--2-2-|--0-----0--0--0--0--0-----0--0--0--0--||
|--2-----2--2--2--2--2--2--2--2-2-|--0-----0--0--0--0--0-----0--0--0--0--||
|--0-----0--0--0--0--0--0--0--0-0-|--2-----2--2--2--2--2-----2--2--2--2-o||
|---------------------------------|--3-----3--3--3--3--3-----3--3--3--3--||


  E.  E.    E.  E.      E.  E.    E   E    E
|----12----10--12----|-----10------------------|
|--------------------|-12--------10------------|
|-9------------------|---------------12---11---|
|--------------------|-------------------------|
|--------------------|-------------------------|
|--------------------|-------------------------|
|
| E.  E.    E.  E.      E.  E.    E   E    E
|--------------------|-------------------------|
|----12----10--12----|-----10------------------|
|-9------------------|-12--------11---9--------|
|--------------------|--------------------12---|
|--------------------|-------------------------|
|--------------------|-------------------------|
|
| E.  E  S  E.  E  S    E.  E  S  E.    E    S
|-----0--0------0--0-|------0--0--------0----0-|
|-----0--0------0--0-|------0--0--------0----0-|
|-----0--0------0--0-|------0--0--------2----2-|
|--------------------|------------2------------|
|-2---------2--------|--2---------0------------|
|-0---------0--------|--0----------------------|


   E.    E.    E.    E.      E.     E.        E     E     E
|-------12----10----12----|--------10--------------------------|
|-------------------------|-12---------------10----------------|
|--9----------------------|------------------------12----11----|
|-------------------------|------------------------------------|
|-------------------------|------------------------------------|
|-------------------------|------------------------------------|
|
|  E.    E.    E.    E.      E   S  S   S  S  S  S  S  S  S  S
|-------------------------|---------------10----10-------------|
|-------12----10----12----|--------10--12----12----10-12-------|
|-/9----------------------|-12--12-----------------------12----|
|-------------------------|---------------------------------12-|
|-------------------------|------------------------------------|
|-------------------------|------------------------------------|
|
|  E  S  E  S  E  S  E  S    E   S  E      S  E     S  E     S
|--------0--0--------0--0-|---------0------0-----------0-----0-|
|--------0--0--------0--0-|---------0------0-----------0-----0-|
|--------0--0--------0--0-|---------0------0-----------2-----2-|
|-----2-----------2-------|------2------------2-----2----------|
|--2--2--------2--2-------|--2---2------------0-----0----------|
|--0--0--------0--0-------|--0---0-----------------------------|


   E.    E.    E.    E.      E.    E.    E       E    E
|-------------------------|-------------------------------|
|-------12----10----12----|-------12----------------------|
|--9----------------------|-12----------11-------9--------|
|-------------------------|--------------------------12---|
|-------------------------|-------------------------------|
|-------------------------|-------------------------------|
|
|                                        |--3--|
|  E.    E.    E.    E.      E.    E.    S  S  S E    E
|-------------------------|-------------------------------|
|-------12----10----12----|-------12----------------------|
|-/9----------------------|-12----------11-12-11-9--------|
|-------------------------|--------------------------12---|
|-------------------------|-------------------------------|
|-------------------------|-------------------------------|
|
|  E  S  E  S  E  S  E  S    E  S  E  S  E       S E    S
|--------0--0--------0--0-|--------0--0------------0----0-|
|--------0--0--------0--0-|--------0--0------------3----3-|
|--------0--0--------0--0-|--------0--0------------2----2-|
|-----2-----------2-------|-----2--------0-------0--------|
|--2--2--------2--2-------|--2--2--------0-------0--------|
|--0--0--------0--0-------|--0--0-------------------------|


                                                3/8
  E.    E.    E.    E.      E.    E.    E E  E    +Q.
|------------------------|---------------------|---------||
|------12----10----12----|-------12------------|---------||
|-9----------------------|-12----------11-9----|---------||
|------------------------|------------------12-|-(12)----||
|------------------------|---------------------|---------||
|------------------------|---------------------|---------||
|
| E.    E.    E.    E.      E.    E.    E E  E    +Q.
|------------------------|---------------------|---------||
|------12----10----12----|-------12------------|---------||
|-9----------------------|-12----------11-9----|---------||
|------------------------|------------------12-|-(12)----||
|------------------------|---------------------|---------||
|------------------------|---------------------|---------||
|
| E  S  E  S  E  S  E  S    E  S  E  S  E E  E    +Q.
|-------0--0--------0--0-|--------0--0----0--0-|--(0)----||
|-------1--1--------1--1-|--------1--1----3--3-|--(3)----||
|-------0--0--------0--0-|--------0--0----2--2-|--(2)----||
|-2--2--------2--2-------|--2--2--------0-0--0-|--(0)----||
|-3--3--------3--3-------|--3--3--------0------|---------||
|------------------------|---------------------|---------||


   6/8
    Gtr V
    E.  E.    E.  E.      E.  E.    E E  E
||---------------------|-------------------|
||o----12----10--12----|-----12------------|
||--9------------------|-12--------11-9----|
||---------------------|----------------12-|
||o--------------------|-------------------|
||---------------------|-------------------|
|
|   Gtr IV
|   E.  E  S  E.  E  S    E.  E  S  E E  E
||------0--0------0--0-|------0--0---------|
||o-----0--0------0--0-|------0--0---------|
||--0---0--0--0---0--0-|--0---0--0--2-2--2-|
||--2---2--2--2---2--2-|--2---2--2--2-2--2-|
||o-2---2--2--2---2--2-|--2---2--2--0-0--0-|
||--0---0--0--0---0--0-|--0---0--0---------|


  E.  E.    E.  E.      E.  E.    E E  E
|--------------------|-------------------|
|----12----10--12----|-----12------------|
|-9------------------|-12--------11-9----|
|--------------------|----------------12-|
|--------------------|-------------------|
|--------------------|-------------------|
|
| E.  E  S  E.  E  S    E.  E  S  E E  E
|-----0--0------0--0-|------0--0---------|
|-----0--0------0--0-|------0--0---------|
|-0---0--0--0---0--0-|--0---0--0--2-2--2-|
|-2---2--2--2---2--2-|--2---2--2--2-2--2-|
|-2---2--2--2---2--2-|--2---2--2--0-0--0-|
|-0---0--0--0---0--0-|--0---0--0---------|


  E.  E.    E.  E.      E.  E.    E E  E   E.  E.    E.  E.
|--------------------|-------------------|--------------------|
|----12----10--12----|-----12------------|----12----10--12----|
|-9------------------|-12--------11-9----|-9------------------|
|--------------------|----------------12-|--------------------|
|--------------------|-------------------|--------------------|
|--------------------|-------------------|--------------------|
|
| E.  E  S  E.  E  S    E.  E  S  E E  E   E.  E  S  E.  E  S
|-----0--0------0--0-|------0--0---------|--------------------|
|-----0--0------0--0-|------0--0---------|--------------------|
|-0---0--0--0---0--0-|--0---0--0--7-7--7-|-5---5--5--5---5--5-|
|-2---2--2--2---2--2-|--2---2--2--7-7--7-|-5---5--5--5---5--5-|
|-2---2--2--2---2--2-|--2---2--2--5-5--5-|-3---3--3--3---3--3-|
|-0---0--0--0---0--0-|--0---0--0---------|--------------------|


 1.                    2.
   E.  E.    E E  E      E.  E.    E E  E
|--------------------||--------------------||
|-----12------------o||-----12-------------||
|-12--------11-9-----||-12--------11-9-----||
|----------------12--||----------------12--||
|-------------------o||--------------------||
|--------------------||--------------------||
|
|  E.  E  S  E E  E      E.  E  S  E E  E
|--------------------||--------------------||
|-------------------o||--------------------||
|--5---5--5--4-4--4--||--5---5--5--7-7--7--||
|--5---5--5--4-4--4--||--5---5--5--7-7--7--||
|--3---3--3--2-2--2-o||--3---3--3--5-5--5--||
|--------------------||--------------------||


  >
  H.                 +H.
|------------------|---------------------|
|------------------|---------------------|
|-9----------------|-(9)-----------------|
|------------------|---------------------|
|------------------|---------------------|
|------------------|---------------------|
|
| PM---------|        PM-------|
| E  S E S E E S S    E  S E S E S S S S
|------------------|---------------------|
|------------------|---------------------|
|------------------|-------------------0-|
|------------------|---------------------|
|--------------5-7-|-------------5-7-5---|
|-0--0-0-0-0-0-----|--0--0-0-0-0---------|


   Q.       +E.   S E      H.
|-----------------------|----------------------|
|-(8)-------(8)---6s8---|-10-------------------|
|--0--------(0)---------|----------------------|
|-----------------------|----------------------|
|-----------------------|----------------------|
|-----------------------|----------------------|
|
|  PM-----------|          PM-------|
|  E  S E S  E  E   S S    E  S E S E S S E
|-----------------------|----------------------|
|-----------------------|----------------------|
|-----------------------|----------------------|
|-----------------------|----------------------|
|-------------------5-7-|-------7---7-5-7-5\---|
|--0--0-0-0--0--0-------|--0--0---0------------|


  >
  H.                 +H.
|------------------|---------------------|
|------------------|---------------------|
|-9----------------|-(9)-----------------|
|------------------|---------------------|
|------------------|---------------------|
|------------------|---------------------|
|
| PM---------|        PM-------|
| E  S E S E E S S    E  S E S E S S S S
|------------------|---------------------|
|------------------|---------------------|
|------------------|-------------------0-|
|------------------|---------------------|
|--------------5-7-|-------------5-7-5---|
|-0--0-0-0-0-0-----|--0--0-0-0-0---------|


   >
   H.                 +H.
|-^0----------------|-(0)----------------|
|-^8----------------|-(8)----------------|
|-^9----------------|-(9)----------------|
|-------------------|--------------------|
|-------------------|--------------------|
|-------------------|--------------------|
|
|  PM---------|        PM-------|
|  E  S E S E E S S    E  S E S E S S E
|-------------------|--------------------|
|-------------------|--------------------|
|-------------------|--------------------|
|-------------------|--------------------|
|---------------5-7-|-------7---7-5-7-5\-|
|--0--0-0-0-0-0-----|--0--0---0----------|


    Gtr I
     S   S  S  S  S  S  E.  E.      S   S  S  S  S  S  S   S  S  S  S  S
||------17----------15-----------|-----15--------------------------------|
||o-17-----17-15-13--------------|-15-----15-13-12-13-----12-------------|
||---------------------16--14----|--------------------14-----12-14-12----|
||-------------------------------|------------------------------------12-|
||o------------------------------|---------------------------------------|
||-------------------------------|---------------------------------------|
|
|   Gtr V
|                       ~~~~~~~
|    S   S  S  S  S  S  E.  E.      S   S  S  S  S  S  S   S  S  S  S  S
||-------------------------------|---------------------------------------|
||o-----10-----------8-----------|------8--------------------------------|
||---9------9--7-----------------|--7------7-----------------------------|
||---------------10-----9---7----|-----------10--9-10--7---9--5--7--5----|
||o------------------------------|-------------------------------------5-|
||-------------------------------|---------------------------------------|
|
|   Gtr IV
|    E.        E     S  E.  E  S    E.        E     S  E.        E     S
||-------------------------------|---------------------------------------|
||o------------------------------|---------------------------------------|
||-------------------------------|---------------------------------------|
||---7---------7-----7--7---7--7-|--5---------5-----5--5---------5-----5-|
||o--7---------7-----7--7---7--7-|--5---------5-----5--5---------5-----5-|
||---5---------5-----5--5---5--5-|--3---------3-----3--3---------3-----3-|


   S   S  S  S  S  S  E.  E.      S   S  S  S  S  S  S   S  S  S  S  S
|-----17----------15-----------|-----15----------------------------------||
|-17-----17-15-13--------------|-15-----15-13-12-13-----12--------------o||
|--------------------16--14----|--------------------14-----12-14-12------||
|------------------------------|------------------------------------12---||
|------------------------------|----------------------------------------o||
|------------------------------|-----------------------------------------||
|
|                     ~~~~~~~
|  S   S  S  S  S  S  E.  E.      S   S  S  S  S  S  S   S  S  S  S  S
|------------------------------|-----------------------------------------||
|-----10-----------8-----------|------8---------------------------------o||
|--9------9--7-----------------|--7------7-------------------------------||
|--------------10-----9---7----|-----------10--9-10--7---9--5--7--5------||
|------------------------------|-------------------------------------5--o||
|------------------------------|-----------------------------------------||
|
|  E.        E     S  E.  E  S    E.        E     S  E.        E     S
|------------------------------|-----------------------------------------||
|------------------------------|----------------------------------------o||
|------------------------------|-----------------------------------------||
|--7---------7-----7--7---7--7-|--5---------5-----5--5---------5-----5---||
|--7---------7-----7--7---7--7-|--5---------5-----5--5---------5-----5--o||
|--5---------5-----5--5---5--5-|--3---------3-----3--3---------3-----3---||


  Gtr V
  >
  H.                 +H.
|------------------|---------------------|
|------------------|---------------------|
|-9----------------|-(9)-----------------|
|------------------|---------------------|
|------------------|---------------------|
|------------------|---------------------|
|
| Gtr IV
| PM---------|        PM-------|
| E  S E S E E S S    E  S E S E S S S S
|------------------|---------------------|
|------------------|---------------------|
|------------------|-------------------0-|
|------------------|---------------------|
|--------------5-7-|-------------5-7-5---|
|-0--0-0-0-0-0-----|--0--0-0-0-0---------|


   >
   H.                 +H.
|-------------------|--------------------|
|-(8)---------------|-(8)----------------|
|--0----------------|-(0)----------------|
|-------------------|--------------------|
|-------------------|--------------------|
|-------------------|--------------------|
|
|  PM---------|        PM-------|
|  E  S E S E E S S    E  S E S E S S E
|-------------------|--------------------|
|-------------------|--------------------|
|-------------------|--------------------|
|-------------------|--------------------|
|---------------5-7-|-------7---7-5-7-5\-|
|--0--0-0-0-0-0-----|--0--0---0----------|


  >
  H.                 +H.
|------------------|---------------------|
|------------------|---------------------|
|-9----------------|-(9)-----------------|
|------------------|---------------------|
|------------------|---------------------|
|------------------|---------------------|
|
| PM---------|        PM-------|
| E  S E S E E S S    E  S E S E S S S S
|------------------|---------------------|
|------------------|---------------------|
|------------------|-------------------0-|
|------------------|---------------------|
|--------------5-7-|-------------5-7-5---|
|-0--0-0-0-0-0-----|--0--0-0-0-0---------|


  >
  H.                 +H.
|------------------|--------------------|
|------------------|--------------------|
|------------------|--------------------|
|-5----------------|-(5)----------------|
|------------------|--------------------|
|------------------|--------------------|
|
| PM---------|        PM-------|
| E  S E S E E S S    E  S E S E S S E
|------------------|--------------------|
|------------------|--------------------|
|------------------|--------------------|
|------------------|--------------------|
|--------------5-7-|-------7---7-5-7-5\-|
|-0--0-0-0-0-0-----|--0--0---0----------|


  E.   E   S S E   S E     E.   E   S  e e   e
|------------------------|-----------------------|
|------8-----8-------7---|------8-----10-8-------|
|----------9-------9-----|----------9--------7---|
|------------------------|-----------------------|
|------------------------|-----------------------|
|------------------------|-----------------------|
|
| PM-------------|         PM---------|
| E  S E   S E   E   S S   E  S E   S  E S S S S
|------------------------|-----------------------|
|------------------------|-----------------------|
|------------------------|---------------------0-|
|------------------------|-----------------------|
|--------------------5-7-|---------------5-7-5---|
|-0--0-0---0-0---0-------|-0--0-0---0--0---------|
|
| Gtr III
| E  S S S S E   S S S S   E  S S S S  E S S S S
|-0--0-0-0-0-0---0-0-0-0-|-0--0-0-0-0--3-3-3-3-3-|
|-0--0-0-0-0-0---0-0-0-0-|-0--0-0-0-0--3-3-3-3-3-|
|-0--0-0-0-0-0---0-0-0-0-|-0--0-0-0-0--0-0-0-0-0-|
|-2--2-2-2-2-2---2-2-2-2-|-2--2-2-2-2--0-0-0-0-0-|
|-2--2-2-2-2-2---2-2-2-2-|-2--2-2-2-2--2-2-2-2-2-|
|-0--0-0-0-0-0---0-0-0-0-|-0--0-0-0-0--3-3-3-3-3-|


  E.   E   S S E   S E     E.   E   S S  S e   e
|------------------------|---------------------------|
|------8-----8-------7---|------8-----8-10-8---------|
|----------9-------9-----|----------9----------7-----|
|------------------------|---------------------------|
|------------------------|---------------------------|
|------------------------|---------------------------|
|
| PM-------------|         PM---------|
| E  S E   S E   E   S S   E  S E   S E    S S E
|------------------------|---------------------------|
|------------------------|---------------------------|
|------------------------|---------------------------|
|------------------------|---------------------------|
|--------------------5-7-|------7-----7----5-7-5\----|
|-0--0-0---0-0---0-------|-0--0-----0----------------|
|
| E  S S S S E   S S S S   E  S S S S E    S S S  S
|-0--0-0-0-0-0---0-0-0-0-|-0--0-0-0-0-3----3-3-3--3--|
|-0--0-0-0-0-0---0-0-0-0-|-0--0-0-0-0-3----3-3-3--3--|
|-0--0-0-0-0-0---0-0-0-0-|-0--0-0-0-0-0----0-0-0--0--|
|-2--2-2-2-2-2---2-2-2-2-|-2--2-2-2-2-0----0-0-0--0--|
|-2--2-2-2-2-2---2-2-2-2-|-2--2-2-2-2-2----2-2-2--2--|
|-0--0-0-0-0-0---0-0-0-0-|-0--0-0-0-0-3----3-3-3--3--|


  E.   E   S S E   S E     E.   E   S  e  e    S  S
|------------------------|---------------10---12-10-|
|------8-----8-------7---|------8-----10------------|
|----------9-------9-----|----------9---------------|
|------------------------|--------------------------|
|------------------------|--------------------------|
|------------------------|--------------------------|
|
| PM-------------|         PM---------|
| E  S E   S E   E   S S   E  S E   S  E  S S  S  S
|------------------------|--------------------------|
|------------------------|--------------------------|
|------------------------|------------------------0-|
|------------------------|--------------------------|
|--------------------5-7-|----------------5-7--5----|
|-0--0-0---0-0---0-------|-0--0-0---0--0------------|
|
| E  S S S S E   S S S S   E  S S S S  E  S S  S  S
|-0--0-0-0-0-0---0-0-0-0-|-0--0-0-0-0--3--3-3--3--3-|
|-0--0-0-0-0-0---0-0-0-0-|-0--0-0-0-0--3--3-3--3--3-|
|-0--0-0-0-0-0---0-0-0-0-|-0--0-0-0-0--0--0-0--0--0-|
|-2--2-2-2-2-2---2-2-2-2-|-2--2-2-2-2--0--0-0--0--0-|
|-2--2-2-2-2-2---2-2-2-2-|-2--2-2-2-2--2--2-2--2--2-|
|-0--0-0-0-0-0---0-0-0-0-|-0--0-0-0-0--3--3-3--3--3-|


   e   S  S  S  S  S  S  S  S  S  S    S   S  S  S  S  S  S  S  S  S  S  S
|-19--17-19-15-17-14-15-14-15-17----|-----17----------15-------------------||
|--------------------------------15-|-17-----17-15-13----12-13-12-10-------||
|-----------------------------------|--------------------------------11----||
|-----------------------------------|-----------------------------------12-||
|-----------------------------------|--------------------------------------||
|-----------------------------------|--------------------------------------||
|
|  H.                                  H.
|-----------------------------------|--------------------------------------||
|-----------------------------------|--------------------------------------||
|--5--------------------------------|--7-----------------------------------||
|--5--------------------------------|--7-----------------------------------||
|--3--------------------------------|--5-----------------------------------||
|-----------------------------------|--------------------------------------||
|
|  E   S  S  S  S  E     S  S  S  S    E      S  S  S  S  E     S  S  S  S
|--0---0--0--0--0--0-----0--0--0--0-|--0------0--0--0--0--0-----0--0--0--0-||
|--1---1--1--1--1--1-----1--1--1--1-|--3------3--3--3--3--3-----3--3--3--3-||
|--0---0--0--0--0--0-----0--0--0--0-|--2------2--2--2--2--2-----2--2--2--2-||
|--2---2--2--2--2--2-----2--2--2--2-|--0------0--0--0--0--0-----0--0--0--0-||
|--3---3--3--3--3--3-----3--3--3--3-|--------------------------------------||
|-----------------------------------|--------------------------------------||


    E.  E.    E.  E.      E.  E.    E E  E
||---------------------|-------------------|
||o----12----10--12----|-----12------------|
||--9------------------|-12--------11-9----|
||---------------------|----------------12-|
||o--------------------|-------------------|
||---------------------|-------------------|
|
|   E.  E  S  E.  E  S    E.  E  S  E E  E
||------0--0------0--0-|------0--0---------|
||o-----0--0------0--0-|------0--0---------|
||--0---0--0--0---0--0-|--0---0--0--2-2--2-|
||--2---2--2--2---2--2-|--2---2--2--2-2--2-|
||o-2---2--2--2---2--2-|--2---2--2--0-0--0-|
||--0---0--0--0---0--0-|--0---0--0---------|


  E.  E.    E.  E.      E.  E.    E E  E
|--------------------|--------------------|
|----12----10--12----|-----12-------------|
|-9------------------|-12--------11-9-----|
|--------------------|----------------12--|
|--------------------|--------------------|
|--------------------|--------------------|
|
| E.  E  S  E.  E  S    E.  E  S  E E  E
|-----0--0------0--0-|------0--0----------|
|-----0--0------0--0-|------0--0----------|
|-0---0--0--0---0--0-|--0---0--0--2-2--2--|
|-2---2--2--2---2--2-|--2---2--2--2-2--2--|
|-2---2--2--2---2--2-|--2---2--2--0-0--0--|
|-0---0--0--0---0--0-|--0---0--0----------|


  E.  E.    E.  E.      E.  E.    E E  E   E.  E.    E.  E.
|--------------------|-------------------|--------------------|
|----12----10--12----|-----12------------|----12----10--12----|
|-9------------------|-12--------11-9----|-9------------------|
|--------------------|----------------12-|--------------------|
|--------------------|-------------------|--------------------|
|--------------------|-------------------|--------------------|
|
| E.  E  S  E.  E  S    E.  E  S  E E  E   E.  E  S  E.  E  S
|-----0--0------0--0-|------0--0---------|--------------------|
|-----0--0------0--0-|------0--0---------|--------------------|
|-0---0--0--0---0--0-|--0---0--0--7-7--7-|-5---5--5--5---5--5-|
|-2---2--2--2---2--2-|--2---2--2--7-7--7-|-5---5--5--5---5--5-|
|-2---2--2--2---2--2-|--2---2--2--5-5--5-|-3---3--3--3---3--3-|
|-0---0--0--0---0--0-|--0---0--0---------|--------------------|


 1.                    2.
   E.  E.    E E  E      E.  E.    E E  E
|--------------------||--------------------||
|-----12------------o||-----12-------------||
|-12--------11-9-----||-12--------11-9-----||
|----------------12--||----------------12--||
|-------------------o||--------------------||
|--------------------||--------------------||
|
|  E.  E  S  E E  E      E.  E  S  E E  E
|--------------------||--------------------||
|-------------------o||--------------------||
|--5---5--5--4-4--4--||--5---5--5--7-7--7--||
|--5---5--5--4-4--4--||--5---5--5--7-7--7--||
|--3---3--3--2-2--2-o||--3---3--3--5-5--5--||
|--------------------||--------------------||


   S  T  T  S  S  S  S  Q.            S  S S  S S  S  Q.
|----------------------------------|-12--------------------------|
|-12-13-12----12-------------------|----15---12---13-------------|
|----------14----14-12-14----------|-----------------14----------|
|----------------------------------|-----------------------------|
|----------------------------------|-----------------------------|
|----------------------------------|-----------------------------|
|
|  E        S  S  S  S  E  S S S S    E    S  S S  S  E  S S S S
|----------------------------------|-----------------------------|
|----------------------------------|-----------------------------|
|--2--------2--2--2--2--2--2-2-2-2-|-----------------------------|
|--2--------2--2--2--2--2--2-2-2-2-|--5----5--5-5--5--5--5-5-5-5-|
|--0--------0--0--0--0--0--0-0-0-0-|--5----5--5-5--5--5--5-5-5-5-|
|----------------------------------|--3----3--3-3--3--3--3-3-3-3-|


   S  T  T  S  S  S  S  E  S  E    S    S  T  T  S  S  S  S  E   E.       S
|------------------------------------|--------------------------------------|
|-12-13-12----12---------------------|--------------------------------------|
|----------14----14-12---------------|--------------------------------------|
|----------------------12------------|----------------------------------/12-|
|-------------------------15-14---15-|-14-15-14----14-------12-/12----------|
|------------------------------------|----------15----12-15-----------------|
|
|  E        S  S  S  S  E  S  S S  S    E        S  S  S  S  E   S  S S   S
|------------------------------------|--------------------------------------|
|------------------------------------|--------------------------------------|
|--2--------2--2--2--2--2--2--2-2--2-|--------------------------------------|
|--2--------2--2--2--2--2--2--2-2--2-|--5--------5--5--5--5--5---5--5-5---5-|
|--0--------0--0--0--0--0--0--0-0--0-|--5--------5--5--5--5--5---5--5-5---5-|
|------------------------------------|--3--------3--3--3--3--3---3--3-3---3-|


   S  E    S  E    E  S  T  T  S  S    S  S  S S  S  S S  T T  S S  S S
|-----------------------------------|-----------------------------------|
|----------0---------12-13-12-12-13-|-12--------------------------------|
|----12---12-12---14----------------|----12-----------------------------|
|-14--------------------------------|-------12-9-10-12-9-10-9----9------|
|-----------------------------------|-------------------------12---10-7-|
|-----------------------------------|-----------------------------------|
|
|  E    S  S  S S  E  S  S     S  S    E     S S  S  S E       S S  S S
|-----------------------------------|-----------------------------------|
|-----------------------------------|-----------------------------------|
|--2----2--2--2-2--2--2--2-----2--2-|-----------------------------------|
|--2----2--2--2-2--2--2--2-----2--2-|--5-----5-5--5--5-5-------5-5--5-5-|
|--0----0--0--0-0--0--0--0-----0--0-|--5-----5-5--5--5-5-------5-5--5-5-|
|-----------------------------------|--3-----3-3--3--3-3-------3-3--3-3-|


   TP TP TP TP TP TP   TP TP TP TP TP TP
   E  E  E  E  E  E    E  E  E  E  E  E
|-------------------|-------------12-15--||
|-------------------|----12-13-15--------||
|----------------12-|-14-----------------||
|----------12-14----|--------------------||
|-12-14-15----------|--------------------||
|-------------------|--------------------||
|
|  E  E  E  E  E  E    E  E  E  E  E  E
|-------------------|--------------------||
|-------------------|--------------------||
|--2--2--2--2--2--2-|--------------------||
|--2--2--2--2--2--2-|--5--5--5--5--5--5--||
|--0--0--0--0--0--0-|--5--5--5--5--5--5--||
|-------------------|--3--3--3--3--3--3--||


   H.                     +Q.       Q.
|-17b19================|=(17)-----[19]r----------|
|----------------------|-------------------------|
|----------------------|-------------------------|
|----------------------|-------------------------|
|----------------------|-------------------------|
|----------------------|-------------------------|
|
|  >
|  H.                     +H.
|----------------------|-------------------------|
|----------------------|-------------------------|
|----------------------|-------------------------|
|--2-------------------|--(2)--------------------|
|--2-------------------|--(2)--------------------|
|--0-------------------|--(0)--------------------|
|
| Gtr I
|  E.     E.  E.  E.       E.  E.   E    E   E
|----------------------|-------------------------|
|--------12--10--12----|------12-----------------|
|--9-------------------|--12-------11----9-------|
|----------------------|--------------------12---|
|----------------------|-------------------------|
|--2-----(2)-(2)-(2)---|--(2)-(2)---0---(0)-(0)--|


   W                   W
|-------------------|---------------------|
|-------------------|---------------------|
|-------------------|---------------------|
|-------------------|---------------------|
|-------------------|---------------------|
|-------------------|---------------------|
|
| +H.                 +H.
|-------------------|---------------------|
|-------------------|---------------------|
|-------------------|---------------------|
|-(2)---------------|-(2)-----------------|
|-(2)---------------|-(2)-----------------|
|-(0)---------------|-(0)-----------------|
|
|  E.  E.  E.  E.      E.  E.  E  E   E
|-------------------|---------------------|
|-----12--10--12----|-----12--------------|
|--9----------------|-12------11--9-------|
|-------------------|----------------12---|
|-------------------|---------------------|
|--2--(2)-(2)-(2)---|-(2)-(2)--0-(0)-(0)--|


  Gtr II
   e   S  e   S  e   S  S   S  S    H.
|-19--17-19--12-14--12-14--------|-12------------------|
|--------------------------15-12-|---------------------|
|--------------------------------|---------------------|
|--------------------------------|---------------------|
|--------------------------------|---------------------|
|--------------------------------|---------------------|
|
| Gtr I
|  E.     E.     E.     E.          E.  E.  E  E   E
|--------------------------------|---------------------|
|--------12-----10-----12--------|-----12--------------|
|--9-----------------------------|-12------11--9-------|
|--------------------------------|----------------12---|
|--------------------------------|---------------------|
|--2-----(2)----(2)----(2)-------|-(2)-(2)--0-(0)-(0)--|


   e   S  e   S  e   S  S   S  S    H.
|-19--17-19--12-14--12-14--------|-12------------------|
|--------------------------15-12-|---------------------|
|--------------------------------|---------------------|
|--------------------------------|---------------------|
|--------------------------------|---------------------|
|--------------------------------|---------------------|
|
|  E.     E.     E.     E.          E.  E.  E  E   E
|--------------------------------|---------------------|
|--------12-----10-----12--------|-----12--------------|
|--9-----------------------------|-12------11--9-------|
|--------------------------------|----------------12---|
|--3-----(3)----(3)----(3)-------|-(3)-(3)--5-(5)-(5)--|
|--------------------------------|---------------------|


  E.  E.  E.  E.    E.  E   S  e  e   e    E.  E.  E.  E.    E.  E.  E  E   E
|----12--10--12--|-----10--10--9---------|----12--10--12--|-----10-------------|
|----------------|-12------------12--10--|----------------|-12-----------------|
|-9--------------|-----------------------|-9--------------|---------11-12------|
|----------------|-----------------------|----------------|----------------12--|
|----------------|-----------------------|----------------|--------------------|
|----------------|-----------------------|----------------|--------------------|
|
| E.  E.  E.  E.    E.  E.     E  E   E    E.  E.  E.  E.    E.  E.  E  E   E
|----------------|-----------------------|----------------|--------------------|
|----12--10--12--|-----12----------------|----12--10--12--|-----12-------------|
|-9--------------|-12---------11--9------|-9--------------|-12------11--9------|
|----------------|-------------------12--|----------------|----------------12--|
|----------------|-----------------------|----------------|--------------------|
|-2--(2)-(2)-(2)-|-(2)-(2)-----0-(0)-(0)-|-2--(2)-(2)-(2)-|-(2)-(2)--0-(0)-(0)-|


  E.  E.  E.  E.      E.  S  S S  S  S  S   S  S  S
|----12--10--12----|-----10-------------------------|
|------------------|-12--------7--8-10--8--10--7----|
|-9----------------|---------9--------------------7-|
|------------------|--------------------------------|
|------------------|--------------------------------|
|------------------|--------------------------------|
|
| E.  E.  E.  E.      E.  E.      E     E      E
|------------------|--------------------------------|
|----12--10--12----|-----12-------------------------|
|-9----------------|-12----------11-----9-----------|
|------------------|--------------------------12----|
|------------------|--------------------------------|
|-2--(2)-(2)-(2)---|-(2)-(2)------0----(0)----(0)---|
|
| Gtr V
| W                   W
|------------------|--------------------------------|
|------------------|--------------------------------|
|------------------|--------------------------------|
|------------------|--------------------------------|
|------------------|--------------------------------|
|------------------|--------------------------------|


   E.  E   S  S   S  S  E.    S   S  S  S   S  S  E  E   E     +H.
|-12------19-17--19--------|---------------17-19------------|---------|
|-----12------------17-----|--------17-19--------19-17------|---------|
|--------------------------|-----17---------------------14--|-(14)----|
|----------------------17--|-19-----------------------------|---------|
|--------------------------|--------------------------------|---------|
|--------------------------|--------------------------------|---------|
|
|  E.  E.     E.        E.    E.        E.        E  E   E     +H.
|--------------------------|--------------------------------|---------|
|-----12-----10--------12--|-----------12-------------------|---------|
|--9-----------------------|-12------------------11--9------|---------|
|--------------------------|----------------------------12--|-(12)----|
|--------------------------|--------------------------------|---------|
|--2--(2)----(2)-------(2)-|-(2)-------(2)--------0-(0)-(0)-|---------|
|
|  W                          Q.                  E  E   E     +H.
|--------------------------|--------------------------------|---------|
|--------------------------|--------------------------------|---------|
|--------------------------|--------------------------------|---------|
|--------------------------|----------------------4--2---0--|--(0)----|
|--------------------------|----------------------4--2---0--|--(0)----|
|--------------------------|----------------------2--0------|---------|


    Gtr V
    E.  E.   E.  E.      E.  E.    E E  E
||--------------------|-------------------|
||o----11----9--11----|-----11------------|
||--8-----------------|-11--------10-8----|
||--------------------|----------------11-|
||o-------------------|-------------------|
||--------------------|-------------------|
|
|   Gtr IV
|   E.  E  S E.  E  S    E.  E  S  E E  E
||--------------------|-------------------|
||o-------------------|-------------------|
||--8---8--8-8---8--8-|--8---8--8--6-6--6-|
||--8---8--8-8---8--8-|--8---8--8--6-6--6-|
||o-6---6--6-6---6--6-|--6---6--6--4-4--4-|
||--------------------|-------------------|


  E.  E.   E.  E.      E.  E.    E E  E
|-------------------|-------------------|
|----11----9--11----|-----11------------|
|-8-----------------|-11--------10-8----|
|-------------------|----------------11-|
|-------------------|-------------------|
|-------------------|-------------------|
|
| E.  E  S E.  E  S    E.  E  S  E E  E
|-------------------|-------------------|
|-------------------|-------------------|
|-8---8--8-8---8--8-|--8---8--8--6-6--6-|
|-8---8--8-8---8--8-|--8---8--8--6-6--6-|
|-6---6--6-6---6--6-|--6---6--6--4-4--4-|
|-------------------|-------------------|


  E.  E.   E.  E.      E.  E.    E E  E   E.  E.   E.  E.
|-------------------|-------------------|-------------------|
|----11----9--11----|-----11------------|----11----9--11----|
|-8-----------------|-11--------10-8----|-8-----------------|
|-------------------|----------------11-|-------------------|
|-------------------|-------------------|-------------------|
|-------------------|-------------------|-------------------|
|
| E.  E  S E.  E  S    E.  E  S  E E  E   E.  E  S E.  E  S
|-------------------|-------------------|-------------------|
|-------------------|-------------------|-------------------|
|-8---8--8-8---8--8-|--8---8--8--6-6--6-|-------------------|
|-8---8--8-8---8--8-|--8---8--8--6-6--6-|-9---9--9-9---9--9-|
|-6---6--6-6---6--6-|--6---6--6--4-4--4-|-9---9--9-9---9--9-|
|-------------------|-------------------|-7---7--7-7---7--7-|


 1.                    2.
   E.  E.    E E  E      E.  E.    E E  E
|--------------------||-------------------|
|-----11------------o||-----11------------|
|-11--------10-8-----||-11--------10-8----|
|----------------11--||----------------11-|
|-------------------o||-------------------|
|--------------------||-------------------|
|
|  E.  E  S  E E  E      E.  E  S  E E  E
|--------------------||-------------------|
|-------------------o||-------------------|
|--------------------||-------------------|
|--9---9--9--8-8--8--||--9---9--9--6-6--6-|
|--9---9--9--8-8--8-o||--9---9--9--6-6--6-|
|--7---7--7--6-6--6--||--7---7--7--4-4--4-|


  E.  E.    E.  E.      E.  S  S  S  S  S  S  S  S  S
|--------------------|--------------------------------|
|----12----10--12----|-----15-13-15-12-13-12----------|
|-9------------------|-12--------------------14-12----|
|--------------------|-----------------------------12-|
|--------------------|--------------------------------|
|--------------------|--------------------------------|
|
| E.  E  S  E.  E  S    E.  E     S  E     E     E
|-----0--0------0--0-|------0-----0-------------------|
|-----0--0------0--0-|------0-----0-------------------|
|-0---0--0--0---0--0-|--0---0-----0--2-----2-----2----|
|-2---2--2--2---2--2-|--2---2-----2--2-----2-----2----|
|-2---2--2--2---2--2-|--2---2-----2--0-----0-----0----|
|-0---0--0--0---0--0-|--0---0-----0-------------------|


  E.  E.    E.  E.      E.  S  S  S  S  S  S  S  S  S
|--------------------|--------------------------------|
|----12----10--12----|-----15-13-15-12-13-12----------|
|-9------------------|-12--------------------14-12----|
|--------------------|-----------------------------12-|
|--------------------|--------------------------------|
|--------------------|--------------------------------|
|
| E.  E  S  E.  E  S    E.  E     S  E     E     E
|-----0--0------0--0-|------0-----0-------------------|
|-----0--0------0--0-|------0-----0-------------------|
|-0---0--0--0---0--0-|--0---0-----0--2-----2-----2----|
|-2---2--2--2---2--2-|--2---2-----2--2-----2-----2----|
|-2---2--2--2---2--2-|--2---2-----2--0-----0-----0----|
|-0---0--0--0---0--0-|--0---0-----0-------------------|


  E.  E.    E.  E.      E.  S  E     Q    e
|--------------------|-------------------14-|
|----12----10--12----|-----15-15---/17------|
|-9------------------|-12-------------------|
|--------------------|----------------------|
|--------------------|----------------------|
|--------------------|----------------------|
|
| E.  E  S  E.  E  S    E.  E    S   E E  E
|-----0--0------0--0-|------0----0----------|
|-----0--0------0--0-|------0----0----------|
|-0---0--0--0---0--0-|--0---0----0---7-7--7-|
|-2---2--2--2---2--2-|--2---2----2---7-7--7-|
|-2---2--2--2---2--2-|--2---2----2---5-5--5-|
|-0---0--0--0---0--0-|--0---0----0----------|


   S   e  S  E    S   e  S  E       e   S  S  S  S  S  S  S  S  E
|-14--15-15-15---15--17-17-17---|-/19--17-15----------------------|
|-------------------------------|------------19-17-15-------------|
|-------------------------------|---------------------14-12-11----|
|-------------------------------|------------------------------12-|
|-------------------------------|---------------------------------|
|-------------------------------|---------------------------------|
|
|  E.     E    S  E.     E    S     E.     E     S  E     E     E
|-------------------------------|---------------------------------|
|-------------------------------|---------------------------------|
|--5------5----5--5------5----5-|---5------5-----5--4-----4-----4-|
|--5------5----5--5------5----5-|---5------5-----5--4-----4-----4-|
|--3------3----3--3------3----3-|---3------3-----3--2-----2-----2-|
|-------------------------------|---------------------------------|


  E.  E.    E.  E.      E.  S  E    S  S  S  S  E
|--------------------|----------------------------|
|----12----10--12----|-----12-15---12-10----------|
|-9------------------|-12----------------12-11----|
|--------------------|-------------------------12-|
|--------------------|----------------------------|
|--------------------|----------------------------|
|
| E.  E  S  E.  E  S    E.  E    S  E     E     E
|-----0--0------0--0-|------0----0----------------|
|-----0--0------0--0-|------0----0----------------|
|-0---0--0--0---0--0-|--0---0----0--2-----2-----2-|
|-2---2--2--2---2--2-|--2---2----2--2-----2-----2-|
|-2---2--2--2---2--2-|--2---2----2--0-----0-----0-|
|-0---0--0--0---0--0-|--0---0----0----------------|


  E.  E.    E.  E.      E.  S  E    S  S  S  S  E
|--------------------|----------------------------|
|----12----10--12----|-----12-15---12-10----------|
|-9------------------|-12----------------12-11----|
|--------------------|-------------------------12-|
|--------------------|----------------------------|
|--------------------|----------------------------|
|
| E.  E  S  E.  E  S    E.  E    S  E     E     E
|-----0--0------0--0-|------0----0----------------|
|-----0--0------0--0-|------0----0----------------|
|-0---0--0--0---0--0-|--0---0----0--2-----2-----2-|
|-2---2--2--2---2--2-|--2---2----2--2-----2-----2-|
|-2---2--2--2---2--2-|--2---2----2--0-----0-----0-|
|-0---0--0--0---0--0-|--0---0----0----------------|


  E.  E.    E.  E.      E.  S  E    S  S  E  E
|--------------------|-------------------------|
|----12----10--12----|-----12-15---12-10----10-|
|-9------------------|-12----------------12----|
|--------------------|-------------------------|
|--------------------|-------------------------|
|--------------------|-------------------------|
|
| E.  E  S  E.  E  S    E.  E    S  E     E  E
|-----0--0------0--0-|------0----0-------------|
|-----0--0------0--0-|------0----0-------------|
|-0---0--0--0---0--0-|--0---0----0--7-----7--7-|
|-2---2--2--2---2--2-|--2---2----2--7-----7--7-|
|-2---2--2--2---2--2-|--2---2----2--5-----5--5-|
|-0---0--0--0---0--0-|--0---0----0-------------|


   E   S  E  S  E   S  E  S    E   S  E  S  S  T  T  S  S  E
|--------12----15-----12----|-12-----------------------------|
|-15------------------------|--------------------------------|
|-----12----12-----12----12-|-----12-14-12-11-12-11-12-11----|
|---------------------------|-----------------------------12-|
|---------------------------|--------------------------------|
|---------------------------|--------------------------------|
|
|  E.     E  S  E.     E  S    E.     E  S  E        E     E
|---------------------------|--------------------------------|
|---------------------------|--------------------------------|
|--5------5--5--5------5--5-|--5------5--5--7--------7-----7-|
|--5------5--5--5------5--5-|--5------5--5--7--------7-----7-|
|--3------3--3--3------3--3-|--3------3--3--5--------5-----5-|
|---------------------------|--------------------------------|


   E.  E.   Q.      +H.         E.  E.   Q.      +H.
|-----------------|----------|-----------------|--------*|
|-----12--(12)----|----------|-----12--(12)----|--------*|
|-/9--(9)---9-----|-(9)------|-/9--(9)---9-----|-(9)----*|
|-----------------|----------|-----------------|--------*|
|-----------------|----------|-----------------|--------*|
|-----------------|----------|-----------------|--------*|
|
|  H.               +H.        +H.               +H.
|-----------------|----------|-----------------|--------*|
|-----------------|----------|-----------------|--------*|
|-----------------|----------|-----------------|--------*|
|--2--------------|-(2)------|-(2)-------------|-(2)----*|
|--2--------------|-(2)------|-(2)-------------|-(2)----*|
|--0--------------|-(0)------|-(0)-------------|-(0)----*|




--------------------------------------------------------------------------------


Duration Legend
---------------
W - whole; H - half; Q - quarter; E - 8th; S - 16th; T - 32nd; X - 64th; a - acciaccatura
+ - note tied to previous; . - note dotted; .. - note double dotted
Uncapitalized letters represent notes that are staccato (1/2 duration)
Irregular groupings are notated above the duration line
Duration letters will always appear directly above the note/fret number it represents the
duration for.  Duration letters with no fret number below them represent rests.  Multi-
bar rests are notated in the form Wxn, where n is the number of bars to rest for.  Low
melody durations appear below the staff

Tablature Legend
----------------
 h   - hammer-on
 p   - pull-off
 b   - bend
 pb  - pre-bend
 r   - bend release (if no number after the r, then release immediately)
 /\  - slide into or out of (from/to "nowhere")
 s   - legato slide
 S   - shift slide
<n> - natural harmonic
[n]  - artificial harmonic
n(n) - tapped harmonic
 ~   - vibrato
 tr  - trill
 T   - tap
 TP  - trem. picking
 PM  - palm muting
\n/  - tremolo bar dip; n = amount to dip
 \n  - tremolo bar down
 n/  - tremolo bar up
/n\  - tremolo bar inverted dip
 =   - hold bend; also acts as connecting device for hammers/pulls
 <> - volume swell (louder/softer)
 x   - on rhythm slash represents muted slash
 o   - on rhythm slash represents single note slash

Misc Legend
-----------
 |  - bar
||  - double bar
||o - repeat start
o|| - repeat end
*|  - double bar (ending)
 :  - bar (freetime)
 $  - Segno
 &  - Coda
Tempo markers - <E/E./Q/Q./H/H.> = BPM(8/16=s8/s16), where s8 = swing 8ths, s16 = swing 16ths

comments
We did not receive enough feedback on this tab! Please rate:
print report bad tab
1 2 3 4 5
I want to post or [tab]
guest
You may want to rate the tab now too:
select rating
Please do not post tabs as comments. Select "correction" instead!