Oops, an error
Loading. Please wait.

Leaves Scar Tab

1,438 views 1 this week
1 commentread comment
1 2 3 4 5
excellent!
x 2
Autoscroll
+/-
esc
set tempo
stop
Contributor
WARNING: You are trying to view
                                    content from Ultimate-Guitar.com
                                    in an unauthorized application,
                                    which is prohibited.

                                    Please use an official Ultimate
                                    Guitar Tabs application for iPhone,
                                    iPad or Android to access legitimate
                                    chords, guitar, bass, and drum tabs
                                    from Ultimate-Guitar.com database.

                                    Type "ultimate guitar tabs" in Apple
                                    App Store's or Android Market's
                                    search to find the application.
#----------------------------------PLEASE NOTE---------------------------------#
#This file is the author's own work and represents their interpretation of the #
#song. You may only use this file for private study, scholarship, or research. #
#------------------------------------------------------------------------------#

LEAVES SCAR
As recorded by Amorphis
(From the 2006 Album ECLIPSE)


Transcribed by Danny Heater (hauntedinflames)

 Words by Paavi Haavikko Music by Holopainan

Gtr I (D G C F A D) - 'Untitled'
Gtr II (D G C F A D) - 'Untitled'
Gtr III (D G C F A D) - 'Untitled'
Gtr IV (D G C F A D) - 'Untitled'
Gtr V (D G C F A D) - 'Untitled'
Gtr VI (D G C F A D) - 'Untitled'


 Intro
  Q=92
 6/8
  Gtr IV
   Q.          Q.            Q      S  S  Q.
|-------------------------|-----------13-------------|
|-14----------13----------|-14-----16----13----------|
|-------------------------|--------------------------|
|-------------------------|--------------------------|
|-------------------------|--------------------------|
|-------------------------|--------------------------|
|
| Gtr III
|  W                         W
|-------------------------|--------------------------|
|-------------------------|--------------------------|
|-------------------------|--------------------------|
|-------------------------|--------------------------|
|-------------------------|--------------------------|
|-------------------------|--------------------------|
|
| Gtr I
|  E  S S S S  E  S S S S    E S S  S  S  E  S S S S
|-------------------------|--------------------------|
|--2--2-2-2-2--1--1-1-1-1-|--2-2-2--2--2--1--1-1-1-1-|
|--1--1-1-1-1--1--1-1-1-1-|--1-1-1--1--1--1--1-1-1-1-|
|--3--3-3-3-3--3--3-3-3-3-|--3-3-3--3--3--3--3-3-3-3-|
|--3--3-3-3-3--3--3-3-3-3-|--3-3-3--3--3--3--3-3-3-3-|
|--1--1-1-1-1--1--1-1-1-1-|--1-1-1--1--1--1--1-1-1-1-|


          |---3---|
   Q      S  S    S  Q      S  S    Q      S  S  Q      S  S
|--------------------------------|-----------------------------|
|-14-----14-16---14-13-----13-11-|-13-----11-----------11-13---|
|--------------------------------|-----------13-12-------------|
|--------------------------------|-----------------------------|
|--------------------------------|-----------------------------|
|--------------------------------|-----------------------------|
|
|  H                   E    S  S    Q      S  S  Q      S  S
|--------------------------------|-----------------------------|
|--------------------------------|-----------------------------|
|--------------------------15-13-|-13-----13-15-12-----12-13---|
|--------------------------------|-----------------------------|
|--------------------------------|-----------------------------|
|--------------------------------|-----------------------------|
|
|  E S S  S    S     E S S  S  S    E S S  S  S  E S S  S  S
|--------------------------------|-----------------------------|
|--2-2-2--2----2-----1-1-1--1--1-|--4-4-4--4--4--4-4-4--4--4---|
|--1-1-1--1----1-----1-1-1--1--1-|--5-5-5--5--5--3-3-3--3--3---|
|--3-3-3--3----3-----3-3-3--3--3-|--6-6-6--6--6--5-5-5--5--5---|
|--3-3-3--3----3-----3-3-3--3--3-|--6-6-6--6--6--5-5-5--5--5---|
|--1-1-1--1----1-----1-1-1--1--1-|--4-4-4--4--4--3-3-3--3--3---|


    Q.          Q.            +H.
|--------------------------|-----------------------------------|
|--14----------13----------|-(13)------------------------------|
|--------------------------|-----------------------------------|
|--------------------------|-----------------------------------|
|--------------------------|-----------------------------------|
|--------------------------|-----------------------------------|
|
|   H.                        +E.    S   S S  S S  S S   E
|--------------------------|-----------------------------------|
|--------------------------|-----------------------------------|
|-/10----------------------|-(10)---(8)-10-8-10-8-10-8-[10]\---|
|--------------------------|-----------------------------------|
|--------------------------|-----------------------------------|
|--------------------------|-----------------------------------|
|
|   E  S S S S  E  S S S S     E  S  S   S S  E    S S   S   S
|--------------------------|-----------------------------------|
|---2--2-2-2-2--1--1-1-1-1-|---2--2--2---2-2--1----1-1---1---1-|
|---1--1-1-1-1--1--1-1-1-1-|---1--1--1---1-1--1----1-1---1---1-|
|---3--3-3-3-3--3--3-3-3-3-|---3--3--3---3-3--3----3-3---3---3-|
|---3--3-3-3-3--3--3-3-3-3-|---3--3--3---3-3--3----3-3---3---3-|
|---1--1-1-1-1--1--1-1-1-1-|---1--1--1---1-1--1----1-1---1---1-|


     H                 +E     S  S     Q       E    Q      E
|---13----------------(13)---13-15-|--16------15---13-----------|
|----------------------------14-16-|--18------16---14-----16----|
|----------------------------------|----------------------13----|
|----------------------------------|----------------------------|
|----------------------------------|----------------------------|
|----------------------------------|----------------------------|
|
|    E    Q         E   Q             +Q       E    E Q
|----------------------------------|----------------------------|
|----------------------------------|----------------------------|
|-([10])\---------/13--13----------|-(13)-----13---10-8---------|
|----------------------------------|----------------------------|
|----------------------------------|----------------------------|
|----------------------------------|----------------------------|
|
|    E    S S S S   E   S  S  S  S     E  S S  S S  E S S  S S
|----------------------------------|----------------------------|
|----2----2-2-2-2---1---1--1--1--1-|---4--4-4--4-4--4-4-4--4-4--|
|----1----1-1-1-1---1---1--1--1--1-|---5--5-5--5-5--3-3-3--3-3--|
|----3----3-3-3-3---3---3--3--3--3-|---6--6-6--6-6--5-5-5--5-5--|
|----3----3-3-3-3---3---3--3--3--3-|---6--6-6--6-6--5-5-5--5-5--|
|----1----1-1-1-1---1---1--1--1--1-|---4--4-4--4-4--3-3-3--3-3--|


    Q       S  S  Q.            Q       E    Q       E
|----------------------------|-16------15---13---------------|
|--14------16-14-13----------|----------------------16-------|
|----------------------------|-------------------------------|
|----------------------------|-------------------------------|
|----------------------------|-------------------------------|
|----------------------------|-------------------------------|
|
|   H.                          E  e    Q      E.       T  T
|----------------------------|-------------------------------|
|----------------------------|----13---13--------------18-18-|
|-/10------------------------|-------------------------------|
|----------------------------|-------------------------------|
|----------------------------|-------------------------------|
|----------------------------|-------------------------------|
|
|   E  S S  S  S  E  S S S S    E  S S  S S  E S  S  S  S
|----------------------------|-------------------------------|
|---2--2-2--2--2--1--1-1-1-1-|--2--2-2--2-2--1-1--1--1--1----|
|---1--1-1--1--1--1--1-1-1-1-|--1--1-1--1-1--1-1--1--1--1----|
|---3--3-3--3--3--3--3-3-3-3-|--3--3-3--3-3--3-3--3--3--3----|
|---3--3-3--3--3--3--3-3-3-3-|--3--3-3--3-3--3-3--3--3--3----|
|---1--1-1--1--1--1--1-1-1-1-|--1--1-1--1-1--1-1--1--1--1----|


   Q       S  S  Q      S  S    Q      S  S  Q      S  S
|------------13--------------|----------------------------|
|-14------16----13-----13-11-|-13-----11-----------11-13--|
|----------------------------|-----------13-12------------|
|----------------------------|----------------------------|
|----------------------------|----------------------------|
|----------------------------|----------------------------|
|
|  e  H                 S  S    Q      S  S  Q      S  S
|----------------------------|----------------------------|
|-18-18----------------------|----------------------------|
|----------------------15-13-|-13-----13-15-12-----12-13--|
|----------------------------|----------------------------|
|----------------------------|----------------------------|
|----------------------------|----------------------------|
|
|  E  S S  S  S  E S S  S  S    E S S  S  S  E S S  S  S
|----------------------------|----------------------------|
|--2--2-2--2--2--1-1-1--1--1-|--4-4-4--4--4--4-4-4--4--4--|
|--1--1-1--1--1--1-1-1--1--1-|--5-5-5--5--5--3-3-3--3--3--|
|--3--3-3--3--3--3-3-3--3--3-|--6-6-6--6--6--5-5-5--5--5--|
|--3--3-3--3--3--3-3-3--3--3-|--6-6-6--6--6--5-5-5--5--5--|
|--1--1-1--1--1--1-1-1--1--1-|--4-4-4--4--4--3-3-3--3--3--|


   H.                             +Q        +S   S  Q.
|------------------------------|-------------------13-----------------|
|-13---------------------------|-(13)------(13)-16--------------------|
|------------------------------|--------------------------------------|
|------------------------------|--------------------------------------|
|------------------------------|--------------------------------------|
|------------------------------|--------------------------------------|
|
|                                                           |---3---|
|  S   S  H              +E        E   e     Q.             S  S    S
|------------------------------|--------------------------------------|
|------------------------------|------13----13-------------18-18---18-|
|-12--13-10-------------(10)---|--------------------------------------|
|------------------------------|--------------------------------------|
|------------------------------|--------------------------------------|
|------------------------------|--------------------------------------|
|
|  E      S S S S E S S   S  S     E   S S   S   S  E  S S  S    S
|------------------------------|--------------------------------------|
|--2------2-2-2-2-1-1-1---1--1-|---2---2-2---2---2--1--1-1--1----1----|
|--1------1-1-1-1-1-1-1---1--1-|---1---1-1---1---1--1--1-1--1----1----|
|--3------3-3-3-3-3-3-3---3--3-|---3---3-3---3---3--3--3-3--3----3----|
|--3------3-3-3-3-3-3-3---3--3-|---3---3-3---3---3--3--3-3--3----3----|
|--1------1-1-1-1-1-1-1---1--1-|---1---1-1---1---1--1--1-1--1----1----|


   Q          S  S  Q       S   S    Q                S    S     Q.
|---------------------------------|--------------------------------------------------------||
|-14---------14-16-13------13--11-|-13---------------11------------------------------------||
|---------------------------------|-----------------------13----12-------------------------||
|---------------------------------|--------------------------------------------------------||
|---------------------------------|--------------------------------------------------------||
|---------------------------------|--------------------------------------------------------||
|
|  S  S  H                 +E        S   S   S   S    S    S     S   S   S   S   S   S
|---------------------------------|--------------------------------------------------------||
|-18-18-18----------------(18)----|--xs==xs==xs==xs===xs===xs====xs==xs==xs==xs==xs==x\----||
|---------------------------------|--xs==xs==xs==xs===xs===xs====xs==xs==xs==xs==xs==x\----||
|---------------------------------|--xs==xs==xs==xs===xs===xs====xs==xs==xs==xs==xs==x\----||
|---------------------------------|--------------------------------------------------------||
|---------------------------------|--------------------------------------------------------||
|
|                                 Gtr VI
|                                    TPTPTPTPTPTPTPTP TPTP TPTP  TPTPTPTPTPTPTPTPTPTPTPTP
|  E     S S  S  S  E S S   S   S    T T T T T T T T  T T  T T   T T T T T T T T T T T T
|---------------------------------|--------------------------------------------------------||
|--2-----2-2--2--2--1-1-1---1---1-|--xsxsxsxsxsxsxsxs=xsxs=xsx\----------------------------||
|--1-----1-1--1--1--1-1-1---1---1-|--xsxsxsxsxsxsxsxs=xsxs=xsx\--xsxsxsxsxsxsxsxsxsxsxsx\--||
|--3-----3-3--3--3--3-3-3---3---3-|--xsxsxsxsxsxsxsxs=xsxs=xsx\--xsxsxsxsxsxsxsxsxsxsxsx\--||
|--3-----3-3--3--3--3-3-3---3---3-|------------------------------xsxsxsxsxsxsxsxsxsxsxsx\--||
|--1-----1-1--1--1--1-1-1---1---1-|--------------------------------------------------------||


   Verse
    Q=97
    Gtr III
     E  S S S S  E  S S S S    E  S S S S  E  S S S S
||--------------------------|-------------------------|
||o-------------------------|-------------------------|
||--------------------------|-------------------------|
||---8--8-8-7-5--7--7-7-7-7-|--8--8-8-7-5--7--7-7-7-7-|
||o-------------------------|-------------------------|
||--------------------------|-------------------------|
|
|   Gtr II
|    E  S S S S  E  S S S S    E  S S S S  E  S S S S
||--------------------------|-------------------------|
||o--3--3-3-3-3--3--3-3-3-3-|--3--3-3-3-3--3--3-3-3-3-|
||---3--3-3-3-3--2--2-2-2-2-|--3--3-3-3-3--2--2-2-2-2-|
||---0--0-0-0-0--0--0-0-0-0-|--0--0-0-0-0--0--0-0-0-0-|
||o-------------------------|-------------------------|
||--------------------------|-------------------------|
|
|   Gtr V
|    Q.          Q.            Q.          Q.
||--------------------------|-------------------------|
||o-11----------10----------|-11----------10----------|
||---7-----------7----------|--7-----------7----------|
||---0-----------0----------|--0-----------0----------|
||o-------------------------|-------------------------|
||--------------------------|-------------------------|


   E  S S S S  E  S S S S   E  S S S S E  S S S S    4x
|-------------------------|--------------------------||
|-------------------------|-------------------------o||
|-------------------------|--------------------------||
|--8--8-8-7-5--7--7-7-7-7-|--------------------------||
|-------------------------|-8--8-8-8-8-3--3-3-3-3---o||
|-------------------------|--------------------------||
|
|  E  S S S S  E  S S S S   E  S S S S E  S S S S    4x
|-------------------------|--------------------------||
|--3--3-3-3-3--3--3-3-3-3-|-------------------------o||
|--3--3-3-3-3--2--2-2-2-2-|------------5--5-5-5-5----||
|--0--0-0-0-0--0--0-0-0-0-|-3--3-3-3-3-5--5-5-5-5----||
|-------------------------|-3--3-3-3-3-3--3-3-3-3---o||
|-------------------------|-1--1-1-1-1---------------||
|
|  Q.          Q.           Q.         Q.            4x
|-------------------------|--------------------------||
|-11----------10----------|-6----------8------------o||
|--7-----------7----------|-5----------5-------------||
|--0-----------0----------|-3----------5-------------||
|-------------------------|-3----------3------------o||
|-------------------------|--------------------------||


   horus
     S   S  S  S  S  S  S   S  S  S  S  S    S   S  S  S  S  S  E.  E.
||--17--13-------------15--12-------------|----------------------------|
||o--------15-----------------13----------|----------------------------|
||------------14-----------------12-------|----------------------------|
||---------------15-----------------14----|-15--14-12----12-14-15--15--|
||o-----------------17-----------------15-|-----------12---------------|
||----------------------------------------|----------------------------|
|
|    Q.                 Q.                   Q.                 E.  E.
||----------------------------------------|----------------------------|
||o---------------------------------------|----------------------------|
||---7------------------5-----------------|--3------------------7---5--|
||---7------------------5-----------------|--3------------------7---5--|
||o--5------------------3-----------------|--1------------------5---3--|
||----------------------------------------|----------------------------|
|
|    Q.                 Q.                   Q.                 E.  E.
||--17-----------------15-----------------|-13-------------------------|
||o-10------------------8-----------------|-15-----------------15--13--|
||--10------------------9-----------------|-10-----------------10---9--|
||--12-----------------10-----------------|--8-----------------12--10--|
||o---------------------------------------|----------------------------|
||----------------------------------------|----------------------------|


                                                        1.
   S   S  S  S  S  S  S   S  S  S  S  S    Q.            +Q.
|-17--13-------------15--12-------------|------------------------||
|--------15-----------------15-13----13-|-15------------(15)----o||
|-----------14--------------------14----|------------------------||
|--------------15-----------------------|------------------------||
|-----------------17--------------------|-----------------------o||
|---------------------------------------|------------------------||
|
|  Q.                 Q.                   S  S S S S S   Q.
|---------------------------------------|------------------------||
|---------------------------------------|-----------------------o||
|--7------------------------------------|------------------------||
|--7------------------------------------|------------------------||
|--5-----------------/7-----------------|--8--7-5---------5-----o||
|---------------------------------------|---------8-6-8----------||
|
|  Q.                 Q.                   Q.            +Q.
|-17-----------------15-----------------|-13------------(13)-----||
|-10------------------8-----------------|-15------------(15)----o||
|-10------------------9-----------------|-10------------(10)-----||
|-12-----------------10-----------------|-12------------(12)-----||
|---------------------------------------|-----------------------o||
|---------------------------------------|------------------------||


  2.
   S   S  S  S  S  S  S  S  S  S  S  S
|--------------------------------------|
|--------------------------------------|
|--------------------------------------|
|-15--12-15-12-15-12-15-12-15-12-15-12-|
|--------------------------------------|
|--------------------------------------|
|
|  H.
|--------------------------------------|
|--------------------------------------|
|--------------------------------------|
|--------------------------------------|
|--5-----------------------------------|
|--------------------------------------|
|
|  H.
|-10-----------------------------------|
|-10-----------------------------------|
|--7-----------------------------------|
|--7-----------------------------------|
|--5-----------------------------------|
|--------------------------------------|


    S   S  S  S  S  S  S  S  S  S S S   E  S S S S E  S S S S
|-------------------------------------|-----------------------||
|-------------------------------------|-----------------------||
|-------------------------------x-x-x-|------------5--5-5-5-5-||
|--15--12-15-12-15-12-15-12-12--x-x-x-|-3--3-3-3-3-5--5-5-5-5-||
|-------------------------------x-x-x-|-3--3-3-3-3-3--3-3-3-3-||
|-------------------------------------|-1--1-1-1-1------------||
|
|  +H                       +S  S S S   E  S S S S E  S S S S
|-------------------------------------|-----------------------||
|-------------------------------------|-----------------------||
|-------------------------------x-x-x-|------------5--5-5-5-5-||
|-------------------------------x-x-x-|-3--3-3-3-3-5--5-5-5-5-||
|--(5)----------------------(5)-x-x-x-|-3--3-3-3-3-3--3-3-3-3-||
|-------------------------------------|-1--1-1-1-1------------||
|
|  +H.                                  Q.         Q.
|-(10)--------------------------------|-----------------------||
|-(10)--------------------------------|-6----------8----------||
|--(7)--------------------------------|-5----------5----------||
|--(7)--------------------------------|-3----------5----------||
|--(5)--------------------------------|-3----------3----------||
|-------------------------------------|-----------------------||


   Verse
     E  S S S S  E  S S S S    E  S S S S  E  S S S S
||--------------------------|-------------------------|
||o-------------------------|-------------------------|
||--------------------------|-------------------------|
||---8--8-8-7-5--7--7-7-7-7-|--8--8-8-7-5--7--7-7-7-7-|
||o-------------------------|-------------------------|
||--------------------------|-------------------------|
|
|    E  S S S S  E  S S S S    E  S S S S  E  S S S S
||--------------------------|-------------------------|
||o--3--3-3-3-3--3--3-3-3-3-|--3--3-3-3-3--3--3-3-3-3-|
||---3--3-3-3-3--2--2-2-2-2-|--3--3-3-3-3--2--2-2-2-2-|
||---0--0-0-0-0--0--0-0-0-0-|--0--0-0-0-0--0--0-0-0-0-|
||o-------------------------|-------------------------|
||--------------------------|-------------------------|
|
|    Q.          Q.            Q.          Q.
||--------------------------|-------------------------|
||o-11----------10----------|-11----------10----------|
||---7-----------7----------|--7-----------7----------|
||---0-----------0----------|--0-----------0----------|
||o-------------------------|-------------------------|
||--------------------------|-------------------------|


   E  S S S S  E  S S S S   E  S S S S E  S S S S    3x
|-------------------------|--------------------------||
|-------------------------|-------------------------o||
|-------------------------|--------------------------||
|--8--8-8-7-5--7--7-7-7-7-|--------------------------||
|-------------------------|-8--8-8-8-8-3--3-3-3-3---o||
|-------------------------|--------------------------||
|
|  E  S S S S  E  S S S S   E  S S S S E  S S S S    3x
|-------------------------|--------------------------||
|--3--3-3-3-3--3--3-3-3-3-|-------------------------o||
|--3--3-3-3-3--2--2-2-2-2-|------------5--5-5-5-5----||
|--0--0-0-0-0--0--0-0-0-0-|-3--3-3-3-3-5--5-5-5-5----||
|-------------------------|-3--3-3-3-3-3--3-3-3-3---o||
|-------------------------|-1--1-1-1-1---------------||
|
|  Q.          Q.           Q.         Q.            3x
|-------------------------|--------------------------||
|-11----------10----------|-6----------8------------o||
|--7-----------7----------|-5----------5-------------||
|--0-----------0----------|-3----------5-------------||
|-------------------------|-3----------3------------o||
|-------------------------|--------------------------||


   Chorus
     S   S  S  S  S  S  S   S  S  S  S  S    S   S  S  S  S  S  E.  E.
||--17--13-------------15--12-------------|----------------------------|
||o--------15-----------------13----------|----------------------------|
||------------14-----------------12-------|----------------------------|
||---------------15-----------------14----|-15--14-12----12-14-15--15--|
||o-----------------17-----------------15-|-----------12---------------|
||----------------------------------------|----------------------------|
|
|    Q.                 Q.                   Q.                 E.  E.
||----------------------------------------|----------------------------|
||o---------------------------------------|----------------------------|
||---7------------------5-----------------|--3------------------7---5--|
||---7------------------5-----------------|--3------------------7---5--|
||o--5------------------3-----------------|--1------------------5---3--|
||----------------------------------------|----------------------------|
|
|    Q.                 Q.                   Q.                 E.  E.
||--17-----------------15-----------------|-13-------------------------|
||o-10------------------8-----------------|-15-----------------15--13--|
||--10------------------9-----------------|-10-----------------10---9--|
||--12-----------------10-----------------|--8-----------------12--10--|
||o---------------------------------------|----------------------------|
||----------------------------------------|----------------------------|


                                                        1.
   S   S  S  S  S  S  S   S  S  S  S  S    Q.            +Q.
|-17--13-------------15--12-------------|------------------------||
|--------15-----------------15-13----13-|-15------------(15)----o||
|-----------14--------------------14----|------------------------||
|--------------15-----------------------|------------------------||
|-----------------17--------------------|-----------------------o||
|---------------------------------------|------------------------||
|
|  Q.                 Q.                   S  S S S S S   Q.
|---------------------------------------|------------------------||
|---------------------------------------|-----------------------o||
|--7------------------------------------|------------------------||
|--7------------------------------------|------------------------||
|--5-----------------/7-----------------|--8--7-5---------5-----o||
|---------------------------------------|---------8-6-8----------||
|
|  Q.                 Q.                   Q.            +Q.
|-17-----------------15-----------------|-13------------(13)-----||
|-10------------------8-----------------|-15------------(15)----o||
|-10------------------9-----------------|-10------------(10)-----||
|-12-----------------10-----------------|-12------------(12)-----||
|---------------------------------------|-----------------------o||
|---------------------------------------|------------------------||


  2.
   H.         +H.
|----------|---------||
|----------|---------||
|----------|---------||
|-12-------|-(12)----||
|----------|---------||
|----------|---------||
|
|  H.         +H.
|----------|---------||
|----------|---------||
|----------|---------||
|----------|---------||
|--5-------|--(5)----||
|----------|---------||
|
|  H.         +H.
|-10-------|-(10)----||
|-10-------|-(10)----||
|--7-------|--(7)----||
|--7-------|--(7)----||
|--5-------|--(5)----||
|----------|---------||


 Interlude
  Q=92
  Gtr IV
   Q.          Q.            S  S  S  E    S  Q.
|-------------------------|------------------------------|
|-14----------13----------|-13-11------------------------|
|-------------------------|-------13-13---12-10----------|
|-------------------------|------------------------------|
|-------------------------|------------------------------|
|-------------------------|------------------------------|
|
| Gtrs II, III
|  E  E   H                  W
|-------------------------|------------------------------|
|-------------------------|------------------------------|
|-------------------------|------------------------------|
|--3--3-------------------|------------------------------|
|--3--3-------------------|------------------------------|
|--1--1-------------------|------------------------------|
|
| Gtr I
|  E  S S S S  E  S S S S    E     S  S S  S  E  S S S S
|-------------------------|------------------------------|
|--2--2-2-2-2--1--1-1-1-1-|--2-----2--2-2--2--1--1-1-1-1-|
|--1--1-1-1-1--1--1-1-1-1-|--1-----1--1-1--1--1--1-1-1-1-|
|--3--3-3-3-3--3--3-3-3-3-|--3-----3--3-3--3--3--3-3-3-3-|
|--3--3-3-3-3--3--3-3-3-3-|--3-----3--3-3--3--3--3-3-3-3-|
|--1--1-1-1-1--1--1-1-1-1-|--1-----1--1-1--1--1--1-1-1-1-|


                           Gtr V
   +H.                        Q.            Q.
|--------------------------|------------------------------|
|--------------------------|--9-------------8-------------|
|-(10)---------------------|--8-------------8-------------|
|--------------------------|-10-------------8-------------|
|--------------------------|-11------------10-------------|
|--------------------------|------------------------------|
|
|                    Gtr III
|   H            E    S  S    Q       S  S  Q       S  S
|--------------------------|------------------------------|
|--------------------------|------------------------------|
|--------------------15-17-|-13------13-15-12------12-13--|
|--------------------------|------------------------------|
|--------------------------|------------------------------|
|--------------------------|------------------------------|
|
|   E  S S S S E S S  S  S    E  S S  S  S  E  S S  S  S
|--------------------------|------------------------------|
|---2--2-2-2-2-1-1-1--1--1-|--4--4-4--4--4--4--4-4--4--4--|
|---1--1-1-1-1-1-1-1--1--1-|--5--5-5--5--5--3--3-3--3--3--|
|---3--3-3-3-3-3-3-3--3--3-|--6--6-6--6--6--5--5-5--5--5--|
|---3--3-3-3-3-3-3-3--3--3-|--6--6-6--6--6--5--5-5--5--5--|
|---1--1-1-1-1-1-1-1--1--1-|--4--4-4--4--4--3--3-3--3--3--|


   Q.          Q.             Q.          Q.
|-------------------------|--------------------------|
|-14----------13----------|--14----------13----------|
|-------------------------|--------------------------|
|-11----------10----------|--11----------10----------|
|--8----------(8)---------|--(8)---------(8)---------|
|-------------------------|--------------------------|
|
|  >
|  H.                        +H.
|-------------------------|--------------------------|
|-------------------------|--------------------------|
|-10----------------------|-(10)---------------------|
|-------------------------|--------------------------|
|-------------------------|--------------------------|
|-------------------------|--------------------------|
|
|  E  S S S S  E  S S S S     E  S S S S  E  S S S S
|-------------------------|--------------------------|
|--2--2-2-2-2--1--1-1-1-1-|---2--2-2-2-2--1--1-1-1-1-|
|--1--1-1-1-1--1--1-1-1-1-|---1--1-1-1-1--1--1-1-1-1-|
|--3--3-3-3-3--3--3-3-3-3-|---3--3-3-3-3--3--3-3-3-3-|
|--3--3-3-3-3--3--3-3-3-3-|---3--3-3-3-3--3--3-3-3-3-|
|--1--1-1-1-1--1--1-1-1-1-|---1--1-1-1-1--1--1-1-1-1-|


   Q.          Q.              Q.            Q.
|---------------------------|-------------------------------|
|-14----------13------------|--9-------------8--------------|
|---------------------------|--8-------------8--------------|
|-11----------10------------|-10-------------8--------------|
|-(8)---------(8)-----------|-11------------10--------------|
|---------------------------|-------------------------------|
|
|  H              E    S  S    Q       S  S  Q       S  S
|---------------------------|-------------------------------|
|---------------------------|-------------------------------|
|---------------------15-17-|-13------13-15-12------12-13---|
|---------------------------|-------------------------------|
|---------------------------|-------------------------------|
|---------------------------|-------------------------------|
|
|  E  S S S S  E  S S  S  S    E  S S  S  S  E  S S  S  S
|---------------------------|-------------------------------|
|--2--2-2-2-2--1--1-1--1--1-|--4--4-4--4--4--4--4-4--4--4---|
|--1--1-1-1-1--1--1-1--1--1-|--5--5-5--5--5--3--3-3--3--3---|
|--3--3-3-3-3--3--3-3--3--3-|--6--6-6--6--6--5--5-5--5--5---|
|--3--3-3-3-3--3--3-3--3--3-|--6--6-6--6--6--5--5-5--5--5---|
|--1--1-1-1-1--1--1-1--1--1-|--4--4-4--4--4--3--3-3--3--3---|


  Gtr IV
   Q.          Q.             Q       S  S  Q.
|-------------------------|-------------13-------------|
|-14----------13----------|--14------16----13----------|
|-------------------------|----------------------------|
|-------------------------|----------------------------|
|-------------------------|----------------------------|
|-------------------------|----------------------------|
|
|  >
|  H.                        +H.
|-------------------------|----------------------------|
|-------------------------|----------------------------|
|-10----------------------|-(10)-----------------------|
|-------------------------|----------------------------|
|-------------------------|----------------------------|
|-------------------------|----------------------------|
|
|  E  S S S S  E  S S S S     E  S S  S  S  E  S S S S
|-------------------------|----------------------------|
|--2--2-2-2-2--1--1-1-1-1-|---2--2-2--2--2--1--1-1-1-1-|
|--1--1-1-1-1--1--1-1-1-1-|---1--1-1--1--1--1--1-1-1-1-|
|--3--3-3-3-3--3--3-3-3-3-|---3--3-3--3--3--3--3-3-3-3-|
|--3--3-3-3-3--3--3-3-3-3-|---3--3-3--3--3--3--3-3-3-3-|
|--1--1-1-1-1--1--1-1-1-1-|---1--1-1--1--1--1--1-1-1-1-|


   Q      S  S  Q      S  S    Q      S  S  Q.
|-----------13--------------|------------------------------|
|-14-----16----13-----11-13-|-14-----13-11-13--------------|
|---------------------------|------------------------------|
|---------------------------|------------------------------|
|---------------------------|------------------------------|
|---------------------------|------------------------------|
|
|  H              E    S  S    Q      S  S  Q       S  S
|---------------------------|------------------------------|
|---------------------------|------------------------------|
|---------------------15-17-|-13-----13-15-12------12-13---|
|---------------------------|------------------------------|
|---------------------------|------------------------------|
|---------------------------|------------------------------|
|
|  E S S  S  S  E S S  S  S    E S S  S  S  E  S S  S  S
|---------------------------|------------------------------|
|--2-2-2--2--2--1-1-1--1--1-|--4-4-4--4--4--4--4-4--4--4---|
|--1-1-1--1--1--1-1-1--1--1-|--5-5-5--5--5--3--3-3--3--3---|
|--3-3-3--3--3--3-3-3--3--3-|--6-6-6--6--6--5--5-5--5--5---|
|--3-3-3--3--3--3-3-3--3--3-|--6-6-6--6--6--5--5-5--5--5---|
|--1-1-1--1--1--1-1-1--1--1-|--4-4-4--4--4--3--3-3--3--3---|


   Q.          Q.             Q       S  S  Q.
|-------------------------|-------------13-------------|
|-14----------13----------|--14------16----13----------|
|-------------------------|----------------------------|
|-------------------------|----------------------------|
|-------------------------|----------------------------|
|-------------------------|----------------------------|
|
|  >
|  H.                        +H.
|-------------------------|----------------------------|
|-------------------------|----------------------------|
|-10----------------------|-(10)-----------------------|
|-------------------------|----------------------------|
|-------------------------|----------------------------|
|-------------------------|----------------------------|
|
|  E  S S S S  E  S S S S     E  S S  S  S  E  S S S S
|-------------------------|----------------------------|
|--2--2-2-2-2--1--1-1-1-1-|---2--2-2--2--2--1--1-1-1-1-|
|--1--1-1-1-1--1--1-1-1-1-|---1--1-1--1--1--1--1-1-1-1-|
|--3--3-3-3-3--3--3-3-3-3-|---3--3-3--3--3--3--3-3-3-3-|
|--3--3-3-3-3--3--3-3-3-3-|---3--3-3--3--3--3--3-3-3-3-|
|--1--1-1-1-1--1--1-1-1-1-|---1--1-1--1--1--1--1-1-1-1-|


   Q      S  S  Q      S  S    Q      S  S  Q.
|-----------13--------------|------------------------------|
|-14-----16----13-----11-13-|-14-----13-11-----------------|
|---------------------------|--------------13--------------|
|---------------------------|------------------------------|
|---------------------------|------------------------------|
|---------------------------|------------------------------|
|
|  H              E    S  S    Q      S  S  Q       S  S
|---------------------------|------------------------------|
|---------------------------|-16-----16-16-18------16-18---|
|---------------------15-17-|------------------------------|
|---------------------------|------------------------------|
|---------------------------|------------------------------|
|---------------------------|------------------------------|
|
|  E S S  S  S  E S S  S  S    E S S  S  S  E  S S  S  S
|---------------------------|------------------------------|
|--2-2-2--2--2--1-1-1--1--1-|--4-4-4--4--4--4--4-4--4--4---|
|--1-1-1--1--1--1-1-1--1--1-|--5-5-5--5--5--3--3-3--3--3---|
|--3-3-3--3--3--3-3-3--3--3-|--6-6-6--6--6--5--5-5--5--5---|
|--3-3-3--3--3--3-3-3--3--3-|--6-6-6--6--6--5--5-5--5--5---|
|--1-1-1--1--1--1-1-1--1--1-|--4-4-4--4--4--3--3-3--3--3---|


                                   |---3---|
   H.                      Q       S  S    S  Q.
|-----------------------|------------18---20-21----------|
|-----------------------|---------18---------------------|
|-----------------------|-17-----------------------------|
|-15--------------------|--------------------------------|
|-----------------------|--------------------------------|
|-----------------------|--------------------------------|
|
|  H.                      H.
|-----------------------|--------------------------------|
|-----------------------|-18-----------------------------|
|-17--------------------|--------------------------------|
|-----------------------|--------------------------------|
|-----------------------|--------------------------------|
|-----------------------|--------------------------------|
|
|  E  S S S S E S S S S    E  S S  S    S     E  S S S S
|-----------------------|--------------------------------|
|--2--2-2-2-2-1-1-1-1-1-|--2--2-2--2----2-----1--1-1-1-1-|
|--1--1-1-1-1-1-1-1-1-1-|--1--1-1--1----1-----1--1-1-1-1-|
|--3--3-3-3-3-3-3-3-3-3-|--3--3-3--3----3-----3--3-3-3-3-|
|--3--3-3-3-3-3-3-3-3-3-|--3--3-3--3----3-----3--3-3-3-3-|
|--1--1-1-1-1-1-1-1-1-1-|--1--1-1--1----1-----1--1-1-1-1-|


   Q      S  S  Q      S  S    Q      S  S  Q      S  S
|---------------------------|--------------11-----------|
|-13-----11-----------------|--------11-13--------13-11-|
|-----------13-10-----10-12-|-13------------------------|
|---------------------------|---------------------------|
|---------------------------|---------------------------|
|---------------------------|---------------------------|
|
|  Q      S  S  Q      S  S    Q      S  S  Q      S  S
|-20------------------------|---------------------------|
|---------------------------|---------------------------|
|--------15-13--------15-17-|-13-----13-15-12-----12-13-|
|--------------15-----------|---------------------------|
|---------------------------|---------------------------|
|---------------------------|---------------------------|
|
|  E S S  S  S  E S S  S  S    E S S  S  S  E S S  S  S
|---------------------------|---------------------------|
|--2-2-2--2--2--1-1-1--1--1-|--4-4-4--4--4--4-4-4--4--4-|
|--1-1-1--1--1--1-1-1--1--1-|--5-5-5--5--5--3-3-3--3--3-|
|--3-3-3--3--3--3-3-3--3--3-|--6-6-6--6--6--5-5-5--5--5-|
|--3-3-3--3--3--3-3-3--3--3-|--6-6-6--6--6--5-5-5--5--5-|
|--1-1-1--1--1--1-1-1--1--1-|--4-4-4--4--4--3-3-3--3--3-|


           |---3---|
   Q       S  S    S  Q.             Q       S  S  Q.
|--------------------------------|-------------13---------------|
|-14------16-18---16-13----------|--14------16----13------------|
|--------------------------------|------------------------------|
|--------------------------------|------------------------------|
|--------------------------------|------------------------------|
|--------------------------------|------------------------------|
|
|  >
|  H.                               +H                 e    e
|--------------------------------|------------------------------|
|--------------------------------|------------------------------|
|-10-----------------------------|-(10)---------------10---10---|
|--------------------------------|------------------------------|
|--------------------------------|------------------------------|
|--------------------------------|------------------------------|
|
|  E  S S  S    S     E  S S S S     E  S S  S  S  E   S S  S S
|--------------------------------|------------------------------|
|--2--2-2--2----2-----1--1-1-1-1-|---2--2-2--2--2--1---1-1--1-1-|
|--1--1-1--1----1-----1--1-1-1-1-|---1--1-1--1--1--1---1-1--1-1-|
|--3--3-3--3----3-----3--3-3-3-3-|---3--3-3--3--3--3---3-3--3-3-|
|--3--3-3--3----3-----3--3-3-3-3-|---3--3-3--3--3--3---3-3--3-3-|
|--1--1-1--1----1-----1--1-1-1-1-|---1--1-1--1--1--1---1-1--1-1-|


    Q           S   S   Q       S  S    Q                S    S     Q                S   
S
|------------------------------------|---------------------------------------------------------||
|--14----------16--14--13------11-13-|-14---------------13---11--------------------------------||
|------------------------------------|-----------------------------13---------------12---10----||
|------------------------------------|---------------------------------------------------------||
|------------------------------------|---------------------------------------------------------||
|------------------------------------|---------------------------------------------------------||
|
|   e    e      e       e  E    S  S    Q                S    S     Q                S   
S
|------------------------------------|---------------------------------------------------------||
|------------------------------------|-16---------------16---16----18---------------16---18----||
|-(10)-(10)---(10)----(10)-----15-17-|---------------------------------------------------------||
|------------------------------------|---------------------------------------------------------||
|------------------------------------|---------------------------------------------------------||
|------------------------------------|---------------------------------------------------------||
|
|                                       TPTPTPTPTPTPTPTP TPTP TPTP  TPTPTPTPTPTPTPTP TPTPTPTP
|   E    S  S   S   S   E  S S  S  S    T T T T T T T T  T T  T T   T T T T T T T T  T T 
T T
|------------------------------------|---------------------------------------------------------||
|---2----2--2---2---2---1--1-1--1--1-|--xsxsxsxsxsxsxsxs=xsxs=xsx\-----------------------------||
|---1----1--1---1---1---1--1-1--1--1-|--xsxsxsxsxsxsxsxs=xsxs=xsx\--xsxsxsxsxsxsxsxs=xsxs=xsx\-||
|---3----3--3---3---3---3--3-3--3--3-|--xsxsxsxsxsxsxsxs=xsxs=xsx\--xsxsxsxsxsxsxsxs=xsxs=xsx\-||
|---3----3--3---3---3---3--3-3--3--3-|------------------------------xsxsxsxsxsxsxsxs=xsxs=xsx\-||
|---1----1--1---1---1---1--1-1--1--1-|---------------------------------------------------------||


   Chorus
    Q=97
    Gtr III
     S   S  S  S  S  S  S   S  S  S  S  S    S   S  S  S  S  S  E.  E.
||--17--13-------------15--12-------------|----------------------------|
||o--------15-----------------13----------|----------------------------|
||------------14-----------------12-------|----------------------------|
||---------------15-----------------14----|-15--14-12----12-14-15--15--|
||o-----------------17-----------------15-|-----------12---------------|
||----------------------------------------|----------------------------|
|
|   Gtr II
|    Q.                 Q.                   Q.                 E.  E.
||----------------------------------------|----------------------------|
||o---------------------------------------|----------------------------|
||---7------------------5-----------------|--3------------------7---5--|
||---7------------------5-----------------|--3------------------7---5--|
||o--5------------------3-----------------|--1------------------5---3--|
||----------------------------------------|----------------------------|
|
|   Gtr V
|    Q.                 Q.                   Q.                 E.  E.
||--17-----------------15-----------------|-13-------------------------|
||o-10------------------8-----------------|-15-----------------15--13--|
||--10------------------9-----------------|-10-----------------10---9--|
||--12-----------------10-----------------|--8-----------------12--10--|
||o---------------------------------------|----------------------------|
||----------------------------------------|----------------------------|


   S   S  S  S  S  S  S   S  S  S  S  S    Q.            +Q.
|-17--13-------------15--12-------------|------------------------||
|--------15-----------------15-13----13-|-15------------(15)----o||
|-----------14--------------------14----|------------------------||
|--------------15-----------------------|------------------------||
|-----------------17--------------------|-----------------------o||
|---------------------------------------|------------------------||
|
|  Q.                 Q.                   S  S S S S S   Q.
|---------------------------------------|------------------------||
|---------------------------------------|-----------------------o||
|--7------------------------------------|------------------------||
|--7------------------------------------|------------------------||
|--5-----------------/7-----------------|--8--7-5---------5-----o||
|---------------------------------------|---------8-6-8----------||
|
|  Q.                 Q.                   Q.            +Q.
|-17-----------------15-----------------|-13------------(13)-----||
|-10------------------8-----------------|-15------------(15)----o||
|-10------------------9-----------------|-10------------(10)-----||
|-12-----------------10-----------------|-12------------(12)-----||
|---------------------------------------|-----------------------o||
|---------------------------------------|------------------------||


     S   S  S  S  S  S  S   S  S  S  S  S    S   S  S  S  S  S  E.  E.
||--17--13-------------15--12-------------|-13--12----------------------|
||o--------15-----------------13----------|--------15-13----13-15--15---|
||------------14-----------------12-------|--------------14-------------|
||---------------15-----------------14----|-----------------------------|
||o-----------------17-----------------15-|-----------------------------|
||----------------------------------------|-----------------------------|
|
|    Q.                 Q.                   Q.                 Q.
||----------------------------------------|-----------------------------|
||o---------------------------------------|-----------------------------|
||---7------------------5-----------------|--3------------------7-------|
||---7------------------5-----------------|--3------------------7-------|
||o--5------------------3-----------------|--1------------------5-------|
||----------------------------------------|-----------------------------|
|
|    Q.                 Q.                   Q.                 Q.
||--17-----------------15-----------------|-13--------------------------|
||o-10------------------8-----------------|-15-----------------15-------|
||--10------------------9-----------------|-10-----------------10-------|
||--12-----------------10-----------------|--8-----------------12-------|
||o---------------------------------------|-----------------------------|
||----------------------------------------|-----------------------------|


                                                1.
   S   S  S  S  S  S  S   S  S  S  S  S    Q.    +Q.
|-17--13-------------15--12-------------|---------------||
|--------15-----------------15-13----13-|-15----(15)---o||
|-----------14--------------------14----|---------------||
|--------------15-----------------------|---------------||
|-----------------17--------------------|--------------o||
|---------------------------------------|---------------||
|
|  Q.                 Q.                   Q.     Q.
|---------------------------------------|---------------||
|---------------------------------------|--------------o||
|--7------------------5-----------------|--3------7-----||
|--7------------------5-----------------|--3------7-----||
|--5------------------3-----------------|--1------5----o||
|---------------------------------------|---------------||
|
|  Q.                 Q.                   Q.    +Q.
|-17-----------------15-----------------|-13----(13)----||
|-10------------------8-----------------|-15----(15)---o||
|-10------------------9-----------------|-10----(10)----||
|-12-----------------10-----------------|-12----(12)----||
|---------------------------------------|--------------o||
|---------------------------------------|---------------||


  2.
   Q   H       +H.         E  E H
|-----------|-----------|------------*|
|-15--13----|-(13)------|-13-13------*|
|-----------|-----------|------------*|
|-----------|-----------|------------*|
|-----------|-----------|------------*|
|-----------|-----------|------------*|
|
|  Q   H       +H.         E  E H
|-----------|-----------|------------*|
|-----------|-----------|------------*|
|--7---5----|--(5)------|------------*|
|--7---5----|--(5)------|--3--3------*|
|--5---3----|--(3)------|--3--3------*|
|-----------|-----------|--1--1------*|
|
|  Q   H       +H.         E  E H
|-----------|-----------|------------*|
|-15--13----|-(13)------|-13-13------*|
|-10---9----|--(9)------|-10-10------*|
|-12--10----|-(10)------|-10-10------*|
|-----------|-----------|--8--8------*|
|-----------|-----------|------------*|


--------------------------------------------------------------------------------


Duration Legend
---------------
W - whole; H - half; Q - quarter; E - 8th; S - 16th; T - 32nd; X - 64th; a - acciaccatura
+ - note tied to previous; . - note dotted; .. - note double dotted
Uncapitalized letters represent notes that are staccato (1/2 duration)
Irregular groupings are notated above the duration line
Duration letters will always appear directly above the note/fret number it represents the
duration for.  Duration letters with no fret number below them represent rests.  Multi-
bar rests are notated in the form Wxn, where n is the number of bars to rest for.  Low
melody durations appear below the staff

Tablature Legend
----------------
 h   - hammer-on
 p   - pull-off
 b   - bend
 pb  - pre-bend
 r   - bend release (if no number after the r, then release immediately)
 /\  - slide into or out of (from/to "nowhere")
 s   - legato slide
 S   - shift slide
 - natural harmonic
[n]  - artificial harmonic
n(n) - tapped harmonic
 ~   - vibrato
 tr  - trill
 T   - tap
 TP  - trem. picking
 PM  - palm muting
\n/  - tremolo bar dip; n = amount to dip
 \n  - tremolo bar down
 n/  - tremolo bar up
/n\  - tremolo bar inverted dip
 =   - hold bend; also acts as connecting device for hammers/pulls
 <> - volume swell (louder/softer)
 x   - on rhythm slash represents muted slash
 o   - on rhythm slash represents single note slash

Misc Legend
-----------
 |  - bar
||  - double bar
||o - repeat start
o|| - repeat end
*|  - double bar (ending)
 :  - bar (freetime)
 $  - Segno
 &  - Coda
Tempo markers -  = BPM(8/16=s8/s16), where s8 = swing 8ths, s16 = swing 16ths
comments
We did not receive enough feedback on this tab! Please rate:
print report bad tab
1 2 3 4 5
1 comment total.
+1 reply
Smashpuppet wrote on December 2 2009, 09:33 am

Awesome tab, dude!! 5 stars!

I want to post or [tab]
guest
You may want to rate the tab now too:
select rating
Please do not post tabs as comments. Select "correction" instead!