Oops, an error
Loading. Please wait.

My Enemy Tab

1,621 views 9 this week
no commentswrite comment
1 2 3 4 5
please rate
Autoscroll
+/-
esc
set tempo
stop
Contributor
Difficulty
Tuning
intermediate
D G C F A D
NEW! There's an official Ultimate Guitar app which is ideal
for learning songs when you're away from computer. Get the app
WARNING: You are trying to view
                                    content from Ultimate-Guitar.com
                                    in an unauthorized application,
                                    which is prohibited.

                                    Please use an official Ultimate
                                    Guitar Tabs application for iPhone,
                                    iPad or Android to access legitimate
                                    chords, guitar, bass, and drum tabs
                                    from Ultimate-Guitar.com database.

                                    Type "ultimate guitar tabs" in Apple
                                    App Store's or Android Market's
                                    search to find the application.
AMORPHIS - MY ENEMY 
(Album: The Beginning of Times)

Tempo ~120

Legend
s - slide
~ - vibrato
g - ghost note
> - accentuated note
M - palm mute
. - staccato


Tabbed to D tuning, but can be played with drop D.



Intro

E ||---------------------------|----------------------------|
B ||---------------------------|----------------------------|
G ||o------4--5-----------4----|----------------------------|
D ||o------------7.----7-------|--5.----5--7--5--4----------|
A ||-7.------------------------|--------------------7--5----|
E ||---------------------------|----------------------------|


|----------------------------|----------------------------|
|----------------------------|----------------------------|
|--------4--5-----------4----|--------------4-------------|
|--------------7.----7-------|--5.----5--7-----7--5--4----|
|--7.------------------------|----------------------------|
|----------------------------|----------------------------|


|----------------------------|----------------------------|
|----------------------------|----------------------------|
|--------4--5-----------4----|----------------------------|
|--------------7.----7-------|--5.----5--7--5--4----------|
|--7.------------------------|--------------------7--5----|
|----------------------------|----------------------------|


|----------------------------------------------------|
|----------------------------------------------------|
|--------------4-----5-------------------------------|
|--------------------------7-----------------5--7----|
|--7.------------------------------------------------|
|----------------------------------------------------|


|---------------------------------------------------|||
|---------------------------------------------------|||
|--4-----------------------------------------------o||| Repeat x2
|--------------------7--5--4-----------------------o|||
|---------------------------------------------------|||
|---------------------------------------------------|||


Verse

|---------------------------------------------------|
|---------------------------------------------------|
|o--------------------------------------------------|
|o2-----2--2--2-----2--2--2-----2--2--2-----2--2----|
|-2-----2--2--2-----2--2--2-----2--2--2-----2--2----|
|-0-----0--0--0-----0--0--0-----0--0--0-----0--0----|
  M     M  M  M     M  M  M     M  M  M     M  M

|----------------------------------------------------|
|----------------------------------------------------|
|----------------------------------------------------|
|--2-----2--2--2-----2--2--2-----2--2--3-------------|
|--2-----2--2--2-----2--2--2-----2--2--3-------------|
|--0-----0--0--0-----0--0--0-----0--0--1-------------|
   M     M  M  M     M  M  M     M  M

|----------------------------------------------------|
|----------------------------------------------------|
|----------------------------------------------------|
|--2-----2--2--2-----2--2--2-----2--2--2-----2--2----|
|--2-----2--2--2-----2--2--2-----2--2--2-----2--2----|
|--0-----0--0--0-----0--0--0-----0--0--0-----0--0----|
   M     M  M  M     M  M  M     M  M  M     M  M

|---------------------------------------------------||
|---------------------------------------------------||
|--------------------------------------------------o|| Repeat 3x
|--------------------------------------------------o||
|--------------------------3--3--3--3--2--2--2--2---||
|--0--0--0--0--3--3--3--3---------------------------||
   M  M  M  M  M  M  M  M  M  M  M  M  M  M  M  M


|----------------------------------------------------|
|----------------------------------------------------|
|----------------------------------------------------|
|--2-----------2--2--2--2--2-----------2--2--2--2----|
|--2-----------2--2--2--2--2-----------2--2--2--2----|
|--0-----------0--0--0--0--0-----------0--0--0--0----|
               M  M  M  M              M  M  M  M

|----------------------------------------------------|
|----------------------------------------------------|
|----------------------------------------------------|
|--2-----------2--2--2--2--2-----2-----3-----3-------|
|--2-----------2--2--2--2--2-----2-----3-----3-------|
|--0-----------0--0--0--0--0-----0-----1-----1-------|
               M  M  M  M

|----------------------------|
|----------------------------|
|----------------------------|
|--2-----2-----2-----2-------|
|--2-----2-----2-----2-------|
|--0-----0-----0-----0-------|


|----------------------------------------------------||
|----------------------------------------------------||
|----------------------------------------------------||
|--2-------------------------------------------------||
|--2-----------------------3--3--3--3--2--2--2--2----||
|--0-----------3--3--3--3----------------------------||


Chorus

||---------------------------|----------------------------|
||---------------------------|----------------------------|
||o------2--3-----------2----|----------------------------|
||o------------5.----5-------|--3.----3--5--3--2----------|
||-5.------------------------|--------------------5--3----|
||---------------------------|----------------------------|


|----------------------------|----------------------------|
|----------------------------|----------------------------|
|--------2--3-----------2----|--------------2-------------|
|--------------5.----5-------|--3.----3--5-----5--3--2----|
|--5.------------------------|----------------------------|
|----------------------------|----------------------------|


|----------------------------|----------------------------|
|----------------------------|----------------------------|
|--------2--3-----------2----|----------------------------|
|--------------5.----5-------|--3.----3--5--3--2----------|
|--5.------------------------|--------------------5--3----|
|----------------------------|----------------------------|


|----------------------------------------------------|
|----------------------------------------------------|
|--------------2-----3-------------------------------|
|--------------------------5-----------------3--5----|
|--5.------------------------------------------------|
|----------------------------------------------------|


|---------------------------------------------------|||
|---------------------------------------------------|||
|--2-----------------------------------------------o||| Repeat chorus 2x
|--------------------5--3--2-----------------------o|||
|---------------------------------------------------|||
|---------------------------------------------------|||


Verse

|---------------------------------------------------|
|---------------------------------------------------|
|o--------------------------------------------------|
|o2-----2--2--2-----2--2--2-----2--2--2-----2--2----|
|-2-----2--2--2-----2--2--2-----2--2--2-----2--2----|
|-0-----0--0--0-----0--0--0-----0--0--0-----0--0----|
  M     M  M  M     M  M  M     M  M  M     M  M

|----------------------------------------------------|
|----------------------------------------------------|
|----------------------------------------------------|
|--2-----2--2--2-----2--2--2-----2--2--3-------------|
|--2-----2--2--2-----2--2--2-----2--2--3-------------|
|--0-----0--0--0-----0--0--0-----0--0--1-------------|
   M     M  M  M     M  M  M     M  M

|----------------------------------------------------|
|----------------------------------------------------|
|----------------------------------------------------|
|--2-----2--2--2-----2--2--2-----2--2--2-----2--2----|
|--2-----2--2--2-----2--2--2-----2--2--2-----2--2----|
|--0-----0--0--0-----0--0--0-----0--0--0-----0--0----|
   M     M  M  M     M  M  M     M  M  M     M  M

|---------------------------------------------------||
|---------------------------------------------------||
|--------------------------------------------------o|| Repeat 3x
|--------------------------------------------------o||
|--------------------------3--3--3--3--2--2--2--2---||
|--0--0--0--0--3--3--3--3---------------------------||
   M  M  M  M  M  M  M  M  M  M  M  M  M  M  M  M

|----------------------------------------------------|
|----------------------------------------------------|
|----------------------------------------------------|
|--2-----------2--2--2--2--2-----------2--2--2--2----|
|--2-----------2--2--2--2--2-----------2--2--2--2----|
|--0-----------0--0--0--0--0-----------0--0--0--0----|
               M  M  M  M              M  M  M  M

|----------------------------------------------------|----------------|
|----------------------------------------------------|----------------|
|----------------------------------------------------|----------------|
|--2-----------2--2--2--2--2-----2-----3-----3-------|--2--2--2--2----|
|--2-----------2--2--2--2--2-----2-----3-----3-------|--2--2--2--2----|
|--0-----------0--0--0--0--0-----0-----1-----1-------|--0--0--0--0----|
               M  M  M  M

|----------------------------|
|----------------------------|
|----------------------------|
|----------------------------|
|--2--2--------3--3--2--2----|
|--0--0--3--3----------------|


|----------------------------------------------------|
|--5-----------------3--------------------3--3--5----|
|----------------------------------------------------|
|----------------------------------------------------|
|----------------------------------------------------|
|----------------------------------------------------|

                                       Let ring
|----------------------------|-----------5----------------|
|--6--------5--------3-------|--5-------------------------|
|----------------------------|----------------------------|
|----------------------------|----------------------------|
|----------------------------|----------------------------|
|----------------------------|----------------------------|


|----------------------------------------------------|
|-----------------------5----------------------------|
|-----------------------------5----------------------|
|-----------------------------------7----------------|
|----------------------------------------------------|
|----------------------------------------------------|


|----------------------------------------------------|
|--5-----------------3L-------------------3--3--5----|
|----------------------------------------------------|
|----------------------------------------------------|
|----------------------------------------------------|
|----------------------------------------------------|

                              Let both notes ring & a little slide at the end
|----------------------------|----------------------------|
|--6--------5--------3-------|--5-------------------------|
|----------------------------|----------------------------|
|----------------------------|-----------7----------------|
|----------------------------|----------------------------|
|----------------------------|----------------------------|


|----------------------------|
|----------------------------|
|----------------------------|
|----------------------------|
|----------------------------|
|----------------------------|


|----------------------------------------------------|
|--5-----------------3--------------------3--3--5----|
|----------------------------------------------------|
|----------------------------------------------------|
|----------------------------------------------------|
|----------------------------------------------------|

                              Let all three notes ring
|----------------------------|-----------5----------------|
|--6--------5--------3-------|--5-------------------------|
|----------------------------|----------------------------|
|----------------------------|--------------------7-------|
|----------------------------|----------------------------|
|----------------------------|----------------------------|

                        Let all notes ring again
|----------------------------------------------------|
|-----------------------5----------------------------|
|-----------------------------5----------------------|
|-----------------------------------7----------------|
|----------------------------------------------------|
|----------------------------------------------------|


|----------------------------------------------------|
|--5-----------------3-----------------------3--5----|
|----------------------------------------------------|
|----------------------------------------------------|
|----------------------------------------------------|
|----------------------------------------------------|

                                                             Slide down
|----------------------------------------------------|-------|-------||
|--6-----------------5-----------5-----------5--6----|--8----|-------||
|----------------------------------------------------|-------|-------||
|----------------------------------------------------|-------|-------||
|----------------------------------------------------|-------|--12---||
|----------------------------------------------------|-------|--12---||


Last chorus

|---------------------------|----------------------------|
|---------------------------|----------------------------|
|o------4--5-----------4----|----------------------------|
|o------------7.----7-------|--5.----5--7--5--4----------|
|-7.------------------------|--------------------7--5----|
|---------------------------|----------------------------|


|----------------------------|----------------------------|
|----------------------------|----------------------------|
|--------4--5-----------4----|--------------4-------------|
|--------------7.----7-------|--5.----5--7-----7--5--4----|
|--7.------------------------|----------------------------|
|----------------------------|----------------------------|


|----------------------------|----------------------------|
|----------------------------|----------------------------|
|--------4--5-----------4----|----------------------------|
|--------------7.----7-------|--5.----5--7--5--4----------|
|--7.------------------------|--------------------7--5----|
|----------------------------|----------------------------|


|----------------------------------------------------|
|----------------------------------------------------|
|--------------4-----5-------------------------------|
|--------------------------7-----------------5--7----|
|--7.------------------------------------------------|
|----------------------------------------------------|


|---------------------------------------------------||
|---------------------------------------------------||
|--4-----------------------------------------------o|| Repeat 2x
|--------------------7--5--4-----------------------o||
|---------------------------------------------------||
|---------------------------------------------------||


Outro

|---------------------------------------------------|
|---------------------------------------------------|
|---------------------------------------------------|
|-2-----2--2--2-----2--2--2-----2--2--2-----2--2----|
|-2-----2--2--2-----2--2--2-----2--2--2-----2--2----|
|-0-----0--0--0-----0--0--0-----0--0--0-----0--0----|
  M     M  M  M     M  M  M     M  M  M     M  M

|----------------------------------------------------|
|----------------------------------------------------|
|----------------------------------------------------|
|--2-----2--2--2-----2--2--2-----2--2--3-------------|
|--2-----2--2--2-----2--2--2-----2--2--3-------------|
|--0-----0--0--0-----0--0--0-----0--0--1-------------|
   M     M  M  M     M  M  M     M  M

|----------------------------------------------------|
|----------------------------------------------------|
|----------------------------------------------------|
|--2-----2--2--2-----2--2--2-----2--2--2-----2--2----|
|--2-----2--2--2-----2--2--2-----2--2--2-----2--2----|
|--0-----0--0--0-----0--0--0-----0--0--0-----0--0----|
   M     M  M  M     M  M  M     M  M  M     M  M

|---------------------------------------------------||
|---------------------------------------------------||
|---------------------------------------------------||
|---------------------------------------------------||
|--------------------------3--3--3--3--2--2--2--2---||
|--0--0--0--0--3--3--3--3---------------------------||
   M  M  M  M  M  M  M  M  M  M  M  M  M  M  M  M

|----------------------------------------------------|
|----------------------------------------------------|
|----------------------------------------------------|
|--2-----------2--2--2--2--2-----------2--2--2--2----|
|--2-----------2--2--2--2--2-----------2--2--2--2----|
|--0-----------0--0--0--0--0-----------0--0--0--0----|
               M  M  M  M              M  M  M  M

|----------------------------------------------------|
|----------------------------------------------------|
|----------------------------------------------------|
|--2-----------2--2--2--2--2-----2-----3-----3-------|
|--2-----------2--2--2--2--2-----2-----3-----3-------|
|--0-----------0--0--0--0--0-----0-----1-----1-------|
               M  M  M  M


|----------------------------|----------------------------||
|----------------------------|----------------------------||
|----------------------------|----------------------------||
|--2-----2-----2-----2-------|--2-------------------------||
|--2-----2-----2-----2-------|--2-------------------------||
|--0-----0-----0-----0-------|--0-------------------------||
                                >

comments
We did not receive enough feedback on this tab! Please rate:
print report bad tab
1 2 3 4 5
I want to post or [tab]
guest
You may want to rate the tab now too:
select rating
Please do not post tabs as comments. Select "correction" instead!