Oops, an error
Loading. Please wait.

My Kantele Acoustic Reprise Bass Tab

477 views 1 this week
no commentswrite comment
1 2 3 4 5
please rate
Autoscroll
+/-
esc
set tempo
stop
Contributor
Tuning
D G C F A D
WARNING: You are trying to view
                                    content from Ultimate-Guitar.com
                                    in an unauthorized application,
                                    which is prohibited.

                                    Please use an official Ultimate
                                    Guitar Tabs application for iPhone,
                                    iPad or Android to access legitimate
                                    chords, guitar, bass, and drum tabs
                                    from Ultimate-Guitar.com database.

                                    Type "ultimate guitar tabs" in Apple
                                    App Store's or Android Market's
                                    search to find the application.
#----------------------------------PLEASE NOTE---------------------------------#
#This file is the author's own work and represents their interpretation of the #
#song. You may only use this file for private study, scholarship, or research. #
#------------------------------------------------------------------------------#

MY KANTELE (ACOUSTIC REPRISE) (Bassline)
As recorded by Amorphis
(From the 1996 Album ELEGY)


Transcribed by Snakerf (Kemal Cagri Ozcan)

 

 

Gtr I (D G C F A D) - 'organ'
Gtr II (D G C F A D) - 'accordian'
Gtr III (D G C F A D) - 'vocal'
Gtr IV (D G C F) - 'bass'


 Intro
  Q=125
 6/4
  Gtr I
  Wx7               W
|----------------|-------------------------------|
|----------------|-------------------------------|
|----------------|-------------------------------|
|----------------|-------------------------------|
|----------------|-------------------------------|
|----------------|-------------------------------|
|
| Gtr IV
| Wx7               E E E  E E  E E +Q   E +E  E
|----------------|-10-9-7-10-9----7-(7)--7-(7)-7-|
|----------------|-------------10----------------|
|----------------|-------------------------------|
|----------------|-------------------------------|


 Bass And Drum Enter
  D5             Em7             Dmadd11/F        D5            A              G
  Gtr I
  H.             H.              H.               H.            H.             H.
|------------------------------|-1----------------------------|-5--------------3-------------|
|-3--------------5-------------|-3----------------3-----------|------------------------------|
|-2--------------7-------------|-0----------------2-----------|------------------------------|
|-0--------------5-------------|-3----------------0-----------|-7--------------5-------------|
|-5--------------7-------------|------------------5-----------|------------------------------|
|------------------------------|------------------------------|------------------------------|
|
| Gtr IV
|                                   |-3-|
| E  +E  E E E E Q   E E E +E    E  S S S E E E E Q   E E E E   E  +E  E E E E Q   E E E +E
|-2--(2)---2-------------------|------------------2-----------|-2--(2)---2-------------------|
|--------3---3---2---2-2-2-(2)-|-3--2h3p2p0-3-2---0---0-0-0-0-|--------3---3---2---2-2-2-(2)-|
|------------------------------|----------------3-------------|------------------------------|
|------------------------------|------------------------------|------------------------------|


  Bb       A                            D5             Em7
   Q        Q    Q    Q.      Q.        H.             H.
|-18-------17---17---17-----(17)\-----|-------------------------------|
|-------------------------------------|-3--------------5--------------|
|-------------------------------------|-2--------------7--------------|
|--8--------7----7----7------(7)\-----|-0--------------5--------------|
|-------------------------------------|-5--------------7--------------|
|-------------------------------------|-------------------------------|
|
|    |-3-|
|  E S S S  E E  E E  Q   E   E   E E   E  +E  E E E E Q   E E E E
|---------------------2---------------|-2--(2)---2--------------------|
|--3-2h3p2p=0-3--2----0---0---0---0-0-|--------3---3---2---2-2-2-2----|
|------------------3------------------|-------------------------------|
|-------------------------------------|-------------------------------|


  Dmadd11/F        D5            A              G
  H.               H.            H.             H.
|-1----------------------------|-5--------------3-------------|
|-3----------------3-----------|------------------------------|
|-0----------------2-----------|------------------------------|
|-3----------------0-----------|-7--------------5-------------|
|------------------5-----------|------------------------------|
|------------------------------|------------------------------|
|
|    |-3-|
| E  S S S E E E E Q   E E E E   E  +E  E E E E Q   E E E +E
|------------------2-----------|-2--(2)---2-------------------|
|-3--2h3p2p0-3-2---0---0-0-0-0-|--------3---3---2---2-2-2-(2)-|
|----------------3-------------|------------------------------|
|------------------------------|------------------------------|


  Bb       A
   Q        Q    Q    Q.      Q.
|-18-------17---17---17-----(17)\-------|
|---------------------------------------|
|---------------------------------------|
|--8--------7----7----7------(7)\-------|
|---------------------------------------|
|---------------------------------------|
|
|    |-3-|
|  E S S S  E E  E E  Q   E   E   E E
|---------------------2-----------------|
|--3-2h3p2p=0-3--2----0---0---0---0-0---|
|------------------3--------------------|
|---------------------------------------|


 Voice Starts
  Gtr III
  Q     Q   Q   H      E  E    Q       E E E E Q  Q   Q
|-------5---5---3------3--1--|-3-------3-1-3-5-5--5---5---|
|-3--------------------------|----------------------------|
|----------------------------|----------------------------|
|-------7---7---5------5--3--|-5-------5-3-5-7-7--7---7---|
|-5--------------------------|----------------------------|
|----------------------------|----------------------------|
|
|                                |-3-|
| E +E  E E E E Q  E E E +E    E S S S E E E E Q  E E E E
|-2-(2)---2------------------|-----------------2----------|
|-------3---3---2--2-2-2-(2)-|-3-2h3p2p0-3-2---0--0-0-0-0-|
|----------------------------|---------------3------------|
|----------------------------|----------------------------|


  Q     Q   Q   Q  Q.      E    Q       Q   Q   Q  E E +E  E
|-------5---5---3--3-------1--|-3-------3---5-------------------|
|-3---------------------------|-----------------3--3-3-(3)-3----|
|-----------------------------|---------------------------------|
|-------7---7---5--5-------3--|-5-------5---7-------------------|
|-5---------------------------|-----------------5--5-5-(5)-5----|
|-----------------------------|---------------------------------|
|
|                                 |-3-|
| E +E  E E E E Q  E  E E +E    E S S S E E E E Q  E E  E  E
|-2-(2)---2-------------------|-----------------2---------------|
|-------3---3---2--2--2-2-(2)-|-3-2h3p2p0-3-2---0--0-0--0--0----|
|-----------------------------|---------------3-----------------|
|-----------------------------|---------------------------------|


  Q     Q   Q   H      E  E    Q       Q   Q   Q  Q   E E
|-------5---5---3------3--1--|-3-------3---5---5--5---5---|
|-3--------------------------|--------------------------3-|
|----------------------------|----------------------------|
|-------7---7---5------5--3--|-5-------5---7---7--7---7---|
|-5--------------------------|--------------------------5-|
|----------------------------|----------------------------|
|
|                                |-3-|
| E +E  E E E E Q  E E E +E    E S S S E E E E Q  E E E E
|-2-(2)---2------------------|-----------------2----------|
|-------3---3---2--2-2-2-(2)-|-3-2h3p2p0-3-2---0--0-0-0-0-|
|----------------------------|---------------3------------|
|----------------------------|----------------------------|


  E  E  Q   Q   H      E  E    Q       Q   Q   E E H
|----5--5---5---3------3--1--|-3-------3---5------------------|
|-3--------------------------|-----------------3-3-3----------|
|----------------------------|--------------------------------|
|----7--7---7---5------5--3--|-5-------5---7------------------|
|-5--------------------------|-----------------5-5-5----------|
|----------------------------|--------------------------------|
|
|                                |-3-|
| E +E  E E E E Q  E E E +E    E S S S E E E E Q   E E E E
|-2-(2)---2------------------|-----------------2--------------|
|-------3---3---2--2-2-2-(2)-|-3-2h3p2p0-3-2---0---0-0-0-0----|
|----------------------------|---------------3----------------|
|----------------------------|--------------------------------|


 Bridge
  D              E               F                D
  Gtrs I, II
  H.             H.              H.               H.
|------------------------------|-1----------------------------|
|-3--------------5-------------|------------------3-----------|
|------------------------------|------------------------------|
|------------------------------|-3----------------------------|
|-5--------------7-------------|------------------5-----------|
|------------------------------|------------------------------|
|
|                                   |-3-|
| E  +E  E E E E Q   E E E +E    E  S S S E E E E Q   E E E E
|-2--(2)---2-------------------|------------------2-----------|
|--------3---3---2---2-2-2-(2)-|-3--2h3p2p0-3-2---0---0-0-0-0-|
|------------------------------|----------------3-------------|
|------------------------------|------------------------------|


  D              E               D5             C      D5
  H.             H.                H              Q      Q.     Q.
|------------------------------|-(17)-----------(16)---(17)\--------------|
|-3--------------5-------------|-(10)-------------------10\---------------|
|------------------------------|------------------------------------------|
|------------------------------|--12-------------12-----12----------------|
|-5--------------7-------------|------------------------------------------|
|------------------------------|------------------------------------------|
|
|                                     |-3-|
| E  +E  E E E E Q   E E E +E      E  S S S E E   E  E   Q    E E  E E
|-2--(2)---2-------------------|-------------------------2----------------|
|--------3---3---2---2-2-2-(2)-|---3--2h3p2p0-3---2------0----0-0--0-0----|
|------------------------------|---------------------3--------------------|
|------------------------------|------------------------------------------|


  Gtr III
  E  E  Q   E E Q  H           H.               Q  Q   E E   Q     Q.     E E E Q.      E
|-------5---5-5-3------------|-1---------------------------|-5-----5------5-3-1-3-------5--|
|-3--3-------------1---------|---------------------------3-|-------------------------------|
|----------------------------|-----------------------------|-------------------------------|
|-------7---7-7-5------------|-3---------------------------|-7-----7------7-5-3-5-------7--|
|-5--5-------------3---------|---------------------------5-|-------------------------------|
|----------------------------|-----------------------------|-------------------------------|
|
|                                 |-3-|
| E +E  E E E E Q  E E E +E    E  S S S E E E E Q  E E E E   E +E  E  E E E Q   E  E E +E
|-2-(2)---2------------------|------------------2----------|-2-(2)----2--------------------|
|-------3---3---2--2-2-2-(2)-|-3--2h3p2p0-3-2---0--0-0-0-0-|-------3----3---2---2--2-2-(2)-|
|----------------------------|----------------3------------|-------------------------------|
|----------------------------|-----------------------------|-------------------------------|


  H.               H      E E   Q     E E Q   Q  Q   E  E
|-1---------------------------|-------------------------------|
|------------------3--------1-|-3-----3-3-3---5--5---5--5-----|
|-----------------------------|-------------------------------|
|-3---------------------------|-------------------------------|
|------------------5--------3-|-5-----5-5-5---7--7---7--7-----|
|-----------------------------|-------------------------------|
|
|    |-3-|
| E  S S S E E E E Q  E E E E   E +E  E E E E Q  E E E +E
|------------------2----------|-2-(2)---2---------------------|
|-3--2h3p2p0-3-2---0--0-0-0-0-|-------3---3---2--2-2-2-(2)----|
|----------------3------------|-------------------------------|
|-----------------------------|-------------------------------|


  Q       Q   E E H      E E   Q     Q   Q   H      E  E
|-1----------------------5-3-|-5--------------------------|
|---------3---3-5-3----------|-------3---3---1------1--1--|
|----------------------------|----------------------------|
|-3----------------------7-5-|-7--------------------------|
|---------5---5-7-5----------|-------5---5---3------3--3--|
|----------------------------|----------------------------|
|
|   |-3-|
| E S S S E E E E Q  E E E E   E +E  E E E E Q  E E E +E
|-----------------2----------|-2-(2)---2------------------|
|-3-2h3p2p0-3-2---0--0-0-0-0-|-------3---3---2--2-2-2-(2)-|
|---------------3------------|----------------------------|
|----------------------------|----------------------------|


   H.               H.
|--1------------------------------|
|-------------------3-------------|
|---------------------------------|
|--3------------------------------|
|-------------------5-------------|
|---------------------------------|
|
|  Q    E  E  E  E  Q    Q.    E
|-12---12-12-12-12----------------|
|------------------10---10----10--|
|---------------------------------|
|---------------------------------|


 Interlude
  C            B             G           A
  Gtr II
   H.          H.            H.          H.
|--8-----------7-----------|-3-----------5-----------|
|--------------------------|-------------------------|
|--------------------------|-------------------------|
|-10-----------9-----------|-5-----------7-----------|
|--------------------------|-------------------------|
|--------------------------|-------------------------|
|
|  Q   E E E E Q   E E E E   Q   E E E E Q   E E E E
|--------------------------|-------------------------|
|--------------------------|-------------------------|
|--2---0-0-0---2---2-2-2---|-------------------------|
|--------------------------|-4---4-4-4---2---2-2-2---|


  C            B             G           A
   H.          H.            H.            H        Q
|--8-----------7-----------|-3-----------(17)\-------------|
|--------------------------|-------------(22)\-------------|
|--------------------------|-------------------------------|
|-10-----------9-----------|-5-------------7---------------|
|--------------------------|-------------------------------|
|--------------------------|-------------------------------|
|
|  Q   E E E E Q   E E E E   Q   E E E E   Q    E E E E
|--------------------------|-------------------------------|
|--------------------------|-------------------------------|
|--2---0-0-0---2---2-2-2---|-------------------------------|
|--------------------------|-4---4-4-4-----2----2-2-2------|


  C            B             G           A
   H.          H.            H.          H.
|--8-----------7-----------|-3-----------5-----------|
|--------------------------|-------------------------|
|--------------------------|-------------------------|
|-10-----------9-----------|-5-----------7-----------|
|--------------------------|-------------------------|
|--------------------------|-------------------------|
|
|  Q   E E E E Q   E E E E   Q   E E E E Q   E E E E
|--------------------------|-------------------------|
|--------------------------|-------------------------|
|--2---0-0-0---2---2-2-2---|-------------------------|
|--------------------------|-4---4-4-4---2---2-2-2---|


  C            B             G           A
                                                         3/4
   H.          H.            H.            H        Q     H.
|--8-----------7-----------|-3-----------(17)\----------|-------|
|--------------------------|-------------(22)\----------|-------|
|--------------------------|----------------------------|-------|
|-10-----------9-----------|-5-------------7------------|-------|
|--------------------------|----------------------------|-------|
|--------------------------|----------------------------|-------|
|
|  Q   E E E E Q   E E E E   Q   E E E E   Q    E E E E   H.
|--------------------------|----------------------------|-------|
|--------------------------|----------------------------|-------|
|--2---0-0-0---2---2-2-2---|----------------------------|-------|
|--------------------------|-4---4-4-4-----2----2-2-2---|-------|


 6/4
  Gtr II
                           |--3--|
   H.         H       +E   S  S  S    H       Q    H.
|----------------------------------|-------------------------|
|----------------------------------|-------------------------|
|----------------------------------|-------------------------|
|-12-------------------------------|---------14---12---------|
|------------15------(15)-14-12----|-12----------------------|
|-------------------------------15-|-------------------------|
|
|  Q.   Q  E  Q.   Q       E          Q.   Q    E  Q.   Q  E
|--5----5--5--7----7-------7-------|--8----8----8--5----5--5-|
|----------------------------------|-------------------------|
|----------------------------------|-------------------------|
|----------------------------------|-------------------------|


                                 |--3--|
   a  H.         H.           E  S  S  S  E  E  E  E  Q.    Q   a  E
|--------------------------|-----------------------------------------|
|--------------------------|-----------------------------------13-15-|
|-12-14---------12---------|-------------------------------14--------|
|--------------------------|-15-14-12-15-12-15-14----12--------------|
|--------------------------|----------------------15-----------------|
|--------------------------|-----------------------------------------|
|
|     Q.   Q  E  Q.   Q  E    Q           E  E  E  E  Q.    Q      E
|-----5----5--5--7----7--7-|-12----------12-12-12-12-----------------|
|--------------------------|-------------------------10----10-----10-|
|--------------------------|-----------------------------------------|
|--------------------------|-----------------------------------------|


                             |--3--|
   H.           H       +E   S  S  S    Q.    Q   E  H.
|------------------------------------|-------------------------|
|-15-----------13------(13)----------|-------------------------|
|---------------------------15-14-12-|-14----12----------------|
|------------------------------------|-----------15-12---------|
|------------------------------------|-------------------------|
|------------------------------------|-------------------------|
|
|  Q.    Q   E  Q.   Q       E          Q.    Q   E  Q.   Q  E
|---------------7----7-------7-------|--8-----8---8--5----5--5-|
|-10----10--10-----------------------|-------------------------|
|------------------------------------|-------------------------|
|------------------------------------|-------------------------|


                              |--3--|
   H.         H.           E  S  S  S  E  E  E  E  H.
|-----------------------|-----------------------------------------|
|-----------------------|-----------------------------------------|
|-----------------------|-----------------------------------------|
|-12---------14---------|-15-14-12-15-12-15-14----12--------------|
|-----------------------|----------------------15-----------------|
|-----------------------|-----------------------------------------|
|
|  Q.   Q  E  Q.   Q  E    Q           E  E  E  E  Q.    Q   E
|--5----5--5--7----7--7-|-12----------12-12-12-12-----------------|
|-----------------------|-------------------------10----10--10----|
|-----------------------|-----------------------------------------|
|-----------------------|-----------------------------------------|


 Verse
  Gtr III
  E  E  Q   E E Q  H           H           Q   Q  Q   E E
|-------5---5-5-3------------|-1--------------------------|
|-3--3-------------1---------|-------------3------------3-|
|----------------------------|----------------------------|
|-------7---7-7-5------------|-3--------------------------|
|-5--5-------------3---------|-------------5------------5-|
|----------------------------|----------------------------|
|
|                                |-3-|
| E +E  E E E E Q  E E E +E    E S S S E E E E Q  E E E E
|-2-(2)---2------------------|-----------------2----------|
|-------3---3---2--2-2-2-(2)-|-3-2h3p2p0-3-2---0--0-0-0-0-|
|----------------------------|---------------3------------|
|----------------------------|----------------------------|


  Q     Q.     E E E Q.      E    H.               H      E E
|-5-----5------5-3-1-3-------5--|-1------------------------------|
|-------------------------------|------------------3--------1----|
|-------------------------------|--------------------------------|
|-7-----7------7-5-3-5-------7--|-3------------------------------|
|-------------------------------|------------------5--------3----|
|-------------------------------|--------------------------------|
|
|                                    |-3-|
| E +E  E  E E E Q   E  E E +E    E  S S S E E E E Q  E E E E
|-2-(2)----2--------------------|------------------2-------------|
|-------3----3---2---2--2-2-(2)-|-3--2h3p2p0-3-2---0--0-0-0-0----|
|-------------------------------|----------------3---------------|
|-------------------------------|--------------------------------|


  Q     E E Q   Q  Q   E  E    Q       Q   E E H      E E
|----------------------------|-1----------------------5-3-|
|-3-----3-3-3---5--5---5--5--|---------3---3-5-3----------|
|----------------------------|----------------------------|
|----------------------------|-3----------------------7-5-|
|-5-----5-5-5---7--7---7--7--|---------5---5-7-5----------|
|----------------------------|----------------------------|
|
|                                |-3-|
| E +E  E E E E Q  E E E +E    E S S S E E E E Q  E E E E
|-2-(2)---2------------------|-----------------2----------|
|-------3---3---2--2-2-2-(2)-|-3-2h3p2p0-3-2---0--0-0-0-0-|
|----------------------------|---------------3------------|
|----------------------------|----------------------------|


  Q     Q   Q   H      E  E    H.               H.
|-5--------------------------|-1-------------------------------|
|-------3---3---1------1--1--|------------------3--------------|
|----------------------------|---------------------------------|
|-7--------------------------|-3-------------------------------|
|-------5---5---3------3--3--|------------------5--------------|
|----------------------------|---------------------------------|
|
|                                 |-3-|
| E +E  E E E E Q  E E E +E    E  S S S E E E E Q   E E E E
|-2-(2)---2------------------|------------------2--------------|
|-------3---3---2--2-2-2-(2)-|-3--2h3p2p0-3-2---0---0-0-0-0----|
|----------------------------|----------------3----------------|
|----------------------------|---------------------------------|


  D           E             F           D
  Gtr II
  H.          H.            H.          H.
|-------------------------|-1-----------------------|
|-3-----------5-----------|-------------3-----------|
|-------------------------|-------------------------|
|-------------------------|-3-----------------------|
|-5-----------7-----------|-------------5-----------|
|-------------------------|-------------------------|
|
| Q   E E E E Q   E E E E   Q   E E E E Q   E E E E
|-------------------------|-------------------------|
|-------------------------|-------------------------|
|-2---0-0-0-x-2---2-2-2-x-|-------------------------|
|-------------------------|-4---4-4-4-x-2---2-2-2-x-|


  D           E             D5      C    D5
  H.          H.             H       Q    Q.    Q.
|-------------------------|-17------16---17\--------------|
|-3-----------5-----------|-10-----------10\--------------|
|-------------------------|-------------------------------|
|-------------------------|-12------12---12---------------|
|-5-----------7-----------|-------------------------------|
|-------------------------|-------------------------------|
|
| Q   E E E E Q   E E E E    Q  E E  E E  Q   E E  E E
|-------------------------|-------------------------------|
|-------------------------|-------------------------------|
|-2---0-0-0-x-2---2-2-2---|-------------------------------|
|-------------------------|--4--4-4--4-x--2---2-2--2------|


  D           E             F           D
  H.          H.            H.          H.
|-------------------------|-1-----------------------|
|-3-----------5-----------|-------------3-----------|
|-------------------------|-------------------------|
|-------------------------|-3-----------------------|
|-5-----------7-----------|-------------5-----------|
|-------------------------|-------------------------|
|
| Q   E E E E Q   E E E E   Q   E E E E Q   E E E E
|-------------------------|-------------------------|
|-------------------------|-------------------------|
|-2---0-0-0-x-2---2-2-2-x-|-------------------------|
|-------------------------|-4---4-4-4-x-2---2-2-2-x-|


  D           E             D5      C    D5
                                                        3/4
  H.          H.             H       Q    Q.    Q.       H.
|-------------------------|-17------16---17\-----------|-------|
|-3-----------5-----------|-10-------9---10\-----------|-------|
|-------------------------|----------------------------|-------|
|-------------------------|-12------12---12------------|-------|
|-5-----------7-----------|----------------------------|-------|
|-------------------------|----------------------------|-------|
|
| Q   E E E E Q   E E E E    Q  E E  E E  Q   E E  E E   H.
|-------------------------|----------------------------|-------|
|-------------------------|----------------------------|-------|
|-2---0-0-0-x-2---2-2-2-x-|----------------------------|-------|
|-------------------------|--4--4-4--4-x--2---2-2--2-x-|-------|


  Q=135
 4/4
  Wx15
|---------|
|---------|
|---------|
|---------|
|---------|
|---------|


                     Outro
  E E E E E E E E     E E E E E E E E   E E E E E E E E   E E E E E E E E
|-3-3-3-3-3-3-3-3-||--5-5-5-5-5-5-5-5-|-3-3-3-3-3-3-3-3-|-5-5-5-5-5-5-5---|
|-----------------||o-----------------|-----------------|---------------3-|
|-----------------||o-----------------|-----------------|-----------------|
|-----------------||------------------|-----------------|-----------------|


  E E E E E E E E   E E E E E E E E   E E E E E E E E   E E E E E E E E
|-----------------|-8-8-8-8-8-8-8-7-|-7-7-7-7-7-7-7-7-|-5-5-5-5-5-5-5-3-|
|-3-3-3-3-3-3-3-3-|-----------------|-----------------|-----------------|
|-----------------|-----------------|-----------------|-----------------|
|-----------------|-----------------|-----------------|-----------------|


  E E E E E E E E  7x E E E E E E E E   E E E E E E E E   E E E E E E E E
|-3-3-3-3-3-3-3-3--||-5-5-5-5-5-5-5-3-|-3-3-3-3-3-3-3-3-|-5-5-5-5-5-5-5---|
|-----------------o||-----------------|-----------------|---------------3-|
|-----------------o||-----------------|-----------------|-----------------|
|------------------||-----------------|-----------------|-----------------|


  E E E E E E E E   E E E E E E E E   E E E E E E E E   E E E E E E E E
|-----------------|-8-8-8-8-8-8-8-7-|-7-7-7-7-7-7-7-7-|-5-5-5-5-5-5-5-3-|
|-3-3-3-3-3-3-3-3-|-----------------|-----------------|-----------------|
|-----------------|-----------------|-----------------|-----------------|
|-----------------|-----------------|-----------------|-----------------|


  E E E E E E E E   E E E E E E E E   E E E E E E E E   E E E E E E E E
|-3-3-3-3-3-3-3-3-|-5-5-5-5-5-5-5-3-|-3-3-3-3-3-3-3-3-|-5-5-5-5-5-5-5---|
|-----------------|-----------------|-----------------|---------------3-|
|-----------------|-----------------|-----------------|-----------------|
|-----------------|-----------------|-----------------|-----------------|


  E E E E E E E E   E E E E E E E E   E E E E E E E E   E E E E E E E E
|-----------------|-8-8-8-8-8-8-8-7-|-7-7-7-7-7-7-7-7-|-5-5-5-5-5-5-5-3-|
|-3-3-3-3-3-3-3-3-|-----------------|-----------------|-----------------|
|-----------------|-----------------|-----------------|-----------------|
|-----------------|-----------------|-----------------|-----------------|


  E E E E E E E E   E E E E E E E E   E E E E E E E E
|-3-3-3-3-3-3-3-3-|-5-5-5-5-5-5-5-3-|-3-3-3-3-3-3-3-3-|
|-----------------|-----------------|-----------------|
|-----------------|-----------------|-----------------|
|-----------------|-----------------|-----------------|


  E E E E E E E E   E E E E E E E E
|-5-5-5-5-5-5-5---|-----------------*|
|---------------3-|-3-3-3-3-3-3-3-3-*|
|-----------------|-----------------*|
|-----------------|-----------------*|




--------------------------------------------------------------------------------


Duration Legend
---------------
W - whole; H - half; Q - quarter; E - 8th; S - 16th; T - 32nd; X - 64th; a - acciaccatura
+ - note tied to previous; . - note dotted; .. - note double dotted
Uncapitalized letters represent notes that are staccato (1/2 duration)
Irregular groupings are notated above the duration line
Duration letters will always appear directly above the note/fret number it represents the
duration for.  Duration letters with no fret number below them represent rests.  Multi-
bar rests are notated in the form Wxn, where n is the number of bars to rest for.  Low
melody durations appear below the staff

Tablature Legend
----------------
 h   - hammer-on
 p   - pull-off
 b   - bend
 pb  - pre-bend
 r   - bend release (if no number after the r, then release immediately)
 /\  - slide into or out of (from/to "nowhere")
 s   - legato slide
 S   - shift slide
 - natural harmonic
[n]  - artificial harmonic
n(n) - tapped harmonic
 ~   - vibrato
 tr  - trill
 T   - tap
 TP  - trem. picking
 PM  - palm muting
\n/  - tremolo bar dip; n = amount to dip
 \n  - tremolo bar down
 n/  - tremolo bar up
/n\  - tremolo bar inverted dip
 =   - hold bend; also acts as connecting device for hammers/pulls
 <> - volume swell (louder/softer)
 x   - on rhythm slash represents muted slash
 o   - on rhythm slash represents single note slash

Misc Legend
-----------
 |  - bar
||  - double bar
||o - repeat start
o|| - repeat end
*|  - double bar (ending)
 :  - bar (freetime)
 $  - Segno
 &  - Coda
Tempo markers -  = BPM(8/16=s8/s16), where s8 = swing 8ths, s16 = swing 16ths

comments
We did not receive enough feedback on this tab! Please rate:
1 2 3 4 5
I want to post or [tab]
guest
You may want to rate the tab now too:
select rating
Please do not post tabs as comments. Select "correction" instead!