Oops, an error
Loading. Please wait.

My Kantele Acoustic Reprise Tab

ver1
ver1

Whole song

Interactive

More versions @911Tabs.com
4,653 views 6 this week
no commentswrite comment
1 2 3 4 5
please rate
Autoscroll
+/-
esc
set tempo
stop
Contributor
Tuning
D G C F A D
NEW! There's an official Ultimate Guitar app which is ideal
for learning songs when you're away from computer. Get the app
WARNING: You are trying to view
                                    content from Ultimate-Guitar.com
                                    in an unauthorized application,
                                    which is prohibited.

                                    Please use an official Ultimate
                                    Guitar Tabs application for iPhone,
                                    iPad or Android to access legitimate
                                    chords, guitar, bass, and drum tabs
                                    from Ultimate-Guitar.com database.

                                    Type "ultimate guitar tabs" in Apple
                                    App Store's or Android Market's
                                    search to find the application.
#----------------------------------PLEASE NOTE---------------------------------#
#This file is the author's own work and represents their interpretation of the #
#song. You may only use this file for private study, scholarship, or research. #
#------------------------------------------------------------------------------#

MY KANTELE (ACOUSTIC REPRISE)
As recorded by Amorphis
(From the 1996 Album ELEGY)


Transcribed by Snakerf (Kemal Cagri Ozcan)

 

 

Gtr I (D G C F A D) - 'steel'
Gtr II (D G C F A D) - 'steel'
Gtr III (D G C F A D) - 'sitar'


 Intro
  Q=125
  D5 DmG5        D5
 6/4
  Gtr I
  Q  E S S E E E E E E E E
|--------------------------|
|-3--3-3---------3-----3---|
|-2--2-0h2p0-------0-----0-|
|-0--3-------3-2-----2-----|
|--------------------------|
|--------------------------|


  N.C.            D5               DmG5
    |-3-|
  E S S S E E E E E E E E E E   Q  E S S E E E E E E E E
|-----------------------------|--------------------------|
|-------------------3-----3---|------3---------3-----3---|
|---------------------2-----2-|------0h2p0-------0-----0-|
|-3-2h3p2p0-3-2---0-----0-----|-0--3-------3-2-----2-----|
|---------------3-------------|--------------------------|
|-----------------------------|--------------------------|


  N.C.          D5
                              G
    |-3-|
  E S S S E E E E E E E E E E
|-----------------------------|
|-------------------3-----3---|
|---------------------2-----2-|
|-3-2h3p2p0-3-2---0-----0-----|
|---------------3-------------|
|-----------------------------|


  D5 DmG5        D5          N.C.              D5
 trs I, II
                               |-3-|
  Q  E S S E E E E E E E E   E S S S E E E E E E E E E E
|--------------------------|------------------------------|
|-3--3-3---------3-----3---|-------------------3-----3----|
|-2--2-0h2p0-------0-----0-|---------------------2-----2--|
|-0--3-------3-2-----2-----|-3-2h3p2p0-3-2---0-----0------|
|--------------------------|---------------3--------------|
|--------------------------|------------------------------|


  D5 DmG5        D5          N.C.              D5
                               |-3-|
  Q  E S S E E E E E E E E   E S S S E E E E E E E E E E
|--------------------------|-----------------------------||
|-3--3-3---------3-----3---|-------------------3-----3---||
|-2--2-0h2p0-------0-----0-|---------------------2-----2-||
|-0--3-------3-2-----2-----|-3-2h3p2p0-3-2---0-----0-----||
|--------------------------|---------------3-------------||
|--------------------------|-----------------------------||


 Bass And Drum Enter
  D5 DmG5        D5
  Q  E S S E E E E E E E E
|----------------------------|
|-3--3-3---------3-----3-----|
|-2--2-0h2p0-------0-----0---|
|-0--3-------3-2-----2-------|
|----------------------------|
|----------------------------|


  N.C.              D5
    |-3-|
  E S S S E E E E E E E E E E
|-----------------------------|
|-------------------3-----3---|
|---------------------2-----2-|
|-3-2h3p2p0-3-2---0-----0-----|
|---------------3-------------|
|-----------------------------|


  D5 DmG5        D5          N.C.              D5
                               |-3-|
  Q  E S S E E E E E E E E   E S S S E E E E E E E E E E
|--------------------------|------------------------------|
|-3--3-3---------3-----3---|-------------------3-----3----|
|-2--2-0h2p0-------0-----0-|---------------------2-----2--|
|-0--3-------3-2-----2-----|-3-2h3p2p0-3-2---0-----0------|
|--------------------------|---------------3--------------|
|--------------------------|------------------------------|


  D5 DmG5        D5          N.C.              D5
                               |-3-|
  Q  E S S E E E E E E E E   E S S S E E E E E E E E E E
|--------------------------|-----------------------------|
|-3--3-3---------3-----3---|-------------------3-----3---|
|-2--2-0h2p0-------0-----0-|---------------------2-----2-|
|-0--3-------3-2-----2-----|-3-2h3p2p0-3-2---0-----0-----|
|--------------------------|---------------3-------------|
|--------------------------|-----------------------------|


  D5 DmG5        D5
  Q  E S S E E E E E E E E
|----------------------------|
|-3--3-3---------3-----3-----|
|-2--2-0h2p0-------0-----0---|
|-0--3-------3-2-----2-------|
|----------------------------|
|----------------------------|


  N.C.              D5
    |-3-|
  E S S S E E E E E E E E E E
|-----------------------------||
|-------------------3-----3---||
|---------------------2-----2-||
|-3-2h3p2p0-3-2---0-----0-----||
|---------------3-------------||
|-----------------------------||


 Voice Starts
  D5 DmG5        D5          N.C.              D5
                               |-3-|
  Q  E S S E E E E E E E E   E S S S E E E E E E E E E E
|--------------------------|------------------------------|
|-3--3-3---------3-----3---|-------------------3-----3----|
|-2--2-0h2p0-------0-----0-|---------------------2-----2--|
|-0--3-------3-2-----2-----|-3-2h3p2p0-3-2---0-----0------|
|--------------------------|---------------3--------------|
|--------------------------|------------------------------|


  D5 DmG5        D5          N.C.              D5
                               |-3-|
  Q  E S S E E E E E E E E   E S S S E E E E E E E E E E
|--------------------------|-----------------------------|
|-3--3-3---------3-----3---|-------------------3-----3---|
|-2--2-0h2p0-------0-----0-|---------------------2-----2-|
|-0--3-------3-2-----2-----|-3-2h3p2p0-3-2---0-----0-----|
|--------------------------|---------------3-------------|
|--------------------------|-----------------------------|


  D5 DmG5        D5
  Q  E S S E E E E E E E E
|----------------------------|
|-3--3-3---------3-----3-----|
|-2--2-0h2p0-------0-----0---|
|-0--3-------3-2-----2-------|
|----------------------------|
|----------------------------|


  N.C.              D5
    |-3-|
  E S S S E E E E E E E E E E
|-----------------------------|
|-------------------3-----3---|
|---------------------2-----2-|
|-3-2h3p2p0-3-2---0-----0-----|
|---------------3-------------|
|-----------------------------|


  D5 DmG5        D5          N.C.              D5
                               |-3-|
  Q  E S S E E E E E E E E   E S S S E E E E E E E E E E
|--------------------------|------------------------------|
|-3--3-3---------3-----3---|-------------------3-----3----|
|-2--2-0h2p0-------0-----0-|---------------------2-----2--|
|-0--3-------3-2-----2-----|-3-2h3p2p0-3-2---0-----0------|
|--------------------------|---------------3--------------|
|--------------------------|------------------------------|


  Bridge
   D5 DmG5        D5          N.C.              D5
                                |-3-|
   Q  E S S E E E E E E E E   E S S S E E E E E E E E E E
||--------------------------|-----------------------------|
||-3--3-3---------3-----3---|-------------------3-----3---|
||-2--2-0h2p0-------0-----0-|---------------------2-----2-|
||-0--3-------3-2-----2-----|-3-2h3p2p0-3-2---0-----0-----|
||--------------------------|---------------3-------------|
||--------------------------|-----------------------------|


    D5 DmG5        D5          N.C.              D5
                                 |-3-|
    Q  E S S E E E E E E E E   E S S S E E E E E E E E E E  5x
||---------------------------|------------------------------||
||o-3--3-3---------3-----3---|-------------------3-----3---o||
||--2--2-0h2p0-------0-----0-|---------------------2-----2--||
||--0--3-------3-2-----2-----|-3-2h3p2p0-3-2---0-----0------||
||o--------------------------|---------------3-------------o||
||---------------------------|------------------------------||


  Interlude
   D5            C             Bb5         A5
   E  E E E  E E E E E E E E   E E E E E E E E E E E E
||---------------------------|-------------------------|
||---10-----10-----8-----8---|---6-----6-------5-----5-|
||------7------7-----5-----5-|-----3-----3---2-----2---|
||-0------0------0-----0-----|-0-----0-----0-----0-----|
||---------------------------|-------------------------|
||---------------------------|-------------------------|
|
|  Gtr II
|  Q    E E  E E Q   E E E E   Q   E E E E Q   E E E E
||-5----5-5--5-x-------------|-------------------------|
||-3----3-3--3-x-1---1-1-1-x-|-------------------------|
||-2----2-2--2-x-0---0-0-0-x-|-3---3-3-3-x-2---2-2-2-x-|
||-0----0-0--0-x-2---2-2-2-x-|-3---3-3-3-x-2---2-2-2-x-|
||---------------3---3-3-3-x-|-1---1-1-1-x-0---0-0-0-x-|
||---------------------------|-------------------------|


  D5            C             Bb5         A5
  E  E E E  E E E E E E E E   E E E E E E E E E E E E
|---------------------------|---------------------------|
|---10-----10-----8-----8---|---6-----6-------5-----5---|
|------7------7-----5-----5-|-----3-----3---2-----2-----|
|-0------0------0-----0-----|-0-----0-----0-----0-------|
|---------------------------|---------------------------|
|---------------------------|---------------------------|
|
| Q    E E  E E Q   E E E E   Q   E E E E Q   E E E E
|-5----5-5--5-x-------------|---------------------------|
|-3----3-3--3-x-1---1-1-1-x-|---------------------------|
|-2----2-2--2-x-0---0-0-0-x-|-3---3-3-3-x-2---2-2-2-x---|
|-0----0-0--0-x-2---2-2-2-x-|-3---3-3-3-x-2---2-2-2-x---|
|---------------3---3-3-3-x-|-1---1-1-1-x-0---0-0-0-x---|
|---------------------------|---------------------------|


  D5            C             Bb5         A5
  E  E E E  E E E E E E E E   E E E E E E E E E E E E
|---------------------------|-------------------------|
|---10-----10-----8-----8---|---6-----6-------5-----5-|
|------7------7-----5-----5-|-----3-----3---2-----2---|
|-0------0------0-----0-----|-0-----0-----0-----0-----|
|---------------------------|-------------------------|
|---------------------------|-------------------------|
|
| Q    E E  E E Q   E E E E   Q   E E E E Q   E E E E
|-5----5-5--5-x-------------|-------------------------|
|-3----3-3--3-x-1---1-1-1-x-|-------------------------|
|-2----2-2--2-x-0---0-0-0-x-|-3---3-3-3-x-2---2-2-2-x-|
|-0----0-0--0-x-2---2-2-2-x-|-3---3-3-3-x-2---2-2-2-x-|
|---------------3---3-3-3-x-|-1---1-1-1-x-0---0-0-0-x-|
|---------------------------|-------------------------|


  D5            C             Bb5         A5
                                                   3/4
  E  E E E  E E E E E E E E   E E E E E E H.        H.
|---------------------------|---------------------|-------|
|---10-----10-----8-----8---|---6-----6-----------|-------|
|------7------7-----5-----5-|-----3-----3---------|-------|
|-0------0------0-----0-----|-0-----0-----0-------|-------|
|---------------------------|---------------------|-------|
|---------------------------|---------------------|-------|
|
| Q    E E  E E Q   E E E E   Q   E E E E H.        H.
|-5----5-5--5-x-------------|---------------------|-------|
|-3----3-3--3-x-1---1-1-1-x-|---------------------|-------|
|-2----2-2--2-x-0---0-0-0-x-|-3---3-3-3-x-2-------|-------|
|-0----0-0--0-x-2---2-2-2-x-|-3---3-3-3-x-2-------|-------|
|---------------3---3-3-3-x-|-1---1-1-1-x-0-------|-------|
|---------------------------|---------------------|-------|


  D5 DmG5        D5          N.C.              D5
 6/4
  Gtrs I, II
                               |-3-|
  Q  E S S E E E E E E E E   E S S S E E E E E E E E E E
|--------------------------|-----------------------------|
|-3--3-3---------3-----3---|-------------------3-----3---|
|-2--2-0h2p0-------0-----0-|---------------------2-----2-|
|-0--3-------3-2-----2-----|-3-2h3p2p0-3-2---0-----0-----|
|--------------------------|---------------3-------------|
|--------------------------|-----------------------------|


    D5 DmG5        D5          N.C.              D5
                                 |-3-|
    Q  E S S E E E E E E E E   E S S S E E E E E E E E E E  3x
||---------------------------|------------------------------||
||o-3--3-3---------3-----3---|-------------------3-----3---o||
||--2--2-0h2p0-------0-----0-|---------------------2-----2--||
||--0--3-------3-2-----2-----|-3-2h3p2p0-3-2---0-----0------||
||o--------------------------|---------------3-------------o||
||---------------------------|------------------------------||


  Verse
   D5 DmG5        D5          N.C.              D5
                                |-3-|
   Q  E S S E E E E E E E E   E S S S E E E E E E E E E E
||--------------------------|-----------------------------|
||-3--3-3---------3-----3---|-------------------3-----3---|
||-2--2-0h2p0-------0-----0-|---------------------2-----2-|
||-0--3-------3-2-----2-----|-3-2h3p2p0-3-2---0-----0-----|
||--------------------------|---------------3-------------|
||--------------------------|-----------------------------|


    D5 DmG5        D5          N.C.              D5
                                 |-3-|
    Q  E S S E E E E E E E E   E S S S E E E E E E E E E E  3x
||---------------------------|------------------------------||
||o-3--3-3---------3-----3---|-------------------3-----3---o||
||--2--2-0h2p0-------0-----0-|---------------------2-----2--||
||--0--3-------3-2-----2-----|-3-2h3p2p0-3-2---0-----0------||
||o--------------------------|---------------3-------------o||
||---------------------------|------------------------------||


  D5            C             Bb5         A5
  E  E E E  E E E E E E E E   E E E E E E E E E E E E
|---------------------------|-------------------------|
|---10-----10-----8-----8---|---6-----6-------5-----5-|
|------7------7-----5-----5-|-----3-----3---2-----2---|
|-0------0------0-----0-----|-0-----0-----0-----0-----|
|---------------------------|-------------------------|
|---------------------------|-------------------------|
|
| Gtr II
| Q    E E  E E Q   E E E E   Q   E E E E Q   E E E E
|-5----5-5--5-x-------------|-------------------------|
|-3----3-3--3-x-1---1-1-1-x-|-------------------------|
|-2----2-2--2-x-0---0-0-0-x-|-3---3-3-3-x-2---2-2-2-x-|
|-0----0-0--0-x-2---2-2-2-x-|-3---3-3-3-x-2---2-2-2-x-|
|---------------3---3-3-3-x-|-1---1-1-1-x-0---0-0-0-x-|
|---------------------------|-------------------------|


  D5            C             Bb5         A5
  E  E E E  E E E E E E E E   E E E E E E E E E E E E
|---------------------------|----------------------------|
|---10-----10-----8-----8---|---6-----6-------5-----5----|
|------7------7-----5-----5-|-----3-----3---2-----2------|
|-0------0------0-----0-----|-0-----0-----0-----0--------|
|---------------------------|----------------------------|
|---------------------------|----------------------------|
|
| Q    E E  E E Q   E E E E   Q   E E E E Q   E E E E
|-5----5-5--5-x-------------|----------------------------|
|-3----3-3--3-x-1---1-1-1-x-|----------------------------|
|-2----2-2--2-x-0---0-0-0-x-|-3---3-3-3-x-2---2-2-2-x----|
|-0----0-0--0-x-2---2-2-2-x-|-3---3-3-3-x-2---2-2-2-x----|
|---------------3---3-3-3-x-|-1---1-1-1-x-0---0-0-0-x----|
|---------------------------|----------------------------|


  D5            C             Bb5         A5
  E  E E E  E E E E E E E E   E E E E E E E E E E E E
|---------------------------|-------------------------|
|---10-----10-----8-----8---|---6-----6-------5-----5-|
|------7------7-----5-----5-|-----3-----3---2-----2---|
|-0------0------0-----0-----|-0-----0-----0-----0-----|
|---------------------------|-------------------------|
|---------------------------|-------------------------|
|
| Q    E E  E E Q   E E E E   Q   E E E E Q   E E E E
|-5----5-5--5-x-------------|-------------------------|
|-3----3-3--3-x-1---1-1-1-x-|-------------------------|
|-2----2-2--2-x-0---0-0-0-x-|-3---3-3-3-x-2---2-2-2-x-|
|-0----0-0--0-x-2---2-2-2-x-|-3---3-3-3-x-2---2-2-2-x-|
|---------------3---3-3-3-x-|-1---1-1-1-x-0---0-0-0-x-|
|---------------------------|-------------------------|


  D5            C
  E  E E E  E E E E E E E E
|----------------------------|
|---10-----10-----8-----8----|
|------7------7-----5-----5--|
|-0------0------0-----0------|
|----------------------------|
|----------------------------|
|
| Q    E E  E E Q   E E E E
|-5----5-5--5-x--------------|
|-3----3-3--3-x-1---1-1-1-x--|
|-2----2-2--2-x-0---0-0-0-x--|
|-0----0-0--0-x-2---2-2-2-x--|
|---------------3---3-3-3-x--|
|----------------------------|


  Bb5         A5
                       3/4
  E E E E E E H.        H.
|---------------------|-------|
|---6-----6-----------|-------|
|-----3-----3---------|-------|
|-0-----0-----0-------|-------|
|---------------------|-------|
|---------------------|-------|
|
| Q   E E E E H.        H.
|---------------------|-------|
|---------------------|-------|
|-3---3-3-3-x-2-------|-------|
|-3---3-3-3-x-2-------|-------|
|-1---1-1-1-x-0-------|-------|
|---------------------|-------|


    Q=135
    N.C.
   4/4
    Gtrs I, III
     E   E E  E   E E  E  E   E  E  E E E E  E  E
||--------------------------|-----------8---------|
||o-----10-------10-------8-|-------8-----8-----8-|
||---------7--------7-------|-7-------7-----------|
||--(0)------(0)------(0)---|---(0)---------(0)---|
||o-------------------------|---------------------|
||--------------------------|---------------------|


   E  E E  E  E E  E  E   E  E  E E E E  E  E
|-----------------------|-----------8----------|
|-----8-------8-------6-|-------6-----6--------|
|-------7-------7-------|-7-------7---------6--|
|-(0)-----(0)-----(0)---|---(0)---------(0)----|
|-----------------------|----------------------|
|-----------------------|----------------------|


   E  E E  E  E E  E  E   E  E  E E E E  E  S S   E E E E E Q  E
|-----------------------|-----------8-----------|----------------|
|-----6-------6-------5-|-------5-----5---------|---3-----3------|
|-------7-------7-------|-7-------7---------0-0-|-0---0-0---0----|
|-(0)-----(0)-----(0)---|---(0)---------(0)-----|--------------3-|
|-----------------------|-----------------------|----------------|
|-----------------------|-----------------------|----------------|
|
|     Gtr II
|  W                      W                       W
|-----------------------|-----------------------|----------------|
|-----------------------|-----------------------|----------------|
|-----------------------|-----------------------|----------------|
|-----------------------|-----------------------|----------------|
|-----------------------|-----------------------|----------------|
|-----------------------|-----------------------|----------------|


 1.                    2.
                        Em+5/C
  +E  E E E E E E E      E   E  E  E  E  E  E  E
|--------------------||----------------------------|
|-----------6-------o||---------------6------------|
|-----5-------5---5--||------5-----------5-----5---|
|-(3)---3-3-----3----||-(3)-----3--3--------3------|
|-------------------o||----------------------------|
|--------------------||----------------------------|
|
|  W                     E   E  E  E  E  E  E  E
|--------------------||-^0--!0-^0-!0-^0-!0-^0-!0---|
|-------------------o||-^1--!1-^1-!1-^1-!1-^1-!1---|
|--------------------||-^0--!0-^0-!0-^0-!0-^0-!0---|
|--------------------||-^2--!2-^2-!2-^2-!2-^2-!2---|
|-------------------o||-^3--!3-^3-!3-^3-!3-^3-!3---|
|--------------------||----------------------------|


   Outro
    D5              C
    Gtr I
    E  E E E  E E E E   E E E E E E E E
||--------------------|---------8---------|
||o---10-----10-----8-|-----8-----8---8---|
||-------7------7-----|-7-----7-----------|
||--0------0------0---|---0---------0-----|
||o-------------------|-------------------|
||--------------------|-------------------|
|
|   Gtr II
|   Q    E E  E E E E   E E E E E E E S S
||--5----5-x--5-5-5-0-|-0-0-0-0-0-0-0-0-0-|
||o-3----3-x--3-3-3-1-|-1-1-1-1-1-1-1-1-1-|
||--2----2-x--2-2-2-0-|-0-0-0-0-0-0-0-0-0-|
||--0----0-x--0-0-0-2-|-2-2-2-2-2-2-2-2-2-|
||o-----------------3-|-3-3-3-3-3-3-3-3-3-|
||--------------------|-------------------|


  D5            G
  E E E E E E E E   E E E E E E E E
|-----------------|---------8----------|
|---8-----8-----6-|-----6-----6---6----|
|-----7-----7-----|-7-----7------------|
|-0-----0-----0---|---0---------0------|
|-----------------|--------------------|
|-----------------|--------------------|
|
| Q   E E E E E E   E E E E E E E S S
|---------0-------|--------------------|
|-3---3-x-3-3-3---|--------------------|
|-2---2-x-2-2-2-0-|-0-0-0-0-0-0-0-0-0--|
|-0---0-x-0-0-0-0-|-0-0-0-0-0-0-0-0-0--|
|---------------2-|-2-2-2-2-2-2-2-2-2--|
|---------------3-|-3-3-3-3-3-3-3-3-3--|


  F             Em
  E E E E E E E E   E E E E E E E S S
|-----------------|---------8---------|
|---6-----6-----5-|-----5-----5-------|
|-----7-----7-----|-7-----7-------0-0-|
|-0-----0-----0---|---0---------0-----|
|-----------------|-------------------|
|-----------------|-------------------|
|
| Q   E E E E E E   E E E E E E E S S
|-1---1-1-1-1-1-0-|-0-0-0-0-0-0-0-0-0-|
|-1---1-1-1-1-1-0-|-0-0-0-0-0-0-0-0-0-|
|-2---2-2-2-2-2-0-|-0-0-0-0-0-0-0-0-0-|
|-3---3-3-3-3-3-2-|-2-2-2-2-2-2-2-2-2-|
|-3---3-3-3-3-3-2-|-2-2-2-2-2-2-2-2-2-|
|-1---1-1-1-1-1-0-|-0-0-0-0-0-0-0-0-0-|


  Dsus2         C
  E E E E E Q   E   +E  E E E E E E E      7x
|-----------------|------------------------||
|---3-----3-------|-----------6-----------o||
|-0---0-0---0-----|-----5-------5---5------||
|---------------3-|-(3)---3-3-----3--------||
|-----------------|-----------------------o||
|-----------------|------------------------||
|
| Q   E E E E E E    E  E E E E E E S S    7x
|-0-------0-----0-|--0--0-0-0-0-0-0-0-0----||
|-3---3-x-3-3-3-1-|--1--1-1-1-1-1-1-1-1---o||
|-2---2-x-2-2-2-0-|--0--0-0-0-0-0-0-0-0----||
|-0---0-x-0-0-0-2-|--2--2-2-2-2-2-2-2-2----||
|---------------3-|--3--3-3-3-3-3-3-3-3---o||
|-----------------|------------------------||


  D5              C
  E  E E E  E E E E   E E E E E E E E
|-------------------|---------8---------|
|---10-----10-----8-|-----8-----8-------|
|------7------7-----|-7-----7-------8---|
|-0------0------0---|---0---------0-----|
|-------------------|-------------------|
|-------------------|-------------------|
|
| Q    E E  E E E E   E E E E E E E S S
|-5----5-x--5-5-5-0-|-0-0-0-0-0-0-0-0-0-|
|-3----3-x--3-3-3-1-|-1-1-1-1-1-1-1-1-1-|
|-2----2-x--2-2-2-0-|-0-0-0-0-0-0-0-0-0-|
|-0----0-x--0-0-0-2-|-2-2-2-2-2-2-2-2-2-|
|-----------------3-|-3-3-3-3-3-3-3-3-3-|
|-------------------|-------------------|


  D5            G
  E E E E E E E E   E E E E E E E E
|-----------------|---------8-----------|
|---8-----8-----6-|-----6-----6---------|
|-----7-----7-----|-7-----7-------6-----|
|-0-----0-----0---|---0---------0-------|
|-----------------|---------------------|
|-----------------|---------------------|
|
| Q   E E E E E E   E E E E E E E S S
|-----------------|---------------------|
|-3---3-x-3-3-3---|---------------------|
|-2---2-x-2-2-2-0-|-0-0-0-0-0-0-0-0-0---|
|-0---0-x-0-0-0-0-|-0-0-0-0-0-0-0-0-0---|
|---------------2-|-2-2-2-2-2-2-2-2-2---|
|---------------3-|-3-3-3-3-3-3-3-3-3---|


  F             Em
  E E E E E E E E   E E E E E E E S S
|-----------------|---------8---------|
|---6-----6-----5-|-----5-----5-------|
|-----7-----7-----|-7-----7-------0-0-|
|-0-----0-----0---|---0---------0-----|
|-----------------|-------------------|
|-----------------|-------------------|
|
| Q   E E E E E E   E E E E E E E S S
|-1---1-1-1-1-1-0-|-0-0-0-0-0-0-0-0-0-|
|-1---1-1-1-1-1-0-|-0-0-0-0-0-0-0-0-0-|
|-2---2-2-2-2-2-0-|-0-0-0-0-0-0-0-0-0-|
|-3---3-3-3-3-3-2-|-2-2-2-2-2-2-2-2-2-|
|-3---3-3-3-3-3-2-|-2-2-2-2-2-2-2-2-2-|
|-1---1-1-1-1-1-0-|-0-0-0-0-0-0-0-0-0-|


  Dsus2         C
  E E E E E Q   E   +E  E E E E E E E
|-----------------|-----------------------|
|---3-----3-------|-----------6-----------|
|-0---0-0---0-----|-----5-------5---5-----|
|---------------3-|-(3)---3-3-----3-------|
|-----------------|-----------------------|
|-----------------|-----------------------|
|
| Q   E E E E E E    E  E E E E E E S S
|-0-------------0-|--0--0-0-0-0-0-0-0-0---|
|-3---3-x-3-3-3-1-|--1--1-1-1-1-1-1-1-1---|
|-2---2-x-2-2-2-0-|--0--0-0-0-0-0-0-0-0---|
|-0---0-x-0-0-0-2-|--2--2-2-2-2-2-2-2-2---|
|---------------3-|--3--3-3-3-3-3-3-3-3---|
|-----------------|-----------------------|


  D5              C
  E  E E E  E E E E   E E E E E E E E
|-------------------|---------8---------|
|---10-----10-----8-|-----8-----8---8---|
|------7------7-----|-7-----7-----------|
|-0------0------0---|---0---------0-----|
|-------------------|-------------------|
|-------------------|-------------------|
|
| Q    E E  E E E E   E E E E E E E S S
|-5----5-x--5-5-5-0-|-0-0-0-0-0-0-0-0-0-|
|-3----3-x--3-3-3-1-|-1-1-1-1-1-1-1-1-1-|
|-2----2-x--2-2-2-0-|-0-0-0-0-0-0-0-0-0-|
|-0----0-x--0-0-0-2-|-2-2-2-2-2-2-2-2-2-|
|-----------------3-|-3-3-3-3-3-3-3-3-3-|
|-------------------|-------------------|


  D5            G
  E E E E E E E E   E E E E E E E E
|-----------------|---------8-----------|
|---8-----8-----6-|-----6-----6---6-----|
|-----7-----7-----|-7-----7-------------|
|-0-----0-----0---|---0---------0-------|
|-----------------|---------------------|
|-----------------|---------------------|
|
| Q   E E E E E E   E E E E E E E S S
|-----------------|---------------------|
|-3---3-x-3-3-3---|---------------------|
|-2---2-x-2-2-2-0-|-0-0-0-0-0-0-0-0-0---|
|-0---0-x-0-0-0-0-|-0-0-0-0-0-0-0-0-0---|
|---------------2-|-2-2-2-2-2-2-2-2-2---|
|---------------3-|-3-3-3-3-3-3-3-3-3---|


  F             Em
  E E E E E E E E   E E E E E E E S S
|-----------------|---------8---------|
|---6-----6-----5-|-----5-----5-------|
|-----7-----7-----|-7-----7-------0-0-|
|-0-----0-----0---|---0---------0-----|
|-----------------|-------------------|
|-----------------|-------------------|
|
| Q   E E E E E E   E E E E E E E S S
|-1---1-1-1-1-1-0-|-0-0-0-0-0-0-0-0-0-|
|-1---1-1-1-1-1-0-|-0-0-0-0-0-0-0-0-0-|
|-2---2-2-2-2-2-0-|-0-0-0-0-0-0-0-0-0-|
|-3---3-3-3-3-3-2-|-2-2-2-2-2-2-2-2-2-|
|-3---3-3-3-3-3-2-|-2-2-2-2-2-2-2-2-2-|
|-1---1-1-1-1-1-0-|-0-0-0-0-0-0-0-0-0-|


  Dsus2         C
  E E E E E Q   E   +E  E E E E E E E
|-----------------|-----------------------|
|---3-----3-------|-----------6-----------|
|-0---0-0---0-----|-----5-------5---5-----|
|---------------3-|-(3)---3-3-----3-------|
|-----------------|-----------------------|
|-----------------|-----------------------|
|
| Q   E E E E E E    E  E E E E E E S S
|-0-------------0-|--0--0-0-0-0-0-0-0-0---|
|-3---3-x-3-3-3-1-|--1--1-1-1-1-1-1-1-1---|
|-2---2-x-2-2-2-0-|--0--0-0-0-0-0-0-0-0---|
|-0---0-x-0-0-0-2-|--2--2-2-2-2-2-2-2-2---|
|---------------3-|--3--3-3-3-3-3-3-3-3---|
|-----------------|-----------------------|


  D5              C
  E  E E E  E E E E   E E E E E E E E
|-------------------|---------8---------|
|---10-----10-----8-|-----8-----8-------|
|------7------7-----|-7-----7-------8---|
|-0------0------0---|---0---------0-----|
|-------------------|-------------------|
|-------------------|-------------------|
|
| Q    E E  E E E E   E E E E E E E S S
|-5----5-x--5-5-5-0-|-0-0-0-0-0-0-0-0-0-|
|-3----3-x--3-3-3-1-|-1-1-1-1-1-1-1-1-1-|
|-2----2-x--2-2-2-0-|-0-0-0-0-0-0-0-0-0-|
|-0----0-x--0-0-0-2-|-2-2-2-2-2-2-2-2-2-|
|-----------------3-|-3-3-3-3-3-3-3-3-3-|
|-------------------|-------------------|


  D5            G
  E E E E E E E E   E E E E E E E E
|-----------------|---------8-----------*|
|---8-----8-----6-|-----6-----6---------*|
|-----7-----7-----|-7-----7-------6-----*|
|-0-----0-----0---|---0---------0-------*|
|-----------------|---------------------*|
|-----------------|---------------------*|
|
| Q   E E E E E E   E E E E E E E S S
|-----------------|---------------------*|
|-3---3-x-3-3-3---|---------------------*|
|-2---2-x-2-2-2-0-|-0-0-0-0-0-0-0-0-0---*|
|-0---0-x-0-0-0-0-|-0-0-0-0-0-0-0-0-0---*|
|---------------2-|-2-2-2-2-2-2-2-2-2---*|
|---------------3-|-3-3-3-3-3-3-3-3-3---*|




--------------------------------------------------------------------------------


Duration Legend
---------------
W - whole; H - half; Q - quarter; E - 8th; S - 16th; T - 32nd; X - 64th; a - acciaccatura
+ - note tied to previous; . - note dotted; .. - note double dotted
Uncapitalized letters represent notes that are staccato (1/2 duration)
Irregular groupings are notated above the duration line
Duration letters will always appear directly above the note/fret number it represents the
duration for.  Duration letters with no fret number below them represent rests.  Multi-
bar rests are notated in the form Wxn, where n is the number of bars to rest for.  Low
melody durations appear below the staff

Tablature Legend
----------------
 h   - hammer-on
 p   - pull-off
 b   - bend
 pb  - pre-bend
 r   - bend release (if no number after the r, then release immediately)
 /\  - slide into or out of (from/to "nowhere")
 s   - legato slide
 S   - shift slide
<n> - natural harmonic
[n]  - artificial harmonic
n(n) - tapped harmonic
 ~   - vibrato
 tr  - trill
 T   - tap
 TP  - trem. picking
 PM  - palm muting
\n/  - tremolo bar dip; n = amount to dip
 \n  - tremolo bar down
 n/  - tremolo bar up
/n\  - tremolo bar inverted dip
 =   - hold bend; also acts as connecting device for hammers/pulls
 <> - volume swell (louder/softer)
 x   - on rhythm slash represents muted slash
 o   - on rhythm slash represents single note slash

Misc Legend
-----------
 |  - bar
||  - double bar
||o - repeat start
o|| - repeat end
*|  - double bar (ending)
 :  - bar (freetime)
 $  - Segno
 &  - Coda
Tempo markers - <E/E./Q/Q./H/H.> = BPM(8/16=s8/s16), where s8 = swing 8ths, s16 = swing 16ths


comments
We did not receive enough feedback on this tab! Please rate:
print report bad tab
1 2 3 4 5
I want to post or [tab]
guest
You may want to rate the tab now too:
select rating
Please do not post tabs as comments. Select "correction" instead!