Oops, an error
Loading. Please wait.

Perkele The God Of Fire Tab

1,134 views 3 this week
no commentswrite comment
1 2 3 4 5
excellent!
x 2
Autoscroll
+/-
esc
set tempo
stop
Contributor
WARNING: You are trying to view
                                    content from Ultimate-Guitar.com
                                    in an unauthorized application,
                                    which is prohibited.

                                    Please use an official Ultimate
                                    Guitar Tabs application for iPhone,
                                    iPad or Android to access legitimate
                                    chords, guitar, bass, and drum tabs
                                    from Ultimate-Guitar.com database.

                                    Type "ultimate guitar tabs" in Apple
                                    App Store's or Android Market's
                                    search to find the application.
#----------------------------------PLEASE NOTE---------------------------------#
#This file is the author's own work and represents their interpretation of the #
#song. You may only use this file for private study, scholarship, or research. #
#------------------------------------------------------------------------------#

PERKELE (THE GOD OF FIRE)
As recorded by Amorphis
(From the 2006 Album ECLIPSE)


Transcribed by Danny Heater (hauntedinflames)

 Words by Paavo Haavikko Music by Etalävouri

 

Gtr I (D G C F A D) - 'Untitled'
Gtr II (D G C F A D) - 'Untitled'
Gtr III (D G C F A D) - 'Untitled'


 Intro
  Q.=80
 6/8
  Gtr I
           |--3--|          |--3--|       |--3--|
  Q.    E  S  S  S E    E   S  S  S E  E  S  S  S S S
|--------------------|--------------------------------|
|--------------------|--------------------------------|
|-9----13-10-13-10-9-|-14--13-14-13-9-13-10-13-10-9-7-|
|-9------------------|-(9)----------------------------|
|--------------------|--------------------------------|
|--------------------|--------------------------------|
  H.                   +H.


           |--3--|         |--3--|       |--3--|
  Q.    E  S  S  S E    E  S  S  S E  E  S  S  S S S
|--------------------|---------------------------------|
|--------------------|---------------------------------|
|-9----13-10-13-10-9-|-14-13-14-13-9-13-10-13-10-9-7---|
|--------------------|---------------------------------|
|--------------------|---------------------------------|
|--------------------|---------------------------------|


           |--3--|         |--3--|       |--3--|
  Q.    E  S  S  S E    E  S  S  S E  E  S  S  S S S
|--------------------|-------------------------------|
|--------------------|-------------------------------|
|-9----13-10-13-10-9-|-14-13-14-13-9-13-10-13-10-9-7-|
|--------------------|-------------------------------|
|--------------------|-------------------------------|
|--------------------|-------------------------------|
|
| Gtrs II, III
| W                     W
|--------------------|-------------------------------|
|--------------------|-------------------------------|
|--------------------|-------------------------------|
|--------------------|-------------------------------|
|--------------------|-------------------------------|
|--------------------|-------------------------------|


           |--3--|          |--3--|       |--3--|
  Q.    E  S  S  S E    E   S  S  S E  E  S  S  S S S
|--------------------|--------------------------------|
|--------------------|--------------------------------|
|-9----13-10-13-10-9-|-14--13-14-13-9-13-10-13-10-9-7-|
|--------------------|--------------------------------|
|--------------------|--------------------------------|
|--------------------|--------------------------------|
|
| W                     Q.             E  E       E
|--------------------|--------------------------------|
|--------------------|--------------------------------|
|--------------------|--------------------------------|
|--------------------|-----------------6--3-------2---|
|--------------------|-----------------6--3-------2---|
|--------------------|-----------------4--1-------0---|


  Gtr III
  E E E E E E   E E E E E E   E E E E E E   E E E E E E
|-------------|-------------|-------------|--------------|
|-------------|-------------|-------------|--------------|
|-------------|-------------|-------------|--------------|
|-------6-----|-6-----6-----|-------6-----|-6-----6------|
|-7-8-7---7-8-|---7-8---7-8-|-7-8-7---7-8-|---7-8---7-8--|
|-------------|-------------|-------------|--------------|
|
| Gtr II
| E E E E E E   E E E E E E   E E E E E E   E E E E E E
|-------------|-------------|-------------|--------------|
|-------------|-------------|-------------|--------------|
|-------------|-------------|-------------|--------------|
|-------------|-------------|-------------|--------------|
|-2-2-2-6-2-2-|-6-2-2-6-2-3-|-2-2-2-6-2-2-|-6-2-2-6-2-3--|
|-0-0-0-4-0-0-|-4-0-0-4-0-1-|-0-0-0-4-0-0-|-4-0-0-4-0-1--|


  E E E E E E   E E E E E E   Q.    Q.       Q.    E E E
|-------------|-------------|------------|----------------||
|-------------|-------------|------------|----------------||
|-------------|-------------|------------|-/10----10-9-7--||
|-------6-----|-6-----6-----|-7----10----|----------------||
|-7-8-7---7-8-|---7-8---7-8-|------------|----------------||
|-------------|-------------|------------|----------------||
|
| E E E E E E   E E E E E E   Q.    Q.       Q.    E E E
|-------------|-------------|------------|----------------||
|-------------|-------------|------------|----------------||
|-------------|-------------|------------|----------------||
|-------------|-------------|------------|----------------||
|-2-2-2-6-2-2-|-6-2-2-6-2-3-|------------|---8-----8-7-5--||
|-0-0-0-4-0-0-|-4-0-0-4-0-1-|-5-----8----|----------------||


   Verse
    E E E E E E   E E E E E E   E E E E E E   E E E E E E
||--------------|-------------|-------------|-------------|
||o-------------|-------------|-------------|-------------|
||--------------|-------------|-------------|-------------|
||--------6-----|-6-----6-----|-------6-----|-6-----6-----|
||o-7-8-7---7-8-|---7-8---7-8-|-7-8-7---7-8-|---7-8---7-8-|
||--------------|-------------|-------------|-------------|
|
|   E E E E E E   E E E E E E   E E E E E E   E E E E E E
||--------------|-------------|-------------|-------------|
||o-------------|-------------|-------------|-------------|
||--------------|-------------|-------------|-------------|
||--------------|-------------|-------------|-------------|
||o-2-2-2-6-2-2-|-6-2-2-6-2-3-|-2-2-2-6-2-2-|-6-2-2-6-2-3-|
||--0-0-0-4-0-0-|-4-0-0-4-0-1-|-0-0-0-4-0-0-|-4-0-0-4-0-1-|


                             1.
  E E E E E E   E E E E E E   Q.    Q.      E E E E E  E
|-------------|-------------|------------|-----------------||
|-------------|-------------|------------|----------------o||
|-------------|-------------|------------|-10-9-7----------||
|-------6-----|-6-----6-----|-7----10----|--------8-7-10---||
|-7-8-7---7-8-|---7-8---7-8-|------------|----------------o||
|-------------|-------------|------------|-----------------||
|
| E E E E E E   E E E E E E   Q.    Q.      E E E E E  E
|-------------|-------------|------------|-----------------||
|-------------|-------------|------------|----------------o||
|-------------|-------------|------------|-----------------||
|-------------|-------------|------------|-----------------||
|-2-2-2-6-2-2-|-6-2-2-6-2-3-|------------|--8-7-5---------o||
|-0-0-0-4-0-0-|-4-0-0-4-0-1-|-5-----8----|--------6-5--8---||


  2.
  $
  Q.    Q.       Q.    E E  E     Q.    E  E  E
|------------|----------------|-----------------||
|------------|----------------|-----------------||
|------------|-/10----10-9-10-|-/12----12-14-12-||
|-7----10----|----------------|-----------------||
|------------|----------------|-----------------||
|------------|----------------|-----------------||
|
| Q.    Q.       Q.    E E  E     Q.    E  E  E
|------------|----------------|-----------------||
|------------|----------------|-----------------||
|------------|----------------|-----------------||
|------------|----------------|-----------------||
|------------|---8-----8-7--8-|--10----10--8--7-||
|-5-----8----|----------------|-----------------||


   horus
     Q.     Q.       E E  E Q.        E E  E   E  E E   Q.      Q.
||----------------|----------------|------------------|----------------|
||o---------------|----------------|------------------|----------------|
||--10-----10-----|-10-9-10-7------|-10-9-10-/12-10-9-|-7-----/14------|
||----------------|----------------|------------------|----------------|
||o---------------|----------------|------------------|----------------|
||----------------|----------------|------------------|----------------|
|
|    Q   E  Q   E    Q    E E  E E    Q    E   Q    E   Q   E   E  E E
||----------------|----------------|------------------|----------------|
||o---------------|----------------|------------------|----------------|
||---7------7-----|--7-------------|--7--------7------|-7--------------|
||---7------7-----|--7------7--7-7-|--7--------7------|-7-------7--7-7-|
||o--5------5-----|--5------5--5-5-|--5--------5------|-5-------5--5-5-|
||----------------|---------5--5-5-|------------------|---------5--5-5-|


  1.                               2.
   H    E  E    H     E     +E       H    E  E
|------------|-------------------||------------|
|------------|------------------o||------------|
|-10----9-10-|-12----12b14-(12)--||-10----9-10-|
|------------|-------------------||------------|
|------------|------------------o||------------|
|------------|-------------------||------------|
|
|  H    E  E    H     E      E       H    E  E
|------------|-------------------||------------|
|------------|------------------o||------------|
|------------|-------------------||------------|
|------------|-------------------||------------|
|------------|------------------o||--8----7--8-|
|--1----0--1-|-/3-----1------0---||------------|


                        To Coda
  H.         E E  E   E  E E   H.
|---------|------------------|-------||
|---------|------------------|-------||
|-7-------|-10-9-10-/12-10-9-|-7-----||
|---------|------------------|-------||
|---------|------------------|-------||
|---------|------------------|-------||
|
| H.         E E  E   E  E E   H.
|---------|------------------|-------||
|---------|------------------|-------||
|---------|------------------|-------||
|---------|------------------|-------||
|-5-------|--8-7--8-/10--8-7-|-5-----||
|---------|------------------|-------||


   Bridge
    E  E E E E  E    E E  E E E  E  3x Q.    Q.       Q.    E E E
||----------------|-----------------||------------|---------------||
||o--------9------|-10------9------o||------------|---------------||
||--9-10-9---9-10-|----9-10---9-10--||------------|-/10----10-9-7-||
||----------------|-----------------||-7----10----|---------------||
||o---------------|----------------o||------------|---------------||
||----------------|-----------------||------------|---------------||
|
|   E  E E E E  E    E E  E E E  E  3x Q.    Q.       Q.    E E E
||----------------|-----------------||------------|---------------||
||o---------------|----------------o||------------|---------------||
||----------------|-----------------||------------|---------------||
||----------------|-----------------||------------|---------------||
||o-2--2-2-6-2--2-|--7-2--2-6-2--3-o||------------|---8-----8-7-5-||
||--0--0-0-4-0--0-|--5-0--0-4-0--1--||-5-----8----|---------------||


   Verse
    E  E E E E  E   E E  E E E  E   E  E E E E  E   E E  E E E  E
||----------------|---------------|---------------|---------------|
||o--------9------|-9------9------|--------9------|-9------9------|
||--9-10-9---9-10-|---9-10---9-10-|-9-10-9---9-10-|---9-10---9-10-|
||----------------|---------------|---------------|---------------|
||o---------------|---------------|---------------|---------------|
||----------------|---------------|---------------|---------------|
|
|   E  E E E E  E   E E  E E E  E   E  E E E E  E   E E  E E E  E
||----------------|---------------|---------------|---------------|
||o---------------|---------------|---------------|---------------|
||----------------|---------------|---------------|---------------|
||----------------|---------------|---------------|---------------|
||o-2--2-2-6-2--2-|-6-2--2-6-2--3-|-2--2-2-6-2--2-|-6-2--2-6-2--3-|
||--0--0-0-4-0--0-|-4-0--0-4-0--1-|-0--0-0-4-0--0-|-4-0--0-4-0--1-|


                    D.S. al Coda
  E  E E E E  E   E E  E E E  E   Q.    Q.      E E E E E  E
|---------------|---------------|------------|-----------------||
|--------9------|-9------9------|------------|----------------o||
|-9-10-9---9-10-|---9-10---9-10-|------------|-10-9-7----------||
|---------------|---------------|-7----10----|--------8-7-10---||
|---------------|---------------|------------|----------------o||
|---------------|---------------|------------|-----------------||
|
| E  E E E E  E   E E  E E E  E   Q.    Q.      E E E E E  E
|---------------|---------------|------------|-----------------||
|---------------|---------------|------------|----------------o||
|---------------|---------------|------------|-----------------||
|---------------|---------------|------------|-----------------||
|-2--2-2-6-2--2-|-7-2--2-6-2--3-|------------|--8-7-5---------o||
|-0--0-0-4-0--0-|-5-0--0-4-0--1-|-5-----8----|--------6-5--8---||


 Solo
  &
   ~~~                 ~~~~~~~~~~~
   Q.      E   E  E    Q.      Q.
|-------------------|---------------|
|-18------18--17-20-|---------------|
|-------------------|-19------18----|
|-------------------|---------------|
|-------------------|---------------|
|-------------------|---------------|
|
|  PM---|              PM---|
|  E  E E  Q.          E  E E  Q.
|-------------------|---------------|
|-------------------|---------------|
|-------------------|---------------|
|----------5--------|----------7----|
|----------5--------|----------7----|
|--3--3-3--3--------|--5--5-5--5----|


               |--3--|
   E  E  E  E  S  S  S  E    E  E  E   E  E  E
|-------------------------|--------------------|
|----18-17-18-17-18-17----|--------------------|
|-19-------------------19-|-14-----------------|
|-------------------------|----17-15-/17-15-17-|
|-------------------------|--------------------|
|-------------------------|--------------------|
|
|     PM|      PM------|        PM|
|  E  E  E  E  E        E    E  E  E   E  E  E
|-------------------------|--------------------|
|-------------------------|--------------------|
|-------------------------|--------------------|
|--8--------8-------------|--3-----------------|
|--8--------8-------------|--3---------3--2--3-|
|--6--6--6--6--6--------6-|--1--1--1---1--0--1-|


    ~~~~
    Q.      E   S   E.    S  S  Q    S   S  S  E.
|----------------------|--------------------------|
|----------------------|--------------------------|
|----------------------|--------------------------|
|-/17------15--14-[15]-|-12-14-14-------------12--|
|----------------------|------------12--13-15-----|
|----------------------|--------------------------|
|
|   PM---|                PM------|
|   E  E E  Q.            E     E E  Q.
|----------------------|--------------------------|
|----------------------|--------------------------|
|----------------------|--------------------------|
|-----------5----------|-------------7------------|
|-----------5----------|-------------7------------|
|---3--3-3--3----------|--5-----5-5--5------------|


   ~~~
   Q.      S  S  S  S  S  S    Q.      E  E  E
|---------------------------|------------------|
|---------------------------|------------13----|
|---------------------------|---------12----12-|
|-12---------------------14-|-15---------------|
|---------------12-13-15----|------------------|
|---------12-13-------------|------------------|
|
|     PM|        PM---|           PM|
|  E  E E  E     E     E       E  E E  E  E  E
|---------------------------|------------------|
|---------------------------|------------------|
|---------------------------|------------------|
|--8-------8----------------|--3---------------|
|--8-------8----------------|--3-------3--2--3-|
|--6--6-6--6-----6-----6----|--1--1-1--1--0--1-|


                             ~~~
    Q.      E   E     +E     Q.      E  E  E
|-------------------------|------------------|
|-/15------18--20b22r(20)-|-18------15-------|
|-------------------------|------------14-12-|
|-------------------------|------------------|
|-------------------------|------------------|
|-------------------------|------------------|
|
|      PM|
|   E  E E  Q.               E  E E  E  E  E
|-------------------------|------------------|
|-------------------------|------------------|
|-------------------------|------------------|
|-----------5-------------|--7--7-7--7--7--7-|
|---5-------5-------------|--7--7-7--7--7--7-|
|---3--3-3--3-------------|--5--5-5--5--5--5-|


   ~~~
   Q.      E  S  E    T  T    E  E  E  E  S  S  E
|--------------------------|-----------------------|
|--------------------------|-----------------------|
|--------------------------|-----------------------|
|-15------14-15-14---15-14-|-------12-15-14-15-14--|
|--------------------------|-12-15-----------------|
|--------------------------|-----------------------|
|
|  E  E E  E  E    E          E  E  E  E  E     E
|--------------------------|-----------------------|
|--------------------------|-----------------------|
|--------------------------|-----------------------|
|--8--8-8--8--8----8-------|--3--3--3--3--2-----3--|
|--8--8-8--8--8----8-------|--3--3--3--3--2-----3--|
|--6--6-6--6--6----6-------|--1--1--1--1--0-----1--|


   E  E  E  E  S  E.      E  E  E  E  S  E.
|----------------------|----------------------|
|----------------------|----------------------|
|----------------------|----------------------|
|-15-14-15-12----12----|-15-14-15-12----12----|
|-------------15-------|-------------15-------|
|----------------------|----------------------|
|
|  E  E  E  E  E     E    E  E  E  E  E     E
|----------------------|----------------------|
|----------------------|----------------------|
|----------------------|----------------------|
|--5--5--5--5--5-----5-|--7--7--7--7--7-----7-|
|--5--5--5--5--5-----5-|--7--7--7--7--7-----7-|
|--3--3--3--3--3-----3-|--5--5--5--5--5-----5-|


   E  E   E  E  S  S  S  S    E  E  E  E  E  E
|--------------------------|--------------------||
|--------------------------|--------------------||
|--------------------------|--------------------||
|-15-14-/17-15-14-15-14-15-|-14-12-14-----------||
|--------------------------|----------15-12-15--||
|--------------------------|--------------------||
|
|  E  E   E  E  E     E       E  E  E  E  E  E
|--------------------------|--------------------||
|--------------------------|--------------------||
|--------------------------|--------------------||
|--8--8---8--8--8-----8----|-10-10-10-10-10-10--||
|--8--8---8--8--8-----8----|-10-10-10-10-10-10--||
|--6--6---6--6--6-----6----|--8--8--8--8--8--8--||


 Chorus
                    ~~~~
   Q.     Q.       +H.             E  E  E   E  E  E
|---------------|---------------|--------------------|
|-15-----15-----|-(15)----------|-18-17-18-/20-18-17-|
|---------------|---------------|--------------------|
|---------------|---------------|--------------------|
|---------------|---------------|--------------------|
|---------------|---------------|--------------------|
|
|  Q   E  Q   E     Q   E E E E    Q     E   Q     E
|---------------|---------------|--------------------|
|---------------|---------------|--------------------|
|--7------7-----|---7-----------|--7---------7-------|
|--7------7-----|---7-----7-7-7-|--7---------7-------|
|--5------5-----|---5-----5-5-5-|--5---------5-------|
|---------------|---------5-5-5-|--------------------|


   H       E  E    H     S     +S   E    H     E  E
|---------------|-17----15b17r(15)----|-15------------|
|-15------15-18-|------------------18-|-------18-17---|
|---------------|---------------------|---------------|
|---------------|---------------------|---------------|
|---------------|---------------------|---------------|
|---------------|---------------------|---------------|
|
|  Q  E E  E  E    H     E          E    H     E  E
|---------------|---------------------|---------------|
|---------------|---------------------|---------------|
|--7------------|-10-----9---------10-|-12----10--9---|
|--7----7--7--7-|---------------------|---------------|
|--5----5--5--5-|---------------------|---------------|
|-------5--5--5-|--1-----0----------1-|-/3-----1--0---|


   ~~~
   H.            E  E  E  Q.        E  E  E   E  E  E    H.
|-------------|------------------|--------------------|---------------|
|-15----------|-18-17-18-15------|-18-17-18-/20-18-17-|-15------------|
|-------------|------------------|--------------------|---------------|
|-------------|------------------|--------------------|---------------|
|-------------|------------------|--------------------|---------------|
|-------------|------------------|--------------------|---------------|
|
|  Q   E Q  E    Q     E  E  E E    Q     E   Q     E    Q   E E E E
|-------------|------------------|--------------------|---------------|
|-------------|------------------|--------------------|---------------|
|--7---7-7--7-|--7-----7---------|--7-----7---7-----7-|--7---7--------|
|--7---7-7--7-|--7-----7--7--7-7-|--7-----7---7-----7-|--7---7-7-7-7--|
|--5---5-5--5-|--5-----5--5--5-5-|--5-----5---5-----5-|--5---5-5-5-5--|
|-------------|-----------5--5-5-|--------------------|--------5-5-5--|


   H     E  E    H.         E  E  E   E  E  E    H.
|-------------|----------|--------------------|--------||
|-18----17-18-|-15-------|-18-17-18-/20-18-17-|-15-----||
|-------------|----------|--------------------|--------||
|-------------|----------|--------------------|--------||
|-------------|----------|--------------------|--------||
|-------------|----------|--------------------|--------||
|
|  H     E  E    H.         E  E  E   E  E  E    H.
|-------------|----------|--------------------|--------||
|-------------|----------|--------------------|--------||
|-10-----9-10-|--7-------|-10--9-10--12-10--9-|--7-----||
|-------------|----------|--------------------|--------||
|--8-----7--8-|--5-------|--8--7--8-/10--8--7-|--5-----||
|-------------|----------|--------------------|--------||


   Outro
    E  E E E E  E   E E  E E E  E   E  E E E E  E   E E  E E E  E
||----------------|---------------|---------------|---------------|
||o--------9------|-9------9------|--------9------|-9------9------|
||--9-10-9---9-10-|---9-10---9-10-|-9-10-9---9-10-|---9-10---9-10-|
||---------6------|-6------6------|--------6------|-6------6------|
||o-7--8-7---7--8-|---7--8---7--8-|-7--8-7---7--8-|---7--8---7--8-|
||----------------|---------------|---------------|---------------|
|
|   E  E E E E  E   E E  E E E  E   E  E E E E  E   E E  E E E  E
||----------------|---------------|---------------|---------------|
||o---------------|---------------|---------------|---------------|
||----------------|---------------|---------------|---------------|
||----------------|---------------|---------------|---------------|
||o-2--2-2-6-2--2-|-6-2--2-6-2--3-|-2--2-2-6-2--2-|-6-2--2-6-2--3-|
||--0--0-0-4-0--0-|-4-0--0-4-0--1-|-0--0-0-4-0--0-|-4-0--0-4-0--1-|


                                 1.
  E  E E E E  E   E E  E E E  E   Q.    Q.       Q.    E E E
|---------------|---------------|------------|-----------------||
|--------9------|-9------9------|------------|----------------o||
|-9-10-9---9-10-|---9-10---9-10-|------------|-/10----10-9-7---||
|--------6------|-6------6------|-7----10----|-----------------||
|-7--8-7---7--8-|---7--8---7--8-|------------|----------------o||
|---------------|---------------|------------|-----------------||
|
| E  E E E E  E   E E  E E E  E   Q.    Q.       Q.    E E E
|---------------|---------------|------------|-----------------||
|---------------|---------------|------------|----------------o||
|---------------|---------------|------------|-----------------||
|---------------|---------------|------------|-----------------||
|-2--2-2-6-2--2-|-6-2--2-6-2--3-|------------|---8-----8-7-5--o||
|-0--0-0-4-0--0-|-4-0--0-4-0--1-|-5-----8----|-----------------||


  2.
  Q.    Q.      E E E E E  E   Q.   Q.     +H.
|------------|---------------|-----------|--------*|
|------------|---------------|-----------|--------*|
|------------|-10-9-7--------|------9----|-(9)----*|
|-7----10----|--------8-7-10-|-----------|--------*|
|------------|---------------|------7----|-(7)----*|
|------------|---------------|-----------|--------*|
|
| Q.    Q.      E E E E E  E   Q.   Q.     +H.
|------------|---------------|-----------|--------*|
|------------|---------------|-----------|--------*|
|------------|---------------|-----------|--------*|
|------------|---------------|------2----|-(2)----*|
|------------|--8-7-5--------|------2----|-(2)----*|
|-5-----8----|--------6-5--8-|------0----|-(0)----*|




--------------------------------------------------------------------------------


Duration Legend
---------------
W - whole; H - half; Q - quarter; E - 8th; S - 16th; T - 32nd; X - 64th; a - acciaccatura
+ - note tied to previous; . - note dotted; .. - note double dotted
Uncapitalized letters represent notes that are staccato (1/2 duration)
Irregular groupings are notated above the duration line
Duration letters will always appear directly above the note/fret number it represents the
duration for.  Duration letters with no fret number below them represent rests.  Multi-
bar rests are notated in the form Wxn, where n is the number of bars to rest for.  Low
melody durations appear below the staff

Tablature Legend
----------------
 h   - hammer-on
 p   - pull-off
 b   - bend
 pb  - pre-bend
 r   - bend release (if no number after the r, then release immediately)
 /\  - slide into or out of (from/to "nowhere")
 s   - legato slide
 S   - shift slide
 - natural harmonic
[n]  - artificial harmonic
n(n) - tapped harmonic
 ~   - vibrato
 tr  - trill
 T   - tap
 TP  - trem. picking
 PM  - palm muting
\n/  - tremolo bar dip; n = amount to dip
 \n  - tremolo bar down
 n/  - tremolo bar up
/n\  - tremolo bar inverted dip
 =   - hold bend; also acts as connecting device for hammers/pulls
 <> - volume swell (louder/softer)
 x   - on rhythm slash represents muted slash
 o   - on rhythm slash represents single note slash

Misc Legend
-----------
 |  - bar
||  - double bar
||o - repeat start
o|| - repeat end
*|  - double bar (ending)
 :  - bar (freetime)
 $  - Segno
 &  - Coda
Tempo markers -  = BPM(8/16=s8/s16), where s8 = swing 8ths, s16 = swing 16ths

comments
We did not receive enough feedback on this tab! Please rate:
1 2 3 4 5
I want to post or [tab]
guest
You may want to rate the tab now too:
select rating
Please do not post tabs as comments. Select "correction" instead!