Oops, an error
Loading. Please wait.

Same Flesh Tab

ver1
ver1

Whole song

Interactive

More versions @911Tabs.com
450 views 1 this week
no commentswrite comment
1 2 3 4 5
please rate
Autoscroll
+/-
esc
set tempo
stop
Contributor
Hey! There's an official Ultimate Guitar app which is ideal
for learning songs when you're away from computer. Get the app
WARNING: You are trying to view
                                    content from Ultimate-Guitar.com
                                    in an unauthorized application,
                                    which is prohibited.

                                    Please use an official Ultimate
                                    Guitar Tabs application for iPhone,
                                    iPad or Android to access legitimate
                                    chords, guitar, bass, and drum tabs
                                    from Ultimate-Guitar.com database.

                                    Type "ultimate guitar tabs" in Apple
                                    App Store's or Android Market's
                                    search to find the application.
#----------------------------------PLEASE NOTE---------------------------------#
#This file is the author's own work and represents their interpretation of the #
#song. You may only use this file for private study, scholarship, or research. #
#------------------------------------------------------------------------------#

SAME FLESH
As recorded by Amorphis
(From the 2006 Album ECLIPSE)


Transcribed by Danny Heater (hauntedinflames)

 Words by Paavo Haavikko Music by Kallio

 

D5
x 5 7 x x x 

Bb5
6 8 x x x x 

G5
3 5 x x x x 


Gtr I (D G C F A D) - 'Untitled'
Gtr II (D G C F A D) - 'Untitled'
Gtr III (D G C F A D) - 'Untitled'
Gtr IV (D G C F A D) - 'Untitled'
Gtr V (D G C F A D) - 'Untitled'


 Intro
  Q.=65
 6/8
  Gtr I
   E  S E S  E E E     E  S E S E  E E
|------------------|-------------------|
|--------------8---|-------------------|
|--7--7-7-7-10---9-|---7--7-7-7-9------|
|------------------|--------------10-7-|
|------------------|-------------------|
|------------------|-------------------|
|
| Gtr II
|  H.                 +H.
|--8---------------|--(8)--------------|
|-10---------------|-(10)--------------|
|--7---------------|--(7)--------------|
|--7---------------|--(7)--------------|
|------------------|-------------------|
|------------------|-------------------|


    E  S E S  E E E     E  S E S E  E E
|-------------------|--------------------|
|---------------8---|--------------------|
|---7--7-7-7-10---9-|---7--7-7-7-9-------|
|-------------------|--------------10-7--|
|-------------------|--------------------|
|-------------------|--------------------|
|
|  +H.                 +H.
|--(8)--------------|--(8)---------------|
|-(10)--------------|-(10)---------------|
|--(7)--------------|--(7)---------------|
|--(7)--------------|--(7)---------------|
|-------------------|--------------------|
|-------------------|--------------------|


    E  S E S  E E E     E  S E S E  E E
|-------------------|-------------------|
|---------------8---|-------------------|
|---7--7-7-7-10---9-|---7--7-7-7-9------|
|-------------------|--------------10-7-|
|-------------------|-------------------|
|-------------------|-------------------|
|
|  +H.                 +H.
|--(8)--------------|--(8)--------------|
|-(10)--------------|-(10)--------------|
|--(7)--------------|--(7)--------------|
|--(7)--------------|--(7)--------------|
|-------------------|-------------------|
|-------------------|-------------------|
|
| Gtr III
|   <
|   H.                 +H.
|-------------------|-------------------|
|-------------------|-------------------|
|-------------------|-------------------|
|---7---------------|--(7)--------------|
|---5---------------|--(5)--------------|
|-------------------|-------------------|


                     5/8
    E  S E S  E E E     E  S E S E   E
|-------------------|-------------------|
|---------------8---|-------------------|
|---7--7-7-7-10---9-|---7--7-7-7-9------|
|-------------------|---------------10--|
|-------------------|-------------------|
|-------------------|-------------------|
|
|  +H.                 +H           +E
|--(8)--------------|--(8)----------(8)-|
|-(10)--------------|-(10)---------(10)-|
|--(7)--------------|--(7)----------(7)-|
|--(7)--------------|--(7)----------(7)-|
|-------------------|-------------------|
|-------------------|-------------------|
|
|  +H.                 +H           +E
|-------------------|-------------------|
|-------------------|-------------------|
|-------------------|-------------------|
|--(7)--------------|--(7)----------(7)-|
|--(5)--------------|--(5)----------(5)-|
|-------------------|-------------------|


                                                           6/8
     E S E S E   E      E  S E S E   E     E S E S E   E      E  S E S E  E E
||------------------|-------------------|-----------------|-------------------|
||o-----------------|-------------------|-----------------|-------------------|
||---7-7-7-7-9------|---7--7-7-7-9------|--7-7-7-7-9------|---7--7-7-7-9------|
||--------------10--|---------------10--|-------------10--|--------------10-7-|
||o-----------------|-------------------|-----------------|-------------------|
||------------------|-------------------|-----------------|-------------------|
|
|    H          +E     +H           +E     H          +E     +H.
||--10---------(10)-|-(10)---------(10)-|-10---------(10)-|-(10)--------------|
||o-11---------(11)-|-(11)---------(11)-|--8----------(8)-|--(8)--------------|
||---7----------(7)-|--(7)----------(7)-|--7----------(7)-|--(7)--------------|
||---8----------(8)-|--(8)----------(8)-|--5----------(5)-|--(5)--------------|
||o-----------------|-------------------|-----------------|-------------------|
||------------------|-------------------|-----------------|-------------------|
|
|    H          +E     +H           +E     H          +E     +Q.       E  E E
||------------------|-------------------|-----------------|-------------------|
||o-----------------|-------------------|-----------------|-------------------|
||------------------|-------------------|-----------------|-------------------|
||------------------|-------------------|-----------------|-------------------|
||o--8----------(8)-|--(8)----------(8)-|--5----------(5)-|--(5)-------7------|
||---6----------(6)-|--(6)----------(6)-|--3----------(3)-|--(3)----------8-5-|


  1.,2.
   E  S E S  E E E     E  S E S E  E E
|------------------|-------------------|
|--------------8---|-------------------|
|--7--7-7-7-10---9-|---7--7-7-7-9------|
|------------------|--------------10-7-|
|------------------|-------------------|
|------------------|-------------------|
|
|  H.                 +H.
|--8---------------|--(8)--------------|
|-10---------------|-(10)--------------|
|--7---------------|--(7)--------------|
|--7---------------|--(7)--------------|
|------------------|-------------------|
|------------------|-------------------|
|
|  H.                 +H.
|------------------|-------------------|
|------------------|-------------------|
|------------------|-------------------|
|--7---------------|--(7)--------------|
|--5---------------|--(5)--------------|
|------------------|-------------------|


                     5/8
    E  S E S  E E E     E  S E S E   E   3x
|-------------------|--------------------||
|---------------8---|-------------------o||
|---7--7-7-7-10---9-|---7--7-7-7-9-------||
|-------------------|---------------10---||
|-------------------|-------------------o||
|-------------------|--------------------||
|
|  +H.                 +H           +E   3x
|--(8)--------------|--(8)----------(8)--||
|-(10)--------------|-(10)---------(10)-o||
|--(7)--------------|--(7)----------(7)--||
|--(7)--------------|--(7)----------(7)--||
|-------------------|-------------------o||
|-------------------|--------------------||
|
|  +H.                 +H           +E   3x
|-------------------|--------------------||
|-------------------|-------------------o||
|-------------------|--------------------||
|--(7)--------------|--(7)----------(7)--||
|--(5)--------------|--(5)----------(5)-o||
|-------------------|--------------------||


   Verse
    3.
   6/8
     E  S E S  E E E     E  S E S E  E E
||-------------------|-------------------|
||o--------------8---|-------------------|
||---7--7-7-7-10---9-|---7--7-7-7-9------|
||-------------------|--------------10-7-|
||o------------------|-------------------|
||-------------------|-------------------|
|
|   Gtr V
|    H.                 +H.
||---8---------------|--(8)--------------|
||o-10---------------|-(10)--------------|
||---7---------------|--(7)--------------|
||---7---------------|--(7)--------------|
||o------------------|-------------------|
||-------------------|-------------------|
|
|    H.                 +H           E E
||-------------------|-------------------|
||o------------------|-------------------|
||-------------------|-------------------|
||---7---------------|--(7)--------------|
||o--5---------------|--(5)--------------|
||-------------------|---------------8-5-|


    E  S E S  E E E     E  S E S E  E E
|-------------------|-------------------|
|---------------8---|-------------------|
|---7--7-7-7-10---9-|---7--7-7-7-9------|
|-------------------|--------------10-7-|
|-------------------|-------------------|
|-------------------|-------------------|
|
|  +H.                 +H.
|--(8)--------------|--(8)--------------|
|-(10)--------------|-(10)--------------|
|--(7)--------------|--(7)--------------|
|--(7)--------------|--(7)--------------|
|-------------------|-------------------|
|-------------------|-------------------|
|
|   H.                 +Q.       E  E E
|-------------------|-------------------|
|-------------------|-------------------|
|-------------------|-------------------|
|---7---------------|--(7)--------------|
|---5---------------|--(5)-------7------|
|-------------------|---------------8-5-|


  1.
   E  S E S E  E E     E  S E S E  E E
|------------------|-------------------|
|------------------|-------------------|
|--7--7-7-7-9------|---7--7-7-7-9------|
|-------------10-7-|--------------10-7-|
|------------------|-------------------|
|------------------|-------------------|
|
|  H.                 +H.
|-10---------------|-(10)--------------|
|-11---------------|-(11)--------------|
|--7---------------|--(7)--------------|
|--8---------------|--(8)--------------|
|------------------|-------------------|
|------------------|-------------------|
|
|  H.                 +H           E E
|------------------|-------------------|
|------------------|-------------------|
|------------------|-------------------|
|------------------|-------------------|
|--8---------------|--(8)--------------|
|--6---------------|--(6)----------8-5-|


   E  S E S E  E E     E  S E S E  E E
|------------------|--------------------||
|------------------|-------------------o||
|--7--7-7-7-9------|---7--7-7-7-9-------||
|-------------10-7-|--------------10-7--||
|------------------|-------------------o||
|------------------|--------------------||
|
|  H.                 +H.
|-10---------------|-(10)---------------||
|--8---------------|--(8)--------------o||
|--7---------------|--(7)---------------||
|--5---------------|--(5)---------------||
|------------------|-------------------o||
|------------------|--------------------||
|
|  H.                 +Q.       E  E E
|------------------|--------------------||
|------------------|-------------------o||
|------------------|--------------------||
|------------------|--------------------||
|--5---------------|--(5)-------7------o||
|--3---------------|--(3)----------8-5--||


  2.
                                                                       Gtr IV
   E  S E S E  E E     E  S E S E  E E    E  S E S E  E E     E  S E S E  E E
|------------------|-------------------|------------------|-------------------||
|------------------|-------------------|------------------|-------------------||
|--7--7-7-7-9------|---7--7-7-7-9------|--7--7-7-7-9------|---7--7-7-7-9------||
|-------------10-7-|--------------10-7-|-------------10-7-|--------------10-7-||
|------------------|-------------------|------------------|-------------------||
|------------------|-------------------|------------------|-------------------||
|
|  H.                 +H.                 H.                 +H.
|-10---------------|-(10)--------------|-10---------------|-(10)--------------||
|-11---------------|-(11)--------------|--8---------------|--(8)--------------||
|--7---------------|--(7)--------------|--7---------------|--(7)--------------||
|--8---------------|--(8)--------------|--5---------------|--(5)--------------||
|------------------|-------------------|------------------|-------------------||
|------------------|-------------------|------------------|-------------------||
|
|  H.                 +H           E E    H.                 +Q.       E  E E
|------------------|-------------------|------------------|-------------------||
|------------------|-------------------|------------------|-------------------||
|------------------|-------------------|------------------|-------------------||
|------------------|-------------------|------------------|-------------------||
|--8---------------|--(8)--------------|--5---------------|--(5)-------7------||
|--6---------------|--(6)----------8-5-|--3---------------|--(3)----------8-5-||


   horus
    $
    Gtrs III, IV
    E.  E.  +Q.      +E   E  E  a  E  E  E
||----------------|------------------------|
||o---------------|------------------------|
||--5---7---(7)---|--(7)--7--9--9s10--9--7-|
||--5---7---(7)---|--(7)-------------------|
||o-3---5---(5)---|--(5)--5--7--7s=8--7--5-|
||----------------|------------------------|
|
|   Gtrs II, V
|   E.  E.  +Q.      +E   E  E  a  E  E  E
||--8--10--(10)---|-(10)-10-12-12-13-12-10-|
||o-8--10--(10)---|-(10)-------------------|
||--5---7---(7)---|--(7)--7--9--9-10--9--7-|
||--5---7---(7)---|--(7)-------------------|
||o---------------|------------------------|
||----------------|------------------------|


  E.  E.  +Q.      +E   E  E  a  E  E  E
|---------------|-------------------------|
|---------------|-------------------------|
|-5---7---(7)---|--(7)--7--9--9s10--9--7--|
|-5---7---(7)---|--(7)--------------------|
|-3---5---(5)---|--(5)--5--7--7s=8--7--5--|
|---------------|-------------------------|
|
| E.  E.  +Q.      +E   E  E  a  E  E  E
|-8--10--(10)---|-(10)-10-12-12-13-12-10--|
|-8--10--(10)---|-(10)--------------------|
|-5---7---(7)---|--(7)--7--9--9-10--9--7--|
|-5---7---(7)---|--(7)--------------------|
|---------------|-------------------------|
|---------------|-------------------------|


                               1.                     2.
                                                   To Coda
  H.        H.        H.        E. S S S E S S S S     H.
|---------|---------|---------|---------------------||--------||
|---------|---------|---------|--------------------o||--------||
|-3-------|-2-------|-3-------|-5--5-----5-5-5-5-5--||-5------||
|-3-------|-2-------|-3-------|-5--5-x-x-5-5-5-5-5--||-5------||
|-1-------|-0-------|-1-------|-3--3-x-x-3-3-3-3-3-o||-3------||
|---------|---------|---------|---------------------||--------||
|
| H.        H.        H.        H.                     H.
|-6-------|-5-------|-6-------|-8-------------------||-8------||
|-6-------|-5-------|-6-------|-8------------------o||-8------||
|-3-------|-2-------|-3-------|-5-------------------||-5------||
|-3-------|-2-------|-3-------|-5-------------------||-5------||
|---------|---------|---------|--------------------o||--------||
|---------|---------|---------|---------------------||--------||


   Bridge
    Gtr IV
    E  S E S  E E E    E  S E S E  E E   E  S E S  E E E    E  S E S E  E E
||------------------|------------------|-----------------|--------------------||
||o-------------8---|------------------|-------------8---|-------------------o||
||--7--7-7-7-10---9-|--7--7-7-7-9------|-7--7-7-7-10---9-|--7--7-7-7-9--------||
||------------------|-------------10-7-|-----------------|-------------10-7---||
||o-----------------|------------------|-----------------|-------------------o||
||------------------|------------------|-----------------|--------------------||
|
|   Gtrs II, III, V
|   H.                +H.                H.                +H.
||------------------|------------------|-----------------|--------------------||
||o-----------------|------------------|-----------------|-------------------o||
||--7---------------|-(7)--------------|-7---------------|-(7)----------------||
||--7---------------|-(7)--------------|-7---------------|-(7)----------------||
||o-5---------------|-(5)--------------|-5---------------|-(5)---------------o||
||------------------|------------------|-----------------|--------------------||


 Verse
   E  S E S  E E E     E  S E S   E      E     E
|------------------|-------------------------------|
|--------------8---|-------------------------------|
|--7--7-7-7-10---9-|---7--7-7-7---9----------------|
|------------------|--------------------10-----7---|
|------------------|-------------------------------|
|------------------|-------------------------------|
|
| Gtr V
|  H.                 +Q.        +S   S  S  S  S S
|--8---------------|--(8)--------(8)-------------8-|
|-10---------------|-(10)-------(10)-----8-10-11---|
|--7---------------|--(7)--------(7)-10------------|
|--7---------------|--(7)--------(7)---------------|
|------------------|-------------------------------|
|------------------|-------------------------------|
|
| Gtr III
|  H.                 +H.
|------------------|-------------------------------|
|------------------|-------------------------------|
|------------------|-------------------------------|
|--7---------------|--(7)--------------------------|
|--5---------------|--(5)--------------------------|
|------------------|-------------------------------|


   E  S E S  E E E     E  S E S E  E E
|------------------|--------------------|
|--------------8---|--------------------|
|--7--7-7-7-10---9-|---7--7-7-7-9-------|
|------------------|--------------10-7--|
|------------------|--------------------|
|------------------|--------------------|
|
|  H.                 +H.
|-10---------------|-(10)---------------|
|-10---------------|-(10)---------------|
|--7---------------|--(7)---------------|
|--7---------------|--(7)---------------|
|------------------|--------------------|
|------------------|--------------------|
|
|  H.                 +Q.       E  E E
|------------------|--------------------|
|------------------|--------------------|
|------------------|--------------------|
|--7---------------|--(7)---------------|
|--5---------------|--(5)-------7--5-7--|
|------------------|--------------------|


   E  S E S E  E E     E  S E S E  E E    E  S E S E  E E     E  S E S E  E E
|------------------|-------------------|------------------|-------------------|
|------------------|-------------------|------------------|-------------------|
|--7--7-7-7-9------|---7--7-7-7-9------|--7--7-7-7-9------|---7--7-7-7-9------|
|-------------10-7-|--------------10-7-|-------------10-7-|--------------10-7-|
|------------------|-------------------|------------------|-------------------|
|------------------|-------------------|------------------|-------------------|
|
|  H.                 +H.                 H.                  H.
|-10---------------|-(10)--------------|-10---------------|--13---------------|
|-11---------------|-(11)--------------|-11---------------|--15---------------|
|--7---------------|--(7)--------------|-12---------------|--15---------------|
|--8---------------|--(8)--------------|-12---------------|-(12)--------------|
|------------------|-------------------|-13---------------|-(13)--------------|
|------------------|-------------------|------------------|-------------------|
|
|  H.                 +H           E E    H.                 +Q.       E  E E
|------------------|-------------------|------------------|-------------------|
|------------------|-------------------|------------------|-------------------|
|------------------|-------------------|------------------|-------------------|
|------------------|-------------------|------------------|-------------------|
|--8---------------|--(8)--------------|--5---------------|--(5)-------7------|
|--6---------------|--(6)----------8-5-|--3---------------|--(3)----------8-5-|


   E  S E S  E E E     E  S E S E  E E     E  S E S  E E E     E  S E S E  E E
|------------------|-------------------|-------------------|-------------------|
|--------------8---|-------------------|---------------8---|-------------------|
|--7--7-7-7-10---9-|---7--7-7-7-9------|---7--7-7-7-10---9-|---7--7-7-7-9------|
|------------------|--------------10-7-|-------------------|--------------10-7-|
|------------------|-------------------|-------------------|-------------------|
|------------------|-------------------|-------------------|-------------------|
|
|  H.                 +H.                 +H.                 +H.
|--8---------------|--(8)--------------|--(8)--------------|--(8)--------------|
|-10---------------|-(10)--------------|-(10)--------------|-(10)--------------|
|--7---------------|--(7)--------------|--(7)--------------|--(7)--------------|
|--7---------------|--(7)--------------|--(7)--------------|--(7)--------------|
|------------------|-------------------|-------------------|-------------------|
|------------------|-------------------|-------------------|-------------------|
|
|  H.                 +H.                  H.                 +Q.       E  E E
|------------------|-------------------|-------------------|-------------------|
|------------------|-------------------|-------------------|-------------------|
|------------------|-------------------|-------------------|-------------------|
|--7---------------|--(7)--------------|---7---------------|--(7)--------------|
|--5---------------|--(5)--------------|---5---------------|--(5)-------7--5-7-|
|------------------|-------------------|-------------------|-------------------|


                                                                D.S. al Coda
   E  S E S E  E E     E  S E S E  E E    E  S E S E  E E     E  S E S E  E E
|------------------|-------------------|------------------|-------------------||
|------------------|-------------------|------------------|-------------------||
|--7--7-7-7-9------|---7--7-7-7-9------|--7--7-7-7-9------|---7--7-7-7-9------||
|-------------10-7-|--------------10-7-|-------------10-7-|--------------10-7-||
|------------------|-------------------|------------------|-------------------||
|------------------|-------------------|------------------|-------------------||
|
|  H.                 +H.                 H.                 +H.
|-10---------------|-(10)--------------|-10---------------|-(10)--------------||
|-11---------------|-(11)--------------|--8---------------|--(8)--------------||
|--7---------------|--(7)--------------|--7---------------|--(7)--------------||
|--8---------------|--(8)--------------|--5---------------|--(5)--------------||
|------------------|-------------------|------------------|-------------------||
|------------------|-------------------|------------------|-------------------||
|
|  H.                 +H           E E    H.                 +Q.       E  E E
|------------------|-------------------|------------------|-------------------||
|------------------|-------------------|------------------|-------------------||
|------------------|-------------------|------------------|-------------------||
|------------------|-------------------|------------------|-------------------||
|--8---------------|--(8)--------------|--5---------------|--(5)-------7------||
|--6---------------|--(6)----------8-5-|--3---------------|--(3)----------8-5-||


 Interlude
  &
  D5
  Gtr III
   H.                 +H.
   |                   |
   /                   /

  Gtr I
   E  S E S  E E E     E  S E S E   E E
|------------------|--------------------|
|--------------8---|--------------------|
|--7--7-7-7-10---9-|---7--7-7-7-9-------|
|------------------|---------------10-7-|
|------------------|--------------------|
|------------------|--------------------|
|
| Gtr IV
|  H.                  e  S e S Q.
|------------------|--------------------|
|------------------|--------------------|
|--7---------------|---7--7-7-7-7-------|
|------------------|--------------------|
|------------------|--------------------|
|------------------|--------------------|
|
| Gtr V
|  H.                 +H.
|-10---------------|-(10)---------------|
|-10---------------|-(10)---------------|
|--7---------------|--(7)---------------|
|--7---------------|--(7)---------------|
|------------------|--------------------|
|------------------|--------------------|


                      5/8
   +H.                  +H           +E
    |                    |            |
    /                    /            /

    E  S E S  E  E E     E  S E S E   E
|--------------------|-------------------|
|----------------8---|-------------------|
|---7--7-7-7-10----9-|---7--7-7-7-9------|
|--------------------|---------------10--|
|--------------------|-------------------|
|--------------------|-------------------|
|
|   e  S e S  Q.         e  S e S e   e
|--------------------|-------------------|
|--------------------|-------------------|
|---7--7-7-7--7------|---7--7-7-7-7---7--|
|--------------------|-------------------|
|--------------------|-------------------|
|--------------------|-------------------|
|
|  +H.                  +H           +E
|-(10)---------------|-(10)---------(10)-|
|-(10)---------------|-(10)---------(10)-|
|--(7)---------------|--(7)----------(7)-|
|--(7)---------------|--(7)----------(7)-|
|--------------------|-------------------|
|--------------------|-------------------|


  Bb5                                   G5                           E C  A
                                                         6/8
   H          +E     +H           +E     H          +E     +Q.       E  E E
   |           |      |            |     |           |      |        |  | |
   /           /      /            /     /           /      /        o  o o

   E S E S E   E      E  S E S E   E     E S E S E   E      E  S E S E  E E
|-----------------|-------------------|-----------------|-------------------|
|-----------------|-------------------|-----------------|-------------------|
|--7-7-7-7-9------|---7--7-7-7-9------|--7-7-7-7-9------|---7--7-7-7-9------|
|-------------10--|---------------10--|-------------10--|--------------10-7-|
|-----------------|-------------------|-----------------|-------------------|
|-----------------|-------------------|-----------------|-------------------|
|
|  e S e S e   e      e  S e S e   e     e S e S e   e      e  S e S E  E E
|-----------------|-------------------|-----------------|-------------------|
|-----------------|-------------------|-----------------|-------------------|
|--7-7-7-7-7---7--|---7--7-7-7-7---7--|--7-7-7-7-7---7--|---7--7-7-7-9------|
|-----------------|-------------------|-----------------|--------------10-7-|
|--5-5-5-5-5---5--|---5--5-5-5-5---5--|--5-5-5-5-5---5--|---5--5-5-5--------|
|-----------------|-------------------|-----------------|-------------------|
|
|  H          +E     +H           +E     H          +E     +H.
|-10---------(10)-|-(10)---------(10)-|-10---------(10)-|-(10)--------------|
|-11---------(11)-|-(11)---------(11)-|--8----------(8)-|--(8)--------------|
|--7----------(7)-|--(7)----------(7)-|--7----------(7)-|--(7)--------------|
|--8----------(8)-|--(8)----------(8)-|--5----------(5)-|--(5)--------------|
|-----------------|-------------------|-----------------|-------------------|
|-----------------|-------------------|-----------------|-------------------|


  D5
   H.                      +H.
   |                        |
   /                        /

   E  S E S  E E E          E  S E S E  E E
|-----------------------|-------------------|
|--------------8--------|-------------------|
|--7--7-7-7-10---9------|---7--7-7-7-9------|
|-----------------------|--------------10-7-|
|-----------------------|-------------------|
|-----------------------|-------------------|
|
|                |-3--|
|  e  S e S  E E S  S S     e  S e S e  e e
|-----------------------|-------------------|
|--------------8--------|-------------------|
|--7--7-7-7--7---9-10-9-|---7--7-7-7-7--7-7-|
|-----------------------|-------------------|
|--5--5-5-5--5----------|---5--5-5-5-5--5-5-|
|-----------------------|-------------------|
|
|  H.                      +H.
|-10--------------------|-(10)--------------|
|-10--------------------|-(10)--------------|
|--7--------------------|--(7)--------------|
|--7--------------------|--(7)--------------|
|-----------------------|-------------------|
|-----------------------|-------------------|


                          5/8
   +H.                      +H           +E
    |                        |            |
    /                        /            /

    E  S E S  E E E          E  S E S E   E
|------------------------|-------------------|
|---------------8--------|-------------------|
|---7--7-7-7-10---9------|---7--7-7-7-9------|
|------------------------|---------------10--|
|------------------------|-------------------|
|------------------------|-------------------|
|
|                 |-3--|
|   e  S e S  E E S  S S     e  S e S e   e
|------------------------|-------------------|
|---------------8--------|-------------------|
|---7--7-7-7--7---9-10-9-|---7--7-7-7-7---7--|
|------------------------|-------------------|
|---5--5-5-5--5----------|---5--5-5-5-5---5--|
|------------------------|-------------------|
|
|  +H.                      +H           +E
|-(10)-------------------|-(10)---------(10)-|
|-(10)-------------------|-(10)---------(10)-|
|--(7)-------------------|--(7)----------(7)-|
|--(7)-------------------|--(7)----------(7)-|
|------------------------|-------------------|
|------------------------|-------------------|


  Bb5                                   G5                           E C  A
                                                         6/8
   H          +E     +H           +E     H          +E     +Q.       E  E E
   |           |      |            |     |           |      |        |  | |
   /           /      /            /     /           /      /        o  o o

   E S E S E   E      E  S E S E   E     E S E S E   E      E  S E S E  E E
|-----------------|-------------------|-----------------|-------------------||
|-----------------|-------------------|-----------------|-------------------||
|--7-7-7-7-9------|---7--7-7-7-9------|--7-7-7-7-9------|---7--7-7-7-9------||
|-------------10--|---------------10--|-------------10--|--------------10-7-||
|-----------------|-------------------|-----------------|-------------------||
|-----------------|-------------------|-----------------|-------------------||
|
|  e S e S E   E      e  S e S E   E     e S e S E   E      e  S e S E  E E
|-----------------|-------------------|-----------------|-------------------||
|-----------------|-------------------|-----------------|-------------------||
|--7-7-7-7-9------|---7--7-7-7-9------|--7-7-7-7-9------|---7--7-7-7-9------||
|-------------10--|---------------10--|-------------10--|--------------10-7-||
|--5-5-5-5--------|---5--5-5-5--------|--5-5-5-5--------|---5--5-5-5--------||
|-----------------|-------------------|-----------------|-------------------||
|
|  H          +E     +H           +E     H          +E     +H.
|-10---------(10)-|-(10)---------(10)-|-10---------(10)-|-(10)--------------||
|-11---------(11)-|-(11)---------(11)-|--8----------(8)-|--(8)--------------||
|--7----------(7)-|--(7)----------(7)-|--7----------(7)-|--(7)--------------||
|--8----------(8)-|--(8)----------(8)-|--5----------(5)-|--(5)--------------||
|-----------------|-------------------|-----------------|-------------------||
|-----------------|-------------------|-----------------|-------------------||


 Chorus
  Gtrs III, IV
  E.  E. Q.     E  E E a  E E E   E.  E. Q.     H.
|-------------|-----------------|-------------|-------|
|-------------|-----------------|-------------|-------|
|-5---7-------|----7-9-9s10-9-7-|-5---7-------|-------|
|-5---7-------|-----------------|-5---7-------|-------|
|-3---5-------|----5-7-7s=8-7-5-|-3---5-------|-------|
|-------------|-----------------|-------------|-------|
|
| Gtrs II, V
| E.  E. Q.     H.                E.  E. Q.     H.
|-8--10-------|-----------------|-8--10-------|-------|
|-8--10-------|-----------------|-8--10-------|-------|
|-5---7-------|-----------------|-5---7-------|-------|
|-5---7-------|-----------------|-5---7-------|-------|
|-------------|-----------------|-------------|-------|
|-------------|-----------------|-------------|-------|


  H.        H.        H.        E. S S S E. S S S
|---------|---------|---------|-------------------||
|---------|---------|---------|-------------------||
|-3-------|-2-------|-3-------|-5--5-----5--5-----||
|-3-------|-2-------|-3-------|-5--5-x-x-5--5-x-x-||
|-1-------|-0-------|-1-------|-3--3-x-x-3--3-x-x-||
|---------|---------|---------|-------------------||
|
| H.        H.        H.        H.
|-6-------|-5-------|-6-------|-8-----------------||
|-6-------|-5-------|-6-------|-8-----------------||
|-3-------|-2-------|-3-------|-5-----------------||
|-3-------|-2-------|-3-------|-5-----------------||
|---------|---------|---------|-------------------||
|---------|---------|---------|-------------------||


 Solo
  Gtr IV
   E.  E.   E.  E.      H       S  +S      +E
|-17--15--/20--17---|--15----------------------|
|-------------------|----------17-(17)b18-(17)-|
|-------------------|--------------------------|
|-------------------|--------------------------|
|-------------------|--------------------------|
|-------------------|--------------------------|
|
| Gtr III
|  E.  E.  +Q.         +Q.   E  E           E
|-------------------|--------------------------|
|-------------------|--------------------------|
|--5---7---(7)------|--(7)---9-10-----------9--|
|--5---7---(7)------|--(7)---------------------|
|--3---5---(5)------|--(5)---7--8-----------7--|
|-------------------|--------------------------|
|
| Gtrs II, V
|  E.  E.  +Q.         +H.
|--8--10--(10)------|-(10)---------------------|
|--8--10--(10)------|-(10)---------------------|
|--5---7---(7)------|--(7)---------------------|
|--5---7---(7)------|--(7)---------------------|
|-------------------|--------------------------|
|-------------------|--------------------------|


   E.  E.  E  S  S  S  S     E   +S      +E   S  S  S  S  S  S  S
|-15---------------------|-----------------------------------------|
|-----18--17-15----------|-----------------------------------------|
|---------------17-14----|-----------------------------------------|
|---------------------15-|--14--(14)b15-(14)-12-15-14--------------|
|------------------------|----------------------------15-12-15-12--|
|------------------------|-----------------------------------------|
|
|  H.                        H.
|------------------------|-----------------------------------------|
|------------------------|-----------------------------------------|
|-10---------------------|---2-------------------------------------|
|-10---------------------|---2-------------------------------------|
|--8---------------------|---0-------------------------------------|
|------------------------|-----------------------------------------|
|
|  H.                       +H.
|--8---------------------|--(8)------------------------------------|
|-10---------------------|-(10)------------------------------------|
|-10---------------------|-(10)------------------------------------|
|--7---------------------|--(7)------------------------------------|
|------------------------|-----------------------------------------|
|------------------------|-----------------------------------------|


   E.  E.  E  E   E     E.  E.  E  S  S  E
|--------------------|---------15-12-13-15-|
|------------13-/15--|-15--13--------------|
|---------12---------|---------------------|
|-12--15-------------|---------------------|
|--------------------|---------------------|
|--------------------|---------------------|
|
|  H.                   H.
|--------------------|---------------------|
|--------------------|---------------------|
|--7-----------------|--2------------------|
|--7-----------------|--2------------------|
|--5-----------------|--0------------------|
|--------------------|---------------------|
|
|  H.                   H.
|-10-----------------|---------------------|
|-10-----------------|-10------------------|
|--7-----------------|--9------------------|
|--7-----------------|--7------------------|
|--------------------|---------------------|
|--------------------|---------------------|


                                               ~~~~~~
   E.  E.  E  S  S  S  S    S   S  S  S  S  S  E. E.
|------------------------|---------------------------|
|------------------------|---------------------------|
|-14--12-----------------|--------------------10--9--|
|---------15-14-15-12-14-|--------12-10-12-10--------|
|------------------------|-12--15--------------------|
|------------------------|---------------------------|
|
|  H.                       H.
|------------------------|---------------------------|
|------------------------|---------------------------|
|--3---------------------|--5------------------------|
|--3---------------------|--5------------------------|
|--1---------------------|--3------------------------|
|------------------------|---------------------------|
|
|  H.                       H.
|--5---------------------|--5------------------------|
|--6---------------------|--6------------------------|
|--7---------------------|--5------------------------|
|--8---------------------|--7------------------------|
|------------------------|---------------------------|
|------------------------|---------------------------|


   E. E.  E E  E      E.  E.   E   E  E
|-----------------|----------------------|
|-----------------|---------------13-15--|
|-10--9-----------|---7--10---12---------|
|--------10-7-10--|----------------------|
|-----------------|----------------------|
|-----------------|----------------------|
|
|  H.                +H.
|-----------------|----------------------|
|-----------------|----------------------|
|--7--------------|--(7)-----------------|
|--7--------------|--(7)-----------------|
|--5--------------|--(5)-----------------|
|-----------------|----------------------|
|
|  H.                +Q.       Q.
|-10--------------|-(10)------13---------|
|-10--------------|-(10)-----(10)--------|
|--7--------------|--(7)------(7)--------|
|--7--------------|--(7)------(7)--------|
|-----------------|----------------------|
|-----------------|----------------------|


   E.  E.  E  E  E      E   S  S  S  S  E  E  E
|-----13--15-17-12--|--13------------------------|
|-15----------------|------15-13-----------------|
|-------------------|------------14-12-----------|
|-------------------|------------------15-14-----|
|-------------------|------------------------15\-|
|-------------------|----------------------------|
|
|  H.                   H.
|-------------------|----------------------------|
|-------------------|----------------------------|
|-10----------------|---2------------------------|
|-10----------------|---2------------------------|
|--8----------------|---0------------------------|
|-------------------|----------------------------|
|
|  H.                  +H.
|--8----------------|--(8)-----------------------|
|-10----------------|-(10)-----------------------|
|-10----------------|-(10)-----------------------|
|--7----------------|--(7)-----------------------|
|-------------------|----------------------------|
|-------------------|----------------------------|


   TP TP TP  TP      TP  TP TP  TP     TP  TP TP TP     TP   TP
   E. E. E.  E.      E.  E. E.  E.     E.  E. E. E.     Q.   Q.
|-----------------|------------------|----------------|-----------||
|-----------------|------------------|----------------|-----------||
|-----------------|------------------|--------7--9----|-7----5----||
|-----------------|---------7--10----|-7--10----------|-----------||
|--3--5--8--10----|--8--10-----------|----------------|-----------||
|-----------------|------------------|----------------|-----------||
|
|  H.                H.                H.               H.
|-----------------|------------------|----------------|-----------||
|-----------------|------------------|----------------|-----------||
|--7--------------|--2---------------|-3--------------|-5---------||
|--7--------------|--2---------------|-3--------------|-5---------||
|--5--------------|--0---------------|-1--------------|-3---------||
|-----------------|------------------|----------------|-----------||
|
|  H.                H.                H.               H.
|-10--------------|------------------|-5--------------|-5---------||
|-10--------------|-10---------------|-6--------------|-6---------||
|--7--------------|--9---------------|-7--------------|-5---------||
|--7--------------|--7---------------|-8--------------|-7---------||
|-----------------|------------------|----------------|-----------||
|-----------------|------------------|----------------|-----------||


 Out-Chorus
  Gtrs III, IV
  E.  E. Q.     E  E  E  a  E  E  E   E.  E. Q.     H.
|-------------|---------------------|-------------|-------|
|-------------|---------------------|-------------|-------|
|-5---7-------|----7--9--9s10--9--7-|-5---7-------|-------|
|-5---7-------|---------------------|-5---7-------|-------|
|-3---5-------|----5--7--7s=8--7--5-|-3---5-------|-------|
|-------------|---------------------|-------------|-------|
|
| Gtrs II, V
| E.  E. Q.     E  E  E  a  E  E  E   E.  E. Q.     H.
|-8--10-------|---10-12-12-13-12-10-|-8--10-------|-------|
|-8--10-------|---------------------|-8--10-------|-------|
|-5---7-------|----7--9--9-10--9--7-|-5---7-------|-------|
|-5---7-------|---------------------|-5---7-------|-------|
|-------------|---------------------|-------------|-------|
|-------------|---------------------|-------------|-------|


  H.=H
  H.        H.        H.        H.
|---------|---------|---------|-------|
|---------|---------|---------|-------|
|-3-------|-2-------|-3-------|-5-----|
|-3-------|-2-------|-3-------|-5-----|
|-1-------|-0-------|-1-------|-3-----|
|---------|---------|---------|-------|
|
| H.        H.        H.        H.
|-6-------|-5-------|-6-------|-8-----|
|-6-------|-5-------|-6-------|-8-----|
|-3-------|-2-------|-3-------|-5-----|
|-3-------|-2-------|-3-------|-5-----|
|---------|---------|---------|-------|
|---------|---------|---------|-------|


  Q.=40
   >
   H.         +H.          W         W
|----------|-----------|-----------|------*|
|----------|-----------|-----------|------*|
|--7-------|--(7)------|-----------|------*|
|----------|-----------|-----------|------*|
|--5-------|--(5)------|-----------|------*|
|----------|-----------|-----------|------*|
|
|  H.         +H.         +H.        W
|----------|-----------|-----------|------*|
|-10-------|-(10)------|-(10)------|------*|
|--7-------|--(7)------|--(7)------|------*|
|--7-------|--(7)------|--(7)------|------*|
|----------|-----------|-----------|------*|
|----------|-----------|-----------|------*|




--------------------------------------------------------------------------------


Duration Legend
---------------
W - whole; H - half; Q - quarter; E - 8th; S - 16th; T - 32nd; X - 64th; a - acciaccatura
+ - note tied to previous; . - note dotted; .. - note double dotted
Uncapitalized letters represent notes that are staccato (1/2 duration)
Irregular groupings are notated above the duration line
Duration letters will always appear directly above the note/fret number it represents the
duration for.  Duration letters with no fret number below them represent rests.  Multi-
bar rests are notated in the form Wxn, where n is the number of bars to rest for.  Low
melody durations appear below the staff

Tablature Legend
----------------
 h   - hammer-on
 p   - pull-off
 b   - bend
 pb  - pre-bend
 r   - bend release (if no number after the r, then release immediately)
 /\  - slide into or out of (from/to "nowhere")
 s   - legato slide
 S   - shift slide
 - natural harmonic
[n]  - artificial harmonic
n(n) - tapped harmonic
 ~   - vibrato
 tr  - trill
 T   - tap
 TP  - trem. picking
 PM  - palm muting
\n/  - tremolo bar dip; n = amount to dip
 \n  - tremolo bar down
 n/  - tremolo bar up
/n\  - tremolo bar inverted dip
 =   - hold bend; also acts as connecting device for hammers/pulls
 <> - volume swell (louder/softer)
 x   - on rhythm slash represents muted slash
 o   - on rhythm slash represents single note slash

Misc Legend
-----------
 |  - bar
||  - double bar
||o - repeat start
o|| - repeat end
*|  - double bar (ending)
 :  - bar (freetime)
 $  - Segno
 &  - Coda
Tempo markers -  = BPM(8/16=s8/s16), where s8 = swing 8ths, s16 = swing 16ths


comments
We did not receive enough feedback on this tab! Please rate:
print report bad tab
1 2 3 4 5
I want to post or [tab]
guest
You may want to rate the tab now too:
select rating
Please do not post tabs as comments. Select "correction" instead!