Oops, an error
Loading. Please wait.

Stone Woman Tab

ver2
ver2

Whole song

Interactive

More versions @911Tabs.com
245 views 1 this week
no commentswrite comment
1 2 3 4 5
please rate
Autoscroll
+/-
esc
set tempo
stop
Contributor
Difficulty
Tuning
novice
D G C F A D
WARNING: You are trying to view
                                    content from Ultimate-Guitar.com
                                    in an unauthorized application,
                                    which is prohibited.

                                    Please use an official Ultimate
                                    Guitar Tabs application for iPhone,
                                    iPad or Android to access legitimate
                                    chords, guitar, bass, and drum tabs
                                    from Ultimate-Guitar.com database.

                                    Type "ultimate guitar tabs" in Apple
                                    App Store's or Android Market's
                                    search to find the application.
-------------------------------------------------------------------------------
                             Stone Woman -by- Amorphis
-------------------------------------------------------------------------------
Tabbed by: Jeff Cameron
11/11/2007 
Email: jcameron99@gmail.com

Hey, this is my first tab, but I think it’s pretty decent. Enjoy.

(First Edit)

Tuning:  D G C F A D

Intro, X4:

Distortion
d|-----------------------------------|---------------------------------------|
A|-----------------------------------|---------------------------------------|
F|-----------------------------------|---------------------------------------|
C|----7---7---10---/14---12---10-----|--------9--12------7--10---------------|
G|----7---7---10---/14---12---10-----|----10----------8----------------------|
D|----5---5---8----/12---10---8------|---------------------------------------|

Verse 1a, X4:

Clean, strum
D|-----------------------------------|---------------------------------------|
A|-----------------------------------|----8--8--8--6--6--6--6--6-------------|
F|---7—-7—-7—-7--7--7—-7--7----------|----7--7--7--5--5--5--5--5-------------|
C|---7—-7—-7—-7--7--7—-7--7----------|----5--5--5--3--3--3--3--3-------------|
G|---5—-5—-5—-5--5--5—-5--5----------|----5--5--5--3--3--3--3--3-------------|
D|-----------------------------------|---------------------------------------|

Verse 1b, X4:

Guitar 1, distortion
     •  •  •  •  •  •  •  •               •  •  •  •  •  •  •  •
D|-----------------------------------|---------------------------------------|
A|-----------------------------------|---------------------------------------|
F|---7--7--7--7--7--7--7--7----------|---------------------------------------|
C|---7--7--7--7--7--7--7--7----------|----5--5--5--3--3--3--3--3-------------|
G|---5--5--5--5--5--5--5--5----------|----5--5--5--3--3--3--3--3-------------|
D|-----------------------------------|----3--3--3--1--1--1--1--1-------------|

Guitar 2, distortion, let ring
d|-----------------------------------|---------------------------------------|
A|-------15--------------------------|---------------------------------------|
F|-------------14~~~~~~~~~~~~~~~~~~~~|~~~~~~~~~~~~~~~~~~~~~~~~~~~~~~~~~~~~~~~|
C|---0~~~~~~~~~~~~~~~~~~~~~~~~~~~~~~~|~~~~~~~~~~~~~~~~~~~~~~~~~~~~~~~~~~~~~~~|
G|-----------------------------------|---------------------------------------|
D|-----------------------------------|---------------------------------------|

Chorus 1a:

Guitar 1, distortion
              •                                                              X4
d|-----------------------------------|---------------------------------------|
A|-----------------------------------|---------------------------------------|
F|----7---7---x----2-----------------|------0-------------3------------------|
C|----7---7---x----2-----------------|------2-------------3------------------|
G|----5---5---x----0-----------------|------3-------------1------------------|
D|-----------------------------------|---------------------------------------|

Guitar 2, distortion
d|-----------------------------------|---------------------------------------|
A|---------------10~~~~~~~~~~~~~~~~~~|~~~~~~~~~~~~~~~~~~~~~~~~~~~~~~~~~~~~~~~|
F|-----7--7--10----------------------|---------------------------------------|
C|-----------------------------------|---------------------------------------|
G|-----------------------------------|---------------------------------------|
D|-----------------------------------|---------------------------------------|

d|-----------------------------------|---------------------------------------|
A|---------------10-—8~~~~~~~~~~~~~~~|~~~~~~~~~~~~~~~~~~~~~~~~~~~~~~~~~~~~~~~|
F|-----7--7--10----------------------|---------------------------------------|
C|-----------------------------------|---------------------------------------|
G|-----------------------------------|---------------------------------------|
D|-----------------------------------|---------------------------------------|

d|-----------------------------------|---------------------------------------|
A|---------------10~~~~~~~~~~~~~~~~~~|~~~~~~~~~~~~~~~~~~~~~~~~~~~~~~~~~~~~~~~|
F|-----7--7--10----------------------|---------------------------------------|
C|-----------------------------------|---------------------------------------|
G|-----------------------------------|---------------------------------------|
D|-----------------------------------|---------------------------------------|

d|-----------------------------------|---------------------------------------|
A|---------------10—-8~~~~~~---------|---/8----------------------------------|
F|-----7--7--10----------------------|--------10---9---7~~~~~~~~~~~~~--------|
C|-----------------------------------|---------------------------------------|
G|-----------------------------------|---------------------------------------|
D|-----------------------------------|---------------------------------------|

Chorus 1b, X4:

distortion
d|-----------------------------------|---------------------------------------|
A|-----------------------------------|---------------------------------------|
F|-----------------------------------|---------------------------------------|
C|----------3----/7----5----3--------|--------2----5----------------3--------|
G|---5--5----------------------------|----3--------------1----/5-------------|
D|-----------------------------------|---------------------------------------|

Verse 2a, X4:

Clean, strum
D|-----------------------------------|---------------------------------------|
A|-----------------------------------|----8--8--8--6--6--6--6--6-------------|
F|---7—-7—-7—-7--7--7—-7--7----------|----7--7--7--5--5--5--5--5-------------|
C|---7—-7—-7—-7--7--7—-7--7----------|----5--5--5--3--3--3--3--3-------------|
G|---5—-5—-5—-5--5--5—-5--5----------|----5--5--5--3--3--3--3--3-------------|
D|-----------------------------------|---------------------------------------|

Verse 2b:

Guitar 1, distortion
     •  •  •  •  •  •  •  •               •  •  •  •  •  •  •  •             X4
D|-----------------------------------|---------------------------------------|
A|-----------------------------------|---------------------------------------|
F|---7--7--7--7--7--7--7--7----------|---------------------------------------|
C|---7--7--7--7--7--7--7--7----------|----5--5--5--3--3--3--3--3-------------|
G|---5--5--5--5--5--5--5--5----------|----5--5--5--3--3--3--3--3-------------|
D|-----------------------------------|----3--3--3--1--1--1--1--1-------------|

Guitar 2, distortion
d|-----------------------------------|---------------------------------------|
A|----18--17--15---------------------|---------------------------------------|
F|-------------------14--------------|--------------16-----------------------|
C|-----------------------------15----|------/17------------------------------|
G|-----------------------------------|---------------------------------------|
D|-----------------------------------|---------------------------------------|

d|-----------------------------------|---------------------------------------|
A|-------15--------------------------|---------------------------------------|
F|-------------14~~~~~~~~~~~~~~~-----|---------------------------------------|
C|---0~~~~~~~~~~~~~~~~~~~~~~~~~~-----|--------------17----15-----------------|
G|-----------------------------------|------/17------------------------------|
D|-----------------------------------|---------------------------------------|

d|-----------------------------------|---------------------------------------|
A|----18--17--15---------------------|---------------------------------------|
F|-------------------14--------------|--------------16-----------------------|
C|-----------------------------15----|------/17-----------15-----------------|
G|-----------------------------------|---------------------------------------|
D|-----------------------------------|---------------------------------------|

d|-----------------------------------|---------------------------------------|
A|-----13--12--10--------------------|---------------------------------------|
F|----------------------10-----14----|-----12~~~~~~~~~~~~~~~~~~~~------------|
C|-----------------------------------|---------------------------------------|
G|-----------------------------------|---------------------------------------|
D|-----------------------------------|---------------------------------------|

Chorus 2:

Guitar 1, distortion
              •                                                              X4
d|-----------------------------------|---------------------------------------|
A|-----------------------------------|---------------------------------------|
F|----7---7---x----2-----------------|------0-------------3------------------|
C|----7---7---x----2-----------------|------2-------------3------------------|
G|----5---5---x----0-----------------|------3-------------1------------------|
D|-----------------------------------|---------------------------------------|

Guitar 2, distortion
d|-----------------------------------|---------------------------------------|
A|---------------10~~~~~~~~~~~~~~~~~~|~~~~~~~~~~~~~~~~~~~~~~~~~~~~~~~~~~~~~~~|
F|-----7--7--10----------------------|---------------------------------------|
C|-----------------------------------|---------------------------------------|
G|-----------------------------------|---------------------------------------|
D|-----------------------------------|---------------------------------------|

d|-----------------------------------|---------------------------------------|
A|---------------10-—8~~~~~~~~~~~~~~~|~~~~~~~~~~~~~~~~~~~~~~~~~~~~~~~~~~~~~~~|
F|-----7--7--10----------------------|---------------------------------------|
C|-----------------------------------|---------------------------------------|
G|-----------------------------------|---------------------------------------|
D|-----------------------------------|---------------------------------------|

d|-----------------------------------|---------------------------------------|
A|---------------10~~~~~~~~~~~~~~~~~~|~~~~~~~~~~~~~~~~~~~~~~~~~~~~~~~~~~~~~~~|
F|-----7--7--10----------------------|---------------------------------------|
C|-----------------------------------|---------------------------------------|
G|-----------------------------------|---------------------------------------|
D|-----------------------------------|---------------------------------------|

d|-----------------------------------|---------------------------------------|
A|---------------10—-8~~~~~~---------|---/8----------------------------------|
F|-----7--7--10----------------------|--------10---9---7~~~~~~~~~~~~~--------|
C|-----------------------------------|---------------------------------------|
G|-----------------------------------|---------------------------------------|
D|-----------------------------------|---------------------------------------|

Bridge / Solo Section:

                                                     < > bend 1/2
d|-----------------------------------|---------------------------------------|
A|-----------------------------------|---------------------------------------|
F|-----------------------------------|---------------------------------------|
C|-----------------------------------|-------5---7----7-----5-----0----------|
G|----7------------------------------|--/7-----------------------------------|
D|--------0---0---------5-----7------|---------------------------------------|

First ending, X3:
                                                     < > bend 1/2
d|-----------------------------------|---------------------------------------|
A|-----------------------------------|---------------------------------------|
F|-----------------------------------|---------------------------------------|
C|-----------------------------------|-------5---7----5-----------0----------|
G|----7------------------------------|--/7-----------------------------------|
D|--------0---0---------5-----7------|---------------------------------------|

Second ending, X1:
                                        < > bend 1/2
d|-----------------------------------|---------------------------------------|
A|-----------------------------------|---------------------------------------|
F|-----------------------------------|---------------------------------------|
C|--------5---7---/9---7---5---------|---7---5---7----5----------------------|
G|----7------------------------------|------------------7--5-----------------|
D|-----------------------------------|--------------------------5----3-------|

Chorus 3a:

Guitar 1, distortion
              •                                                              X4
d|-----------------------------------|---------------------------------------|
A|-----------------------------------|---------------------------------------|
F|----7---7---x----2-----------------|------0-------------3------------------|
C|----7---7---x----2-----------------|------2-------------3------------------|
G|----5---5---x----0-----------------|------3-------------1------------------|
D|-----------------------------------|---------------------------------------|

Guitar 2, distortion
d|-----------------------------------|---------------------------------------|
A|---------------10~~~~~~~~~~~~~~~~~~|~~~~~~~~~~~~~~~~~~~~~~~~~~~~~~~~~~~~~~~|
F|-----7--7--10----------------------|---------------------------------------|
C|-----------------------------------|---------------------------------------|
G|-----------------------------------|---------------------------------------|
D|-----------------------------------|---------------------------------------|

d|-----------------------------------|---------------------------------------|
A|---------------10-—8~~~~~~~~~~~~~~~|~~~~~~~~~~~~~~~~~~~~~~~~~~~~~~~~~~~~~~~|
F|-----7--7--10----------------------|---------------------------------------|
C|-----------------------------------|---------------------------------------|
G|-----------------------------------|---------------------------------------|
D|-----------------------------------|---------------------------------------|

d|-----------------------------------|---------------------------------------|
A|---------------10~~~~~~~~~~~~~~~~~~|~~~~~~~~~~~~~~~~~~~~~~~~~~~~~~~~~~~~~~~|
F|-----7--7--10----------------------|---------------------------------------|
C|-----------------------------------|---------------------------------------|
G|-----------------------------------|---------------------------------------|
D|-----------------------------------|---------------------------------------|

d|-----------------------------------|---------------------------------------|
A|---------------10—-8~~~~~~---------|---/8----------------------------------|
F|-----7--7--10----------------------|--------10---9---7~~~~~~~~~~~~~--------|
C|-----------------------------------|---------------------------------------|
G|-----------------------------------|---------------------------------------|
D|-----------------------------------|---------------------------------------|

Chorus 3b, X4:

distortion
d|-----------------------------------|---------------------------------------|
A|-----------------------------------|---------------------------------------|
F|-----------------------------------|---------------------------------------|
C|----------3----/7----5----3--------|--------2----5----------------3--------|
G|---5--5----------------------------|----3--------------1----/5-------------|
D|-----------------------------------|---------------------------------------|

Outro:

                            |~~~~~~~~~~~let ring~~~~~~~~~~~~~~~~~~~~~~~~~~~~~|
d|-----------------------------------|---------------------------------------|
A|-----------------------------------|---------------------------------------|
F|--------------------------7--------|---------------------------------------|
C|----------------2---------7--------|---------------------------------------|
G|----0----3----------------5--------|---------------------------------------|
D|-----------------------------------|---------------------------------------|

| •  palm mute
| /  slide up
| \  slide down
| h  hammer-on
| p  pull-off
| ~  vibrato and/or let ring
| +  harmonic
| x  Mute note
===============================================================================
comments
We did not receive enough feedback on this tab! Please rate:
print report bad tab
1 2 3 4 5
I want to post or [tab]
guest
You may want to rate the tab now too:
select rating
Please do not post tabs as comments. Select "correction" instead!