Oops, an error
Loading. Please wait.

The Lost Name Of God Tab

224 views 1 this week
no commentswrite comment
1 2 3 4 5
please rate
Autoscroll
+/-
esc
set tempo
stop
Contributor
Hey! There's an official Ultimate Guitar app which is ideal
for learning songs when you're away from computer. Get the app
WARNING: You are trying to view
                                    content from Ultimate-Guitar.com
                                    in an unauthorized application,
                                    which is prohibited.

                                    Please use an official Ultimate
                                    Guitar Tabs application for iPhone,
                                    iPad or Android to access legitimate
                                    chords, guitar, bass, and drum tabs
                                    from Ultimate-Guitar.com database.

                                    Type "ultimate guitar tabs" in Apple
                                    App Store's or Android Market's
                                    search to find the application.
#----------------------------------PLEASE NOTE---------------------------------#
#This file is the author's own work and represents their interpretation of the #
#song. You may only use this file for private study, scholarship, or research. #
#------------------------------------------------------------------------------#

THE LOST NAME OF GOD
As recorded by Amorphis
(From the 1993 Album THE KARELIAN ISTHMUS)


Transcribed by Rumi (YourMessiah666)

 Words by Jan Rechberger Music by Esa Holopainen, Tomi Koivusaari & Jan Rechberger

 

Gtr I (C F Bb Eb G C) - 'Untitled'
Gtr II (C F Bb Eb G C) - 'Untitled'


 Intro
  Q=124
  E5                      E5
 4/4
  Gtr I
  W          +W            Q  E  Q   E Q    E Q  E  E  E Q
|----------|------------|-----------------|------------------|
|----------|------------|-----------------|------------------|
|----------|------------|------------8-9--|------------------|
|----------|------------|-----9-10--------|-7-9--7-10--9-----|
|-2--------|-(2)--------|-/7--------------|--------------8---|
|-0--------|-(0)--------|-----------------|------------------|
|
| Gtr II
| W          +W            Q  Q    H        H       H
|----------|------------|-----------------|------------------|
|----------|------------|-----------------|------------------|
|----------|------------|-----------------|------------------|
|----------|------------|-----------------|------------------|
|-2--------|-(2)--------|--2--------------|------------------|
|-0--------|-(0)--------|--0--------------|--------12\-------|


  N.C.
   ~~~~~~~~~~~~~~~~~~~~
   W               +W                  Q  E  Q  E Q     E  Q  E  E E Q
|----------------|------------------|----------------|------------------|
|----------------|------------------|----------------|------------------|
|--9-------------|-(9)--------------|-----------8-9--|------------------|
|----------------|------------------|-----9-10-------|--7--9--7-10-9----|
|----------------|------------------|-/7-------------|---------------8--|
|----------------|------------------|----------------|------------------|
|
|                                      ~~~~~~~~~~~~~~~~~~~~
|  Q  E  Q  E Q     E  Q  E  E E Q     W               +W
|----------------|------------------|----------------|------------------|
|----------------|------------------|----------------|------------------|
|-----------8-9--|------------------|--9-------------|-(9)--------------|
|-----9-10-------|--7--9--7-10-9----|----------------|------------------|
|-/7-------------|---------------8--|----------------|------------------|
|----------------|------------------|----------------|------------------|


                                        E5                        F5
   ~~~~~~~~~~~~~~~~~~~~
   W               +W                    W               +H        H
|----------------|------------------||-----------------|------------------|
|----------------|------------------||o----------------|------------------|
|--9-------------|-(9)--------------||-----------------|------------------|
|----------------|------------------||-----------------|------------------|
|----------------|------------------||o--2-------------|-(2)-------3------|
|----------------|------------------||---0-------------|-(0)-------1------|
|
|  Q  E  Q  E Q     E  Q  E  E E Q       Q  E  Q  E Q     E  Q  E  E E Q
|----------------|------------------||-----------------|------------------|
|----------------|------------------||o----------------|------------------|
|-----------8-9--|------------------||------------8-9--|------------------|
|-----9-10-------|--7--9--7-10-9----||------9-10-------|--7--9--7-10-9----|
|-/7-------------|---------------8--||o-/7-------------|---------------8--|
|----------------|------------------||-----------------|------------------|


  E5                        F5        E5                        F5
   W               +H        H         W               +H        H
|----------------|------------------|----------------|------------------|
|----------------|------------------|----------------|------------------|
|----------------|------------------|----------------|------------------|
|----------------|------------------|----------------|------------------|
|--2-------------|-(2)-------3------|--2-------------|-(2)-------3------|
|--0-------------|-(0)-------1------|--0-------------|-(0)-------1------|
|
|  Q  E  Q  E Q     E  Q  E  E E Q     Q  E  Q  E Q     E  Q  E  E E Q
|----------------|------------------|----------------|------------------|
|----------------|------------------|----------------|------------------|
|-----------8-9--|------------------|-----------8-9--|------------------|
|-----9-10-------|--7--9--7-10-9----|-----9-10-------|--7--9--7-10-9----|
|-/7-------------|---------------8--|-/7-------------|---------------8--|
|----------------|------------------|----------------|------------------|


  1.                              2.
  E5                      F5       E5                        F5
   W               +H     H         W               +H        H
|----------------|--------------||----------------|------------------|
|----------------|-------------o||----------------|------------------|
|----------------|--------------||----------------|------------------|
|----------------|--------------||----------------|------------------|
|--2-------------|-(2)----3----o||--2-------------|-(2)-------3------|
|--0-------------|-(0)----1-----||--0-------------|-(0)-------1------|
|
|             ~~~~~~~~~
|  Q  E  Q  E Q    +W               Q  E  Q  E Q     E  Q  E  E E Q
|----------------|--------------||----------------|------------------|
|----------------|-------------o||----------------|------------------|
|-----------8-9--|-(9)----------||-----------8-9--|------------------|
|-----9-10-------|--------------||-----9-10-------|--7--9--7-10-9----|
|-/7-------------|-------------o||-/7-------------|---------------8--|
|----------------|--------------||----------------|------------------|


   Verse
    G5                              G#5
      W                  +H          H
||---------------------|----------------------|
||o--------------------|----------------------|
||---------------------|----------------------|
||---------------------|----------------------|
||o---5----------------|-(5)---------6--------|
||----3----------------|-(3)---------4--------|
|
|     Q   E  Q   E  Q     E   Q   E  E  E  Q
||---------------------|----------------------|
||o--------------------|----------------------|
||--------------11-12--|----------------------|
||-------12-13---------|-10--12--10-13-12-----|
||o-/10----------------|------------------11--|
||---------------------|----------------------|


  G5                              G#5
    W                  +H          H
|--------------------|------------------------||
|--------------------|-----------------------o||
|--------------------|------------------------||
|--------------------|------------------------||
|---5----------------|-(5)---------6---------o||
|---3----------------|-(3)---------4----------||
|
|   Q   E  Q   E  Q     E   Q   E  E  E  Q
|--------------------|------------------------||
|--------------------|-----------------------o||
|-------------11-12--|------------------------||
|------12-13---------|-10--12--10-13-12-------||
|-/10----------------|------------------11---o||
|--------------------|------------------------||


 Interlude
  $$
  N.C.
 4/4
  H     Q.   S  S   Q.   E Q  Q    H     Q.   S  S   Q.   E Q   Q
|-----------------|--------------|-----------------|----------------|
|-----------------|--------------|-----------------|----------------|
|-----------------|--------------|-----------------|----------------|
|-----------------|-5----5-------|-----------------|-5----5---------|
|-7-----8----7--8-|--------5--8--|-7-----8----7--8-|--------5---8---|
|-----------------|--------------|-----------------|----------------|
|
| H     Q.   S  S   W              H     Q.   S  S   H      Q   Q
|-----------------|--------------|-----------------|----------------|
|-----------------|--------------|-----------------|----------------|
|-----------------|--------------|-----------------|----------------|
|-7----10----9-10-|-9------------|-7----10----9-10-|-9------7-------|
|-----------------|--------------|-----------------|-----------10---|
|-----------------|--------------|-----------------|----------------|


  H     Q.   S  S   Q.   E Q  Q    H        Q.      S S    Q.    E Q    Q
|-----------------|--------------|----------------------|-------------------|
|-----------------|--------------|----------------------|-------------------|
|-----------------|--------------|----------------------|-------------------|
|-----------------|-5----5-------|----------------------|--5-----5----------|
|-7-----8----7--8-|--------5--8--|-7--------8-------7-8-|----------5----8---|
|-----------------|--------------|----------------------|-------------------|
|
| H     Q.   S  S   W              Q   E E  E  E  E E      Q   E Q    Q   E
|-----------------|--------------|----------------------|-------------------|
|-----------------|--------------|----------------------|-------------------|
|-----------------|--------------|-------------7--------|-------------------|
|-7----10----9-10-|-9------------|-7--10-9-10----10-9---|-10---9-7----------|
|-----------------|--------------|----------------------|------------10---8-|
|-----------------|--------------|----------------------|-------------------|


  H     Q.   S  S   Q.   E  Q        Q      H     Q.   S  S   Q.   E  Q  Q
|-----------------|-----------------------|-----------------|---------------|
|-----------------|-----------------------|-----------------|---------------|
|-----------------|-----------------------|-----------------|---------------|
|-----------------|-----------------------|-----------------|---------------|
|-----------------|-5----5----------------|-----------------|-5----5--------|
|-7-----8----7--8-|---------5--------8----|-7-----8----7--8-|---------5--8--|
|
|                             |-3--|
| H     Q.   S  S   H       E S  S S E  E   H     Q.   S  S   H       Q  Q
|-----------------|-----------------------|-----------------|---------------|
|-----------------|-----------------------|-----------------|---------------|
|-----------------|-----------------------|-----------------|---------------|
|-----------------|-----------------------|-----------------|---------------|
|-7----10----9-10-|-9------10-9h10p9-7-10-|-7----10----9-10-|-9------10--9--|
|-----------------|-----------------------|-----------------|---------------|


  H     Q.   S  S   Q.   E  Q        Q
|-----------------|-----------------------|
|-----------------|-----------------------|
|-----------------|-----------------------|
|-----------------|-----------------------|
|-----------------|-5----5----------------|
|-7-----8----7--8-|---------5--------8----|
|
|                             |-3--|
| H     Q.   S  S   H       E S  S S E  E
|-----------------|-----------------------|
|-----------------|-----------------------|
|-----------------|-----------------------|
|-----------------|-----------------------|
|-7----10----9-10-|-9------10-9h10p9-7-10-|
|-----------------|-----------------------|


  H        Q.      S S    Q.    E Q    Q
|----------------------|-------------------|
|----------------------|-------------------|
|----------------------|-------------------|
|----------------------|-------------------|
|----------------------|--5-----5----------|
|-7--------8-------7-8-|----------5----8---|
|
| Q   E E  E  E  E E      Q   E Q    Q   E
|----------------------|-------------------|
|----------------------|-------------------|
|----------------------|-------------------|
|-------------7--------|-------------------|
|-7--10-9-10----10-9---|-10---9-7----------|
|----------------------|------------10---8-|


  H     Q.    S  S   Q.   E  Q         Q
|------------------|------------------------|
|------------------|------------------------|
|------------------|------------------------|
|------------------|------------------------|
|------------------|-7----7-----------------|
|-9----10-----9-10-|---------7--------10----|
|
|                              |-3--|
| H     Q.    S  S   H       E S  S S  E  E
|------------------|------------------------|
|------------------|------------------------|
|------------------|------------------------|
|------------------|-9------11-9h11p9-------|
|-9----12----11-12-|------------------12-11-|
|------------------|------------------------|


  H     Q.    S  S    Q.   E  Q   Q
|------------------|-----------------|
|------------------|-----------------|
|------------------|-----------------|
|------------------|-----------------|
|------------------|--7----7---------|
|-9----10-----9-10-|----------7--10--|
|
| H     Q.    S  S    H       Q   Q
|------------------|-----------------|
|------------------|-----------------|
|------------------|-----------------|
|------------------|-----------------|
|-9----12----11-12-|-11------12--11--|
|------------------|-----------------|


  H     Q.    S  S   Q.   E  Q         Q
|------------------|------------------------|
|------------------|------------------------|
|------------------|------------------------|
|------------------|------------------------|
|------------------|-7----7-----------------|
|-9----10-----9-10-|---------7--------10----|
|
|                              |-3--|
| H     Q.    S  S   H       E S  S S  E  E
|------------------|------------------------|
|------------------|------------------------|
|------------------|------------------------|
|------------------|-9------11-9h11p9-------|
|-9----12----11-12-|------------------12-11-|
|------------------|------------------------|


                              To Dbl. Coda
   H         Q.      S  S    Q.     E  Q   Q
|-------------------------|--------------------|
|-------------------------|--------------------|
|-------------------------|--------------------|
|-------------------------|--------------------|
|-------------------------|--7------7----------|
|--9--------10-------9-10-|------------7--10---|
|
|  Q   E  E  E.  E.  E       Q    E Q.     Q
|-------------------------|--------------------|
|-------------------------|--------------------|
|-------------------------|--------------------|
|------------9------------|--------------------|
|-12--11-12-----12--11----|-12---11-9----------|
|-------------------------|---------------12---|


   Verse
    F5E5       F5E5         F5 G#5  G#F5       G#F5         G5 F5
    Gtrs I, II
    E E +H     E E   +H     Q  Q    E E +H     E E   +H     Q  Q
||-----------------|--------------|----------------|----------------||
||o----------------|--------------|----------------|---------------o||
||-----------------|--------------|----------------|----------------||
||-----------------|--------------|----------------|----------------||
||o-3-2-(2)----3-2-|-(2)----3--6--|-6-3-(3)----6-3-|-(3)----5--3---o||
||--1-0-(0)----1-0-|-(0)----1--4--|-4-1-(1)----4-1-|-(1)----3--1----||


    F5E5          F5E5            F5  G#5
    Gtr I
    E E  E  E E E E E    E  E E E E E E E
||--------------------|-------------------|
||o-------------------|-------------------|
||--------------------|-------------------|
||----9--8----9-8---9-|-----9-8---9-8---9-|
||o-7-------7-----7---|--7------7-----7---|
||--------------------|-------------------|
|
|   Gtr II
|   E E +H        E E   +H        Q   Q
||--------------------|-------------------|
||o-------------------|-------------------|
||--------------------|-------------------|
||--------------------|-------------------|
||o-3-2-(2)-------3-2-|-(2)-------3---6---|
||--1-0-(0)-------1-0-|-(0)-------1---4---|


  G#F5            G#F5              G5   F5
  E  E  E  E  E E E  E    E   E E E  E E E  E
|----------------------|------------------------||
|----------------------|-----------------------o||
|----------------------|------------------------||
|---10--9----10-9---10-|-----10-9---10-9---10---||
|-8--------8------8----|--8-------8------8-----o||
|----------------------|------------------------||
|
| E  E +H         E  E   +H          Q   Q
|----------------------|------------------------||
|----------------------|-----------------------o||
|----------------------|------------------------||
|----------------------|------------------------||
|-6--3-(3)--------6--3-|-(3)---------5---3-----o||
|-4--1-(1)--------4--1-|-(1)---------3---1------||


   Pre-Verse
    Q=182
    E5
    PM----------------------------------------------------------------|
    S S S S S S S S S S S S S S S S    S  S S S S S S S S S S S S S S S
||----------------------------------|------------------------------------|
||o---------------------------------|------------------------------------|
||----------------------------------|------------------------------------|
||------------------6-6-6-6-7-7-7-7-|------------------------------------|
||o-7-7-7-7-7-7-7-7-----------------|--5--5-5-5-5-5-5-5-7-7-7-7-8-8-8-8--|
||----------------------------------|------------------------------------|
|
|   W                                 +W
||----------------------------------|------------------------------------|
||o---------------------------------|------------------------------------|
||----------------------------------|------------------------------------|
||----------------------------------|------------------------------------|
||o-2-------------------------------|-(2)--------------------------------|
||--0-------------------------------|-(0)--------------------------------|


   PM-----------------------------------------------------------------|
   S  S S S S S S S S S S S S S S S    S  S S S S S S S S S S S S S S S
|-----------------------------------|------------------------------------||
|-----------------------------------|-----------------------------------o||
|-----------------------------------|------------------------------------||
|-------------------6-6-6-6-7-7-7-7-|--6--6-6-6-6-6-6-6------------------||
|--7--7-7-7-7-7-7-7-----------------|-------------------8-8-8-8-8-8-8-8-o||
|-----------------------------------|------------------------------------||
|
| +W                                  +W
|-----------------------------------|------------------------------------||
|-----------------------------------|-----------------------------------o||
|-----------------------------------|------------------------------------||
|-----------------------------------|------------------------------------||
|-(2)-------------------------------|-(2)-------------------------------o||
|-(0)-------------------------------|-(0)--------------------------------||


   Verse
    $
    N.C.
    Gtrs I, II
    PM--------------------------------------------------------------|
    S S S S S S S S S S S S S S S S   S S S S S S S S S S S S S S S S
||----------------------------------|----------------------------------|
||o---------------------------------|----------------------------------|
||----------------------------------|----------------------------------|
||------------------6-6-6-6-7-7-7-7-|----------------------------------|
||o-7-7-7-7-7-7-7-7-----------------|-5-5-5-5-5-5-5-5-7-7-7-7-8-8-8-8--|
||----------------------------------|----------------------------------|


                                                           To Coda
  PM--------------------------------------------------------------|
  S S S S S S S S S S S S S S S S   S S S S S S S S S S S S S S S S  4x
|---------------------------------|----------------------------------||
|---------------------------------|---------------------------------o||
|---------------------------------|----------------------------------||
|-----------------6-6-6-6-7-7-7-7-|-6-6-6-6-6-6-6-6------------------||
|-7-7-7-7-7-7-7-7-----------------|-----------------8-8-8-8-8-8-8-8-o||
|---------------------------------|----------------------------------||


   Verse
    Q=144
                                                         D.S. al Coda
    E5                       F5        E5                       F5
    Gtr I
    W               +H        H        W               +H        H
||----------------|------------------|---------------|--------------------||
||o---------------|------------------|---------------|-------------------o||
||----------------|------------------|---------------|--------------------||
||----------------|------------------|---------------|--------------------||
||o-2-------------|-(2)-------3------|-2-------------|-(2)-------3-------o||
||--0-------------|-(0)-------1------|-0-------------|-(0)-------1--------||
|
|   Gtr II
|   Q  E  Q  E Q     E  Q  E  E E Q    Q  E  Q  E Q     E  Q  E  E E Q
||----------------|------------------|---------------|--------------------||
||o---------------|------------------|---------------|-------------------o||
||-----------8-9--|------------------|----------8-9--|--------------------||
||-----9-10-------|--7--9--7-10-9----|----9-10-------|--7--9--7-10-9------||
||o-7-------------|---------------8--|-7-------------|---------------8---o||
||----------------|------------------|---------------|--------------------||


 Verse
  Q=94
  &
  B5                D5      C5
  Gtr I
  W                 H       H
|-----------------|---------------------|
|-----------------|---------------------|
|-----------------|---------------------|
|-4---------------|-7-------5-----------|
|-2---------------|-5-------3-----------|
|-----------------|---------------------|
|
| Gtr II
|                             |-3-|
| E E E E E E E E   E E E E E S S S E E
|-----------------|---------------------|
|-----------------|---------------------|
|-----------------|---------------------|
|---5-4-----------|---8-7---------------|
|-2-----2-5-4-2-4-|-5-----5-8-7h8p7---7-|
|-----------------|-----------------8---|


  B5                D5      C5
  PM--------------------------|
  E E E E E E E E   E E E E E E     Q
|-----------------|----------------------|
|-----------------|----------------------|
|-----------------|----------------------|
|-4-4-4-4-4-4-4-4-|-7-7-7-7-5-5----------|
|-2-2-2-2-2-2-2-2-|-5-5-5-5-3-3----------|
|-----------------|-----------------8\---|
|
|                             |-3-|
| E E E E E E E E   E E E E E S S S E  E
|-----------------|----------------------|
|-----------------|----------------------|
|-----------------|----------------------|
|---5-4-----------|---8-7----------------|
|-2-----2-5-4-2-4-|-5-----5-8-7h8p7----7-|
|-----------------|-----------------8----|


  B5                D5      C5
  W                 H       H
|-----------------|---------------------|
|-----------------|---------------------|
|-----------------|---------------------|
|-4---------------|-7-------5-----------|
|-2---------------|-5-------3-----------|
|-----------------|---------------------|
|
|                             |-3-|
| E E E E E E E E   E E E E E S S S E E
|-----------------|---------------------|
|-----------------|---------------------|
|-----------------|---------------------|
|---5-4-----------|---8-7---------------|
|-2-----2-5-4-2-4-|-5-----5-8-7h8p7---7-|
|-----------------|-----------------8---|


  B5                D5      C5
  W                 H       H
|-----------------|---------------------|
|-----------------|---------------------|
|-----------------|---------------------|
|-4---------------|-7-------5-----------|
|-2---------------|-5-------3-----------|
|-----------------|---------------------|
|
|                             |-3-|
| E E E E E E E E   E E E E E S S S E E
|-----------------|---------------------|
|-----------------|---------------------|
|-----------------|---------------------|
|---5-4-----------|---8-7---------------|
|-2-----2-5-4-2-4-|-5-----5-8-7h8p7---7-|
|-----------------|-----------------8---|


  B5                  D5      C5
  PM--|               PM|     PM
  E E E E +H          E E Q   E Q.
|-------------------|---------------------|
|-------------------|---------------------|
|-------------------|---------------------|
|-4-4-4-4-(4)-------|-7-7-7---5-5---------|
|-2-2-2-2-(2)-------|-5-5-5---3-3---------|
|-------------------|---------------------|
|
|                               |-3-|
| E E E E  E  E E E   E E E E E S S S E E
|-------------------|---------------------|
|-------------------|---------------------|
|-------------------|---------------------|
|---5-4-------------|---8-7---------------|
|-2-----2--5--4-2-4-|-5-----5-8-7h8p7---7-|
|-------------------|-----------------8---|


  B5                D5      C5
  W                 H       H
|-----------------|---------------------|
|-----------------|---------------------|
|-----------------|---------------------|
|-4---------------|-7-------5-----------|
|-2---------------|-5-------3-----------|
|-----------------|---------------------|
|
| PM----------------------|
|                             |-3-|
| E E E E E E E E   E E E E E S S S E E
|-----------------|---------------------|
|-----------------|---------------------|
|-----------------|---------------------|
|---5-4-----------|---8-7---------------|
|-2-----2-5-4-2-4-|-5-----5-8-7h8p7---7-|
|-----------------|-----------------8---|


  B5                D5      C5
  W                 H       H
|-----------------|---------------------|
|-----------------|---------------------|
|-----------------|---------------------|
|-4---------------|-7-------5-----------|
|-2---------------|-5-------3-----------|
|-----------------|---------------------|
|
|                             |-3-|
| E E E E E E E E   E E E E E S S S E E
|-----------------|---------------------|
|-----------------|---------------------|
|-----------------|---------------------|
|---5-4-----------|---8-7---------------|
|-2-----2-5-4-2-4-|-5-----5-8-7h8p7---7-|
|-----------------|-----------------8---|


  B5                D5      C5
  W                 H       H
|-----------------|---------------------|
|-----------------|---------------------|
|-----------------|---------------------|
|-4---------------|-7-------5-----------|
|-2---------------|-5-------3-----------|
|-----------------|---------------------|
|
|                             |-3-|
| E E E E E E E E   E E E E E S S S E E
|-----------------|---------------------|
|-----------------|---------------------|
|-----------------|---------------------|
|---5-4-----------|---8-7---------------|
|-2-----2-5-4-2-4-|-5-----5-8-7h8p7---7-|
|-----------------|-----------------8---|


 Interlude
  Q=124
  E5                                   N.C.
   W               +H        H          Q  E  Q  E Q     E  Q  E  E E Q
|----------------|-------------------|----------------|------------------|
|----------------|-------------------|----------------|------------------|
|----------------|-------------------|-----------8-9--|------------------|
|----------------|-------------------|-----9-10-------|--7--9--7-10-9----|
|--2-------------|-(2)---------------|-/7-------------|---------------8--|
|--0-------------|-(0)------12\------|----------------|------------------|
|
|                                       ~~~~~~~~~~~~~~~~~~~~
|  Q  E  Q  E Q     E  Q  E  E  E Q     W               +W
|----------------|-------------------|----------------|------------------|
|----------------|-------------------|----------------|------------------|
|-----------8-9--|-------------------|--9-------------|-(9)--------------|
|-----9-10-------|--7--9--7-10--9----|----------------|------------------|
|-/7-------------|----------------8--|----------------|------------------|
|----------------|-------------------|----------------|------------------|


   ~~~~~~~~~~~~~~~~~~~~
   W               +W                  Q  E  Q  E Q     E  Q  E  E E Q
|----------------|------------------|----------------|------------------|
|----------------|------------------|----------------|------------------|
|--9-------------|-(9)--------------|-----------8-9--|------------------|
|----------------|------------------|-----9-10-------|--7--9--7-10-9----|
|----------------|------------------|-/7-------------|---------------8--|
|----------------|------------------|----------------|------------------|
|
|                                      ~~~~~~~~~~~~~~~~~~~~
|  Q  E  Q  E Q     E  Q  E  E E Q     W               +W
|----------------|------------------|----------------|------------------|
|----------------|------------------|----------------|------------------|
|-----------8-9--|------------------|--9-------------|-(9)--------------|
|-----9-10-------|--7--9--7-10-9----|----------------|------------------|
|-/7-------------|---------------8--|----------------|------------------|
|----------------|------------------|----------------|------------------|


                                      1.
    E5                       F5        E5                       F5
    W               +H        H        W               +H        H
||----------------|------------------|---------------|--------------------||
||o---------------|------------------|---------------|-------------------o||
||----------------|------------------|---------------|--------------------||
||----------------|------------------|---------------|--------------------||
||o-2-------------|-(2)-------3------|-2-------------|-(2)-------3-------o||
||--0-------------|-(0)-------1------|-0-------------|-(0)-------1--------||
|
|   Q  E  Q  E Q     E  Q  E  E E Q    Q  E  Q  E Q     E  Q  E  E E Q
||----------------|------------------|---------------|--------------------||
||o---------------|------------------|---------------|-------------------o||
||-----------8-9--|------------------|----------8-9--|--------------------||
||-----9-10-------|--7--9--7-10-9----|----9-10-------|--7--9--7-10-9------||
||o-7-------------|---------------8--|-7-------------|---------------8---o||
||----------------|------------------|---------------|--------------------||


  2.
                 D.S.S. al Dbl. Coda
  E5                       F5
                 5/4
  W               +H        E E E E Q
|---------------|----------------------|
|---------------|----------------------|
|---------------|----------------------|
|---------------|----------------------|
|-2-------------|-(2)-------3-3-3------|
|-0-------------|-(0)-------1-1-1------|
|
| Q  E  Q  E Q     E  Q  E  E E E E Q
|---------------|----------------------|
|---------------|----------------------|
|----------8-9--|----------------------|
|----9-10-------|--7--9--7-10-9--------|
|-7-------------|---------------8------|
|---------------|----------------------|


 Outro
  &&
  N.C.
 4/4
  W          +W
|----------|--------*|
|----------|--------*|
|----------|--------*|
|----------|--------*|
|----------|--------*|
|-9--------|-(9)----*|
|
| W          +W
|----------|--------*|
|----------|--------*|
|----------|--------*|
|----------|--------*|
|-9--------|-(9)----*|
|----------|--------*|




--------------------------------------------------------------------------------


Duration Legend
---------------
W - whole; H - half; Q - quarter; E - 8th; S - 16th; T - 32nd; X - 64th; a - acciaccatura
+ - note tied to previous; . - note dotted; .. - note double dotted
Uncapitalized letters represent notes that are staccato (1/2 duration)
Irregular groupings are notated above the duration line
Duration letters will always appear directly above the note/fret number it represents the
duration for.  Duration letters with no fret number below them represent rests.  Multi-
bar rests are notated in the form Wxn, where n is the number of bars to rest for.  Low
melody durations appear below the staff

Tablature Legend
----------------
 h   - hammer-on
 p   - pull-off
 b   - bend
 pb  - pre-bend
 r   - bend release (if no number after the r, then release immediately)
 /\  - slide into or out of (from/to "nowhere")
 s   - legato slide
 S   - shift slide
<n> - natural harmonic
[n]  - artificial harmonic
n(n) - tapped harmonic
 ~   - vibrato
 tr  - trill
 T   - tap
 TP  - trem. picking
 PM  - palm muting
\n/  - tremolo bar dip; n = amount to dip
 \n  - tremolo bar down
 n/  - tremolo bar up
/n\  - tremolo bar inverted dip
 =   - hold bend; also acts as connecting device for hammers/pulls
 <> - volume swell (louder/softer)
 x   - on rhythm slash represents muted slash
 o   - on rhythm slash represents single note slash

Misc Legend
-----------
 |  - bar
||  - double bar
||o - repeat start
o|| - repeat end
*|  - double bar (ending)
 :  - bar (freetime)
 $  - Segno
 &  - Coda
Tempo markers - <E/E./Q/Q./H/H.> = BPM(8/16=s8/s16), where s8 = swing 8ths, s16 = swing 16ths

comments
We did not receive enough feedback on this tab! Please rate:
print report bad tab
1 2 3 4 5
I want to post or [tab]
guest
You may want to rate the tab now too:
select rating
Please do not post tabs as comments. Select "correction" instead!