Oops, an error
Loading. Please wait.

The Smoke Tab

ver1
ver1

Whole song

Interactive

More versions @911Tabs.com
9,067 views 24 this week
no commentswrite comment
1 2 3 4 5
excellent!
x 2
Autoscroll
+/-
esc
set tempo
stop
Contributor
Hey! There's an official Ultimate Guitar app which is ideal
for learning songs when you're away from computer. Get the app
WARNING: You are trying to view
                                    content from Ultimate-Guitar.com
                                    in an unauthorized application,
                                    which is prohibited.

                                    Please use an official Ultimate
                                    Guitar Tabs application for iPhone,
                                    iPad or Android to access legitimate
                                    chords, guitar, bass, and drum tabs
                                    from Ultimate-Guitar.com database.

                                    Type "ultimate guitar tabs" in Apple
                                    App Store's or Android Market's
                                    search to find the application.
#----------------------------------PLEASE NOTE---------------------------------#
#This file is the author's own work and represents their interpretation of the #
#song. You may only use this file for private study, scholarship, or research. #
#------------------------------------------------------------------------------#

THE SMOKE
As recorded by Amorphis
(From the 2006 Album ECLIPSE)


Transcribed by Danny Heater (hauntedinflames)

 Words by Paavo Haavikko Music by Holopainen

 

E5
x 7 9 9 x x 

D5
x 5 7 7 x x 

C5
x 3 5 5 x x 


Gtr I (D G C F A D) - 'Untitled'
Gtr II (D G C F A D) - 'Untitled'
Gtr III (D G C F A D) - 'Untitled'
Gtr IV (D G C F A D) - 'Untitled'
Gtr V (D G C F A D) - 'Untitled'
Gtr VI (D G C F A D) - 'Untitled'


 Intro
  Q=103
 4/4
  Gtr I
  E S E S E S E S E E   E S E S E S E S E E    E  S E S E S E S E E
|---------------------|---------------------|-----------------------|
|---------------------|---------------------|-----------------------|
|---------------------|---------------------|-----------------------|
|-9---9---9---9---9-9-|-9---9---9---9---9-9-|--9----9---9---9---9-9-|
|-7---7---7---7---7-7-|-7---7---7---7---7-7-|--7----7---7---7---7-7-|
|---0---0---0---0-----|---0---0---0---0-----|-----0---0---0---0-----|
|
| Gtr II
|                       <
| W                     W                     +W
|---------------------|---------------------|-----------------------|
|---------------------|-8-------------------|-(8)-------------------|
|---------------------|-9-------------------|-(9)-------------------|
|---------------------|-9-------------------|-(9)-------------------|
|---------------------|---------------------|-----------------------|
|---------------------|---------------------|-----------------------|


  E5                                 D5          E5
  Gtr III
   E  S  E  S  E  S  E  S   E  S S    E  S  E  S  E   S  E S E S S
   |  |  |  |  |  |  |  |   |  | |    |  |  |  |  |   |  | | | | |
   /  /  /  /  /  /  /  /   /  / /    /  /  /  /  /   /  / / / / /

  Gtr IV
   E.    E.    E.    E.    +Q         E.    E.    E  +H
|----------------------------------|-12----10----------------------|
|-------------10----12----(12)-----|-------------12-(12)-----------|
|--9----12-------------------------|-------------------------------|
|----------------------------------|-------------------------------|
|----------------------------------|-------------------------------|
|----------------------------------|-------------------------------|
|
| Gtr I
|  E  S  E  S  E  S  E  S   E  E      E  S  E  S  E   S  E S E E
|----------------------------------|-------------------------------|
|----------------------------------|-------------------------------|
|----------------------------------|-------------------------------|
|--9-----9-----9-----9------9--9---|--7-----7-----9------9---9-9---|
|--7-----7-----7-----7------7--7---|--5-----5-----7------7---7-7---|
|-----0-----0-----0-----0----------|-----0-----0------0----0-------|
|
| Gtr II
| +W                                  Q.          E  +H
|----------------------------------|-------------------------------|
|-(8)------------------------------|--7-----------8--(8)-----------|
|-(9)------------------------------|--7-----------9--(9)-----------|
|-(9)------------------------------|--7-----------9--(9)-----------|
|----------------------------------|-------------------------------|
|----------------------------------|-------------------------------|


  C5          E5                  D5
   E  S  E  S  E   S  E S E S S    E  S  E  S  E  S E S  E S S
   |  |  |  |  |   |  | | | | |    |  |  |  |  |  | | |  | | |
   /  /  /  /  /   /  / / / / /    /  /  /  /  /  / / /  / / /

   E.    E.    Q.         Q        E.    E.    Q.        Q
|-------------------------------|------------------------------|
|-------10----12----------------|-------------10---------------|
|-12----------------------9-----|-11----12---------------------|
|-------------------------------|-----------------------12-----|
|-------------------------------|------------------------------|
|-------------------------------|------------------------------|
|
|  E  S  E  S  E   S  E S E E      E  S  E  S  E  S E S  E E
|-------------------------------|------------------------------|
|-------------------------------|------------------------------|
|-------------------------------|------------------------------|
|--5-----5-----9------9---9-9---|--7-----7-----7----7----7-7---|
|--3-----3-----7------7---7-7---|--5-----5-----5----5----5-5---|
|-----0-----0------0----0-------|-----0-----0-----0---0--------|
|
|  Q.          E  +H               W
|-------------------------------|------------------------------|
|--5-----------8--(8)-----------|-10---------------------------|
|--5-----------9--(9)-----------|-11---------------------------|
|--5-----------9--(9)-----------|-12---------------------------|
|-------------------------------|------------------------------|
|-------------------------------|------------------------------|


  E5                                D5          E5
  E  S  E  S  E  S  E  S   E  S S    E  S  E  S  E   S  E S E S S
  |  |  |  |  |  |  |  |   |  | |    |  |  |  |  |   |  | | | | |
  /  /  /  /  /  /  /  /   /  / /    /  /  /  /  /   /  / / / / /

  E.    E.    E.    E.    +Q         E.    E.    E  +H
|---------------------------------|-12----10----------------------|
|------------10----12----(12)-----|-------------12-(12)-----------|
|-9----12-------------------------|-------------------------------|
|---------------------------------|-------------------------------|
|---------------------------------|-------------------------------|
|---------------------------------|-------------------------------|
|
| Gtr V
| W                                 +W
|---------------------------------|-------------------------------|
|---------------------------------|-------------------------------|
|-9-------------------------------|-(9)---------------------------|
|-9-------------------------------|-(9)---------------------------|
|-7-------------------------------|-(7)---------------------------|
|-0-------------------------------|-(0)---------------------------|
|
| W                                  Q.          E  +H
|---------------------------------|-------------------------------|
|-8-------------------------------|--7-----------8--(8)-----------|
|-9-------------------------------|--7-----------9--(9)-----------|
|-9-------------------------------|--7-----------9--(9)-----------|
|---------------------------------|-------------------------------|
|---------------------------------|-------------------------------|


  C5          E5                  D5      E5
   E  S  E  S  E   S  E S E S S    E.  E. Q.   S S E
   |  |  |  |  |   |  | | | | |    |   |  |    | |
   /  /  /  /  /   /  / / / / /    /   /  /    x x

   E.    E.    Q.         Q        E.  E. Q.   Q
|-------------------------------|--------------------|
|-------10----12----------------|--------------------|
|-12----------------------9-----|-11--12--9----------|
|-------------------------------|--------------------|
|-------------------------------|--------------------|
|-------------------------------|--------------------|
|
|                               Gtrs V, VI
| +W                               E.  E. Q.   S S E
|-------------------------------|--------------------|
|-------------------------------|--------------------|
|-(9)---------------------------|--7---7--9----x-x---|
|-(9)---------------------------|--7---7--9----x-x---|
|-(7)---------------------------|--5---5--7----x-x---|
|-(0)---------------------------|--------------------|
|
|  Q.          E  +H               E.  E. Q.   Q
|-------------------------------|--------------------|
|--5-----------8--(8)-----------|--7---8-------------|
|--5-----------9--(9)-----------|--7--(7)-9----------|
|--5-----------9--(9)-----------|--7--(7)-9----------|
|-------------------------------|--------------------|
|-------------------------------|--------------------|


  $
  Gtr VI
  E.    E.    E.    E.    +Q         E.    E.    E  +H
|---------------------------------|-12----10----------------------|
|------------10----12----(12)-----|-------------12-(12)-----------|
|-9----12-------------------------|-------------------------------|
|---------------------------------|-------------------------------|
|---------------------------------|-------------------------------|
|---------------------------------|-------------------------------|
|
| Gtr V
| E  S  E  S  E  S  E  S   E  S S    E  S  E  S  E   S  E S E S S
|---------------------------------|-------------------------------|
|---------------------------------|-------------------------------|
|-9--9--9--9--9--9--9--9---9--9-9-|--9--9--9--9--9---9--9-9-9-9-9-|
|-9--9--9--9--9--9--9--9---9--9-9-|--9--9--9--9--9---9--9-9-9-9-9-|
|-7--7--7--7--7--7--7--7---7--7-7-|--7--7--7--7--7---7--7-7-7-7-7-|
|---------------------------------|-------------------------------|
|
| W                                 +W
|---------------------------------|-------------------------------|
|-8-------------------------------|-(8)---------------------------|
|-9-------------------------------|-(9)---------------------------|
|-9-------------------------------|-(9)---------------------------|
|---------------------------------|-------------------------------|
|---------------------------------|-------------------------------|


   E.    E.    Q.         Q        E.    E.    Q.        Q
|-------------------------------|------------------------------|
|-------10----12----------------|-------------10---------------|
|-12----------------------9-----|-11----12---------------------|
|-------------------------------|-----------------------12-----|
|-------------------------------|------------------------------|
|-------------------------------|------------------------------|
|
|  E  S  E  S  E   S  E S E S S    E  S  E  S  E  S E S  E S S
|-------------------------------|------------------------------|
|-------------------------------|------------------------------|
|--5--5--5--5--9---9--9-9-9-9-9-|--7--7--7--7--7--7-7-7--7-7-7-|
|--5--5--5--5--9---9--9-9-9-9-9-|--7--7--7--7--7--7-7-7--7-7-7-|
|--3--3--3--3--7---7--7-7-7-7-7-|--5--5--5--5--5--5-5-5--5-5-5-|
|-------------------------------|------------------------------|
|
|  Q.          E  +H               W
|-------------------------------|------------------------------|
|--5-----------8--(8)-----------|-10---------------------------|
|--5-----------9--(9)-----------|-11---------------------------|
|--5-----------9--(9)-----------|-12---------------------------|
|-------------------------------|------------------------------|
|-------------------------------|------------------------------|


  E.    E.    E.    E.    +Q         E.    E.    E  +H
|---------------------------------|-12----10----------------------|
|------------10----12----(12)-----|-------------12-(12)-----------|
|-9----12-------------------------|-------------------------------|
|---------------------------------|-------------------------------|
|---------------------------------|-------------------------------|
|---------------------------------|-------------------------------|
|
| E  S  E  S  E  S  E  S   E  S S    E  S  E  S  E   S  E S E S S
|---------------------------------|-------------------------------|
|---------------------------------|-------------------------------|
|-9--9--9--9--9--9--9--9---9--9-9-|--9--9--9--9--9---9--9-9-9-9-9-|
|-9--9--9--9--9--9--9--9---9--9-9-|--9--9--9--9--9---9--9-9-9-9-9-|
|-7--7--7--7--7--7--7--7---7--7-7-|--7--7--7--7--7---7--7-7-7-7-7-|
|---------------------------------|-------------------------------|
|
| W                                 +W
|---------------------------------|-------------------------------|
|-8-------------------------------|-(8)---------------------------|
|-9-------------------------------|-(9)---------------------------|
|-9-------------------------------|-(9)---------------------------|
|---------------------------------|-------------------------------|
|---------------------------------|-------------------------------|


   E.    E.    Q.         Q        E.    E.   E +H
|-------------------------------|-----------------------------||
|-------10----12----------------|-----------------------------||
|-12----------------------9-----|-11----12----9-(9)-----------||
|-------------------------------|-----------------------------||
|-------------------------------|-----------------------------||
|-------------------------------|-----------------------------||
|
|  E  S  E  S  E   S  E S E S S    E  S  E  S E  S  E S E S S
|-------------------------------|-----------------------------||
|-------------------------------|-----------------------------||
|--5--5--5--5--9---9--9-9-9-9-9-|--7--7--7--7-9--9--9-9-9-9-9-||
|--5--5--5--5--9---9--9-9-9-9-9-|--7--7--7--7-9--9--9-9-9-9-9-||
|--3--3--3--3--7---7--7-7-7-7-7-|--5--5--5--5-7--7--7-7-7-7-7-||
|-------------------------------|-----------------------------||
|
|  Q.          E  +H               E.    E.   E +H
|-------------------------------|-----------------------------||
|--5-----------8--(8)-----------|--7-----8--------------------||
|--5-----------9--(9)-----------|--7----(7)---9-(9)-----------||
|--5-----------9--(9)-----------|--7----(7)---9-(9)-----------||
|-------------------------------|-----------------------------||
|-------------------------------|-----------------------------||


 Verse
  Gtrs V, VI
  E S E S E S E S E S S   E  S E S E  S  E S E S S
|-----------------------|--------------------------|
|-----------------------|--------------------------|
|-9-9-9-9-9-9-9-9-9-9-9-|-7--7-7-7-9--9--9-9-9-9-9-|
|-9-9-9-9-9-9-9-9-9-9-9-|-7--7-7-7-9--9--9-9-9-9-9-|
|-7-7-7-7-7-7-7-7-7-7-7-|-5--5-5-5-7--7--7-7-7-7-7-|
|-----------------------|--------------------------|
|
| Gtr II
| W                       Q.       E +H
|-----------------------|--------------------------|
|-8---------------------|-7--------8-(8)-----------|
|-9---------------------|-7--------9-(9)-----------|
|-9---------------------|-7--------9-(9)-----------|
|-----------------------|--------------------------|
|-----------------------|--------------------------|


  E  S E S E  S  E S E S S    E S E S E S E S E S S
|--------------------------|------------------------|
|--------------------------|------------------------|
|-5--5-5-5-----------------|--7-7-7-7-7-7-7-7-7-7-7-|
|-5--5-5-5-2--2--2-2-2-2-2-|--7-7-7-7-7-7-7-7-7-7-7-|
|-3--3-3-3-2--2--2-2-2-2-2-|--5-5-5-5-5-5-5-5-5-5-5-|
|----------0--0--0-0-0-0-0-|------------------------|
|
| Q.       E +H               W
|--------------------------|------------------------|
|-5--------8-(8)-----------|-10---------------------|
|-5--------9-(9)-----------|-11---------------------|
|-5--------9-(9)-----------|-12---------------------|
|--------------------------|------------------------|
|--------------------------|------------------------|


  Gtr VI
  E.    E.    E.    E.    +Q         E.    E.    E  +H
|---------------------------------|-12----10----------------------|
|------------10----12----(12)-----|-------------12-(12)-----------|
|-9----12-------------------------|-------------------------------|
|---------------------------------|-------------------------------|
|---------------------------------|-------------------------------|
|---------------------------------|-------------------------------|
|
| Gtr V
| E  S  E  S  E  S  E  S   E  S S    E  S  E  S  E   S  E S E S S
|---------------------------------|-------------------------------|
|---------------------------------|-------------------------------|
|-9--9--9--9--9--9--9--9---9--9-9-|--7--7--7--7--9---9--9-9-9-9-9-|
|-9--9--9--9--9--9--9--9---9--9-9-|--7--7--7--7--9---9--9-9-9-9-9-|
|-7--7--7--7--7--7--7--7---7--7-7-|--5--5--5--5--7---7--7-7-7-7-7-|
|---------------------------------|-------------------------------|
|
| Gtr II
| W                                  Q.          E  +H
|---------------------------------|-------------------------------|
|-8-------------------------------|--7-----------8--(8)-----------|
|-9-------------------------------|--7-----------9--(9)-----------|
|-9-------------------------------|--7-----------9--(9)-----------|
|---------------------------------|-------------------------------|
|---------------------------------|-------------------------------|


   E.    E.    Q.         Q        E.    E.   E +H
|-------------------------------|-----------------------------||
|-------10----12----------------|-----------------------------||
|-12----------------------9-----|-11----12----9-(9)-----------||
|-------------------------------|-----------------------------||
|-------------------------------|-----------------------------||
|-------------------------------|-----------------------------||
|
|  E  S  E  S  E   S  E S E S S    E  S  E  S E  S  E S E S S
|-------------------------------|-----------------------------||
|-------------------------------|-----------------------------||
|--5--5--5--5-------------------|--7--7--7--7-9--9--9-9-9-9-9-||
|--5--5--5--5--2---2--2-2-2-2-2-|--7--7--7--7-9--9--9-9-9-9-9-||
|--3--3--3--3--2---2--2-2-2-2-2-|--5--5--5--5-7--7--7-7-7-7-7-||
|--------------0---0--0-0-0-0-0-|-----------------------------||
|
|  Q.          E  +H               E.    E.   E +H
|-------------------------------|-----------------------------||
|--5-----------8--(8)-----------|--7-----8--------------------||
|--5-----------9--(9)-----------|--7----(7)---9-(9)-----------||
|--5-----------9--(9)-----------|--7----(7)---9-(9)-----------||
|-------------------------------|-----------------------------||
|-------------------------------|-----------------------------||


 horus
   S S S  S  S  S S S S  S  S  S  S  S  S  S
|--------------------------------------------|
|-----------------8-8-8-10-10-10-10-10-10-10-|
|--7-7-7-10-10-10----------------------------|
|-----------------5-5-5--7--7--7--7--7--7--7-|
|--5-5-5--8--8--8----------------------------|
|--------------------------------------------|
|
|  E   S  E     S E   S  E     S  E     E
|--------------------------------------------|
|--------------------------------------------|
|--7---7--7-----7-7---7--7-----7--7-----7----|
|--7---7--7-----7-7---7--7-----7--7-----7----|
|--5---5--5-----5-5---5--5-----5--5-----5----|
|--------------------------------------------|
|
|  W
|--------------------------------------------|
|-10-----------------------------------------|
|-10-----------------------------------------|
|--7-----------------------------------------|
|--------------------------------------------|
|--------------------------------------------|


   S   S  S  S  S S  S  S   S   S  S  S  S  S  S  S
|-10--10-10--8--8-8---------------------------------|
|-------------------10-10--10--10-10-10-10-10-10-10-|
|--7---7--7--5--5-5---------------------------------|
|--------------------7--7---7---7--7--7--7--7--7--7-|
|---------------------------------------------------|
|---------------------------------------------------|
|
|  E      S  E    S  E      S   E     S  E     E
|---------------------------------------------------|
|---------------------------------------------------|
|--3------3--3----3---------------------------------|
|--3------3--3----3--3------3---3-----3--3-----3----|
|--1------1--1----1--3------3---3-----3--3-----3----|
|--------------------1------1---1-----1--1-----1----|
|
|  E.        E.      E     +H
|-10---------8--------------------------------------|
|--6--------(6)-----10----(10)----------------------|
|--7--------(7)-----10----(10)----------------------|
|--8--------(8)------7-----(7)----------------------|
|---------------------------------------------------|
|---------------------------------------------------|


  S  S S S S S  S  S   S   S  S  S  S  S  S  S
|----------------------------------------------|
|-6--6-6-6-6-6-10-10--10--10-10-10-10-10-10-10-|
|----------------------------------------------|
|-3--3-3-3-3-3--7--7---7---7--7--7--7--7--7--7-|
|----------------------------------------------|
|----------------------------------------------|
|
| E    S E   S  E      S   E     S  E     E
|----------------------------------------------|
|----------------------------------------------|
|-3----3-3---3--7------7---7-----7--7-----7----|
|-3----3-3---3--7------7---7-----7--7-----7----|
|-1----1-1---1--5------5---5-----5--5-----5----|
|----------------------------------------------|
|
| Q.            E     +H
|----------------------------------------------|
|-6------------10----(10)----------------------|
|-7------------10----(10)----------------------|
|-8-------------7-----(7)----------------------|
|----------------------------------------------|
|----------------------------------------------|


   S S S S S S S S S S E S S E
|---------------------------------|
|--8-8-8-8-8-8-8-8-x-x-6----------|
|------------------------x-x-5----|
|--5-5-5-5-5-5-5-5-x-x-3----------|
|------------------------x-x-3----|
|---------------------------------|
|
|  E   E   E   E   E   E E   S S
|---------------------------------|
|---------------------------------|
|--5---5---5---5---5---5-5---5-5--|
|--5---5---5---5---5---5-5---5-5--|
|--3---3---3---3---3---3-3---3-3--|
|---------------------------------|
|
|  W
|---------------------------------|
|--8------------------------------|
|--9------------------------------|
|-10------------------------------|
|---------------------------------|
|---------------------------------|


   S S S  S  S  S S S S  S  S  S  S  S  S  S
|--------------------------------------------|
|-----------------8-8-8-10-10-10-10-10-10-10-|
|--7-7-7-10-10-10----------------------------|
|-----------------5-5-5--7--7--7--7--7--7--7-|
|--5-5-5--8--8--8----------------------------|
|--------------------------------------------|
|
|  E   S  E     S E   S  E     S  E     E
|--------------------------------------------|
|--------------------------------------------|
|--7---7--7-----7-7---7--7-----7--7-----7----|
|--7---7--7-----7-7---7--7-----7--7-----7----|
|--5---5--5-----5-5---5--5-----5--5-----5----|
|--------------------------------------------|
|
|  W
|--------------------------------------------|
|-10-----------------------------------------|
|-10-----------------------------------------|
|--7-----------------------------------------|
|--------------------------------------------|
|--------------------------------------------|


   S   S  S  S  S S  S  S   S   S  S  S  S  S  S  S
|-10--10-10--8--8-8---------------------------------|
|-------------------10-10--10--10-10-10-10-10-10-10-|
|--7---7--7--5--5-5---------------------------------|
|--------------------7--7---7---7--7--7--7--7--7--7-|
|---------------------------------------------------|
|---------------------------------------------------|
|
|  E      S  E    S  E      S   E     S  E     E
|---------------------------------------------------|
|---------------------------------------------------|
|--3------3--3----3---------------------------------|
|--3------3--3----3--3------3---3-----3--3-----3----|
|--1------1--1----1--3------3---3-----3--3-----3----|
|--------------------1------1---1-----1--1-----1----|
|
|  E.        E.      E     +H
|-10---------8--------------------------------------|
|--6--------(6)-----10----(10)----------------------|
|--7--------(7)-----10----(10)----------------------|
|--8--------(8)------7-----(7)----------------------|
|---------------------------------------------------|
|---------------------------------------------------|


                                                D.S.
  S  S S S S S  S  S   S   S  S  S  S  S  S  S    W
|----------------------------------------------|--------||
|-6--6-6-6-6-6-10-10--10--10-10-10-10-10-10-10-|--8-----||
|----------------------------------------------|--------||
|-3--3-3-3-3-3--7--7---7---7--7--7--7--7--7--7-|--5-----||
|----------------------------------------------|--------||
|----------------------------------------------|--------||
|
| E    S E   S  E      S   E     S  E     E       W
|----------------------------------------------|--------||
|----------------------------------------------|--------||
|-3----3-3---3--7------7---7-----7--7-----7----|--5-----||
|-3----3-3---3--7------7---7-----7--7-----7----|--5-----||
|-1----1-1---1--5------5---5-----5--5-----5----|--3-----||
|----------------------------------------------|--------||
|
| Q.            E     +H                          W
|----------------------------------------------|--------||
|-6------------10----(10)----------------------|--8-----||
|-7------------10----(10)----------------------|--9-----||
|-8-------------7-----(7)----------------------|-10-----||
|----------------------------------------------|--------||
|----------------------------------------------|--------||


 Solo
  E.  E.  E.  E.  +Q        E.  E.  Q   E  E  E
|------------------------|-12--10--12--15-17-17b19--|
|--------10--12--(12)----|--------------------------|
|-9--12------------------|--------------------------|
|------------------------|--------------------------|
|------------------------|--------------------------|
|------------------------|--------------------------|
|
| W                        +W
|------------------------|--------------------------|
|------------------------|--------------------------|
|-9----------------------|-(9)----------------------|
|-9----------------------|-(9)----------------------|
|-7----------------------|-(7)----------------------|
|-0----------------------|-(0)----------------------|


   +E   S  E  S  S  S  E   E  S  S  E   E S  S  E Q  E S  S  E
|-(17)-19-17-15-14--------------------|-------------------------|
|------------------15-----------------|---------------------15--|
|---------------------14--12-11-12-11-|--------12-9--9-9-12-----|
|-------------------------------------|-9-9-12------------------|
|-------------------------------------|-------------------------|
|-------------------------------------|-------------------------|
|
|   Q.           E    +H                W
|-------------------------------------|-------------------------|
|-------------------------------------|-------------------------|
|---5------------9----(9)-------------|-7-----------------------|
|---5------------9----(9)-------------|-7-----------------------|
|---3------------7----(7)-------------|-5-----------------------|
|-------------------------------------|-------------------------|


                                                            |--3--|
   S  E  S  E  Q      E  e  E       +S   S  S  S  S  S  Q   S  S  S  E  E
|--------------------15-17-17b19r|=(17)-15--------------------------------|
|-12-15-12-15-15b17--------------|---------17-15----15-17--15-17-15-------|
|--------------------------------|---------------16-----------------14-12-|
|--------------------------------|----------------------------------------|
|--------------------------------|----------------------------------------|
|--------------------------------|----------------------------------------|
|
|  W                                +W
|--------------------------------|----------------------------------------|
|--------------------------------|----------------------------------------|
|--9-----------------------------|--(9)-----------------------------------|
|--9-----------------------------|--(9)-----------------------------------|
|--7-----------------------------|--(7)-----------------------------------|
|--0-----------------------------|--(0)-----------------------------------|


          |--3--|            |--3--|
   E   S  S  S  S S Q      E S  S  S e    E. E.  H    +E    +H      H
|--------------------------------------|------------------|--------------|
|--------------------------------------|------------------|--------------|
|-11--12-11-12-11-9--------------------|-12--7--/9----(9)-|-(9)\---------|
|-------------------9----------------9-|------------------|--------------|
|----------------------------9-10-12---|------------------|--------------|
|-------------------------12-----------|------------------|--------------|
|
|                                                >
|  Q.               E +H                  E. E.  H    +E    +W
|--------------------------------------|------------------|--------------|
|--------------------------------------|------------------|--------------|
|--5----------------9-(9)--------------|--7--7---9----(9)-|--------------|
|--5----------------9-(9)--------------|--7--7---9----(9)-|-(9)----------|
|--3----------------7-(7)--------------|--5--5---7----(7)-|-(7)----------|
|--------------------------------------|---------0----(0)-|-(0)----------|


   E.    E.    E.  E.      +Q       E.    E.    E.  E.      +Q
|--------------------------------|--------------------------------|
|-------------10--12------(12)---|-------------10--12------(12)---|
|--9----12-----------------------|--9----12-----------------------|
|--------------------------------|--------------------------------|
|--------------------------------|--------------------------------|
|--------------------------------|--------------------------------|
|
| +W                               +W
|--------------------------------|--------------------------------|
|--------------------------------|--------------------------------|
|--------------------------------|--------------------------------|
|--------------------------------|--------------------------------|
|-(7)----------------------------|--------------------------------|
|-(0)----------------------------|-(0)----------------------------|
|
| Gtr III
|  E  S  E  S  E.  S  S S   E  E    E  S  E  S  E.  S  S S   E  E
|---------------------------0----|---------------------------0----|
|-----0-----0------0-----------0-|-----0-----0------0-----------0-|
|--9-----9-----9------7s9--------|--9-----9-----9------7s9--------|
|--------------------------------|--------------------------------|
|--------------------------------|--------------------------------|
|--------------------------------|--------------------------------|


  E.    E.    E.  E.      +Q      E.    E.    E.  E.      +Q
|-------------------------------|--------------------------------||
|------------10--12------(12)---|------------10--12------(12)----||
|-9----12-----------------------|-9----12------------------------||
|-------------------------------|--------------------------------||
|-------------------------------|--------------------------------||
|-------------------------------|--------------------------------||
|
| e  S  E  S  E.  S  S S   E  E   e  S  E  S  E.  S  S S   E  E
|-------------------------------|--------------------------------||
|-8--8--8--8--8---8--8-8---8--8-|-8--8--8--8--8---8--8-8---8--8--||
|-9--9--9--9--9---9--9-9---9--9-|-9--9--9--9--9---9--9-9---9--9--||
|-9--9--9--9--9---9--9-9---9--9-|-9--9--9--9--9---9--9-9---9--9--||
|-7--7--7--7--7---7--7-7---7--7-|-7--7--7--7--7---7--7-7---7--7--||
|-------------------------------|--------------------------------||
|
| E  S  E  S  E.  S  S S   E  E   E  S  E  S  E.  S  S S   E  E
|--------------------------0----|--------------------------0-----||
|----0-----0------0-----------0-|----0-----0------0-----------0--||
|-9-----9-----9------7s9--------|-9-----9-----9------7s9---------||
|-------------------------------|--------------------------------||
|-------------------------------|--------------------------------||
|-------------------------------|--------------------------------||


 Theme
   E.    E.    E.    E.    +Q         E.    E.    E  +H
|----------------------------------|-------------------------------|
|----------------------------------|-------------------------------|
|----------------------------------|-12----10----------------------|
|-------------10----12----(12)-----|-------------12-(12)-----------|
|-10----13-------------------------|-------------------------------|
|----------------------------------|-------------------------------|
|
|  E  S  E  S  E  S  E  S   E  S S    E  S  E  S  E   S  E S E S S
|----------------------------------|-------------------------------|
|----------------------------------|-------------------------------|
|----------------------------------|--5--5--5--5-------------------|
|--5--5--5--5--5--5--5--5---5--5-5-|--5--5--5--5--5---5--5-5-5-5-5-|
|--5--5--5--5--5--5--5--5---5--5-5-|--3--3--3--3--5---5--5-5-5-5-5-|
|--3--3--3--3--3--3--3--3---3--3-3-|--------------3---3--3-3-3-3-3-|
|
| Gtr II
|  W                                  Q.          E  +H
|----------------------------------|-------------------------------|
|----------------------------------|--8----------------------------|
|--7-------------------------------|--5-----------7--(7)-----------|
|--5-------------------------------|--5-----------5--(5)-----------|
|--5-------------------------------|--------------5--(5)-----------|
|----------------------------------|-------------------------------|


   E.    E.    Q.          Q        E.    E.    E  +H
|--------------------------------|-------------------------------|
|--------------------------------|-------------------------------|
|--------------------------------|-------------------------------|
|-------10----12-----------------|-------------------------------|
|-13----------------------10-----|-12----13----10-(10)-----------|
|--------------------------------|-------------------------------|
|
|  E  S  E  S  E   S  E S  E S S    E  S  E  S  E   S  E S E S S
|--------------------------------|-------------------------------|
|--------------------------------|-------------------------------|
|--------------------------------|-------------------------------|
|--8--8--8--8--5---5--5-5--5-5-5-|--3--3--3--3--3---3--3-3-3-3-3-|
|--8--8--8--8--5---5--5-5--5-5-5-|--3--3--3--3--3---3--3-3-3-3-3-|
|--6--6--6--6--3---3--3-3--3-3-3-|--1--1--1--1--1---1--1-1-1-1-1-|
|
|  Q.          E  +H                W
|--------------------------------|-------------------------------|
|--------------------------------|-------------------------------|
|-10-----------7--(7)------------|--5----------------------------|
|--8-----------5--(5)------------|--3----------------------------|
|--8-----------5--(5)------------|--3----------------------------|
|--------------------------------|-------------------------------|


   E.    E.    E.    E.    +Q         E.    E.    E  +H
|----------------------------------|-------------------------------|
|----------------------------------|-------------------------------|
|----------------------------------|-12----10----------------------|
|-------------10----12----(12)-----|-------------12-(12)-----------|
|-10----13-------------------------|-------------------------------|
|----------------------------------|-------------------------------|
|
|  E  S  E  S  E  S  E  S   E  S S    E  S  E  S  E   S  E S E S S
|----------------------------------|-------------------------------|
|----------------------------------|-------------------------------|
|----------------------------------|--5--5--5--5-------------------|
|--5--5--5--5--5--5--5--5---5--5-5-|--5--5--5--5--5---5--5-5-5-5-5-|
|--5--5--5--5--5--5--5--5---5--5-5-|--3--3--3--3--5---5--5-5-5-5-5-|
|--3--3--3--3--3--3--3--3---3--3-3-|--------------3---3--3-3-3-3-3-|
|
|  W                                  Q.          E  +H
|----------------------------------|-------------------------------|
|----------------------------------|--8----------------------------|
|--7-------------------------------|--5-----------7--(7)-----------|
|--5-------------------------------|--5-----------5--(5)-----------|
|--5-------------------------------|--------------5--(5)-----------|
|----------------------------------|-------------------------------|


   E.    E.    Q.          Q        E.    E.    E  +H
|--------------------------------|-------------------------------||
|--------------------------------|-------------------------------||
|--------------------------------|-------------------------------||
|-------10----12-----------------|-------------------------------||
|-13----------------------10-----|-12----13----10-(10)-----------||
|--------------------------------|-------------------------------||
|
|  E  S  E  S  E   S  E S  E S S    E  S  E  S  E   S  E S E S S
|--------------------------------|-------------------------------||
|--------------------------------|-------------------------------||
|--------------------------------|-------------------------------||
|--8--8--8--8--5---5--5-5--5-5-5-|--3--3--3--3--5---5--5-5-5-5-5-||
|--8--8--8--8--5---5--5-5--5-5-5-|--3--3--3--3--5---5--5-5-5-5-5-||
|--6--6--6--6--3---3--3-3--3-3-3-|--1--1--1--1--3---3--3-3-3-3-3-||
|
|  Q.          E  +H                Q.          E  +H
|--------------------------------|-------------------------------||
|--------------------------------|-------------------------------||
|-10-----------7--(7)------------|--5-----------7--(7)-----------||
|--8-----------5--(5)------------|--3-----------5--(5)-----------||
|--8-----------5--(5)------------|--3-----------5--(5)-----------||
|--------------------------------|-------------------------------||


 Chorus
   S  S  S  S  S  S  S  S  S  S  S  S  S  S  S  S
|-------------------------------------------------|
|-------------------------------------------------|
|-------------------------------------------------|
|-------------------10-10-10-12-12-12-12-12-12-12-|
|-10-10-10-13-13-13-------------------------------|
|-------------------------------------------------|
|
|  E     S  E     S  E     S  E     S  E     S  S
|-------------------------------------------------|
|-------------------------------------------------|
|-------------------------------------------------|
|--5-----5--5-----5--5-----5--5-----5--5-----5--5-|
|--5-----5--5-----5--5-----5--5-----5--5-----5--5-|
|--3-----3--3-----3--3-----3--3-----3--3-----3--3-|
|
|  W
|-------------------------------------------------|
|-------------------------------------------------|
|--7----------------------------------------------|
|--5----------------------------------------------|
|--5----------------------------------------------|
|-------------------------------------------------|


   S   S  S  S  S  S  S  S  S   S  S  S  S  S  S  S
|---------------------------------------------------|
|---------------------------------------------------|
|-12--12-12-10-10-10--------------------------------|
|--------------------12-12-12--12-12-12-12-12-12-12-|
|---------------------------------------------------|
|---------------------------------------------------|
|
|  E      S  E     S  E     S   E     S  E     S  S
|---------------------------------------------------|
|---------------------------------------------------|
|--5------5--5-----5--3-----3---3-----3--3-----3--3-|
|--5------5--5-----5--3-----3---3-----3--3-----3--3-|
|--3------3--3-----3--1-----1---1-----1--1-----1--1-|
|---------------------------------------------------|
|
|  Q.                 E    +H
|---------------------------------------------------|
|--8------------------6-----------------------------|
|--5------------------3----(3)----------------------|
|--5------------------3----(3)----------------------|
|---------------------------------------------------|
|---------------------------------------------------|


   S   S  S  S  S  S  S  S  S   S  S  S  S  S  S  S
|---------------------------------------------------|
|---------------------------------------------------|
|---------------------------------------------------|
|-----------10-10-10-12-12-12--12-12-12-12-12-12-12-|
|-13--13-13-----------------------------------------|
|---------------------------------------------------|
|
|  E      S  E     S  E     S   E     S  E     S  S
|---------------------------------------------------|
|---------------------------------------------------|
|--3------3--3-----3--------------------------------|
|--3------3--3-----3--5-----5---5-----5--5-----5--5-|
|--1------1--1-----1--5-----5---5-----5--5-----5--5-|
|---------------------3-----3---3-----3--3-----3--3-|
|
|  Q.                 E    +H
|---------------------------------------------------|
|--6------------------------------------------------|
|--3------------------7----(7)----------------------|
|--3------------------5----(5)----------------------|
|---------------------5----(5)----------------------|
|---------------------------------------------------|


   S  S  S  S  S  S  S  S  S  S  S  S  S  S  S  S
|-------------------------------------------------|
|-------------------------------------------------|
|-------------------------------------------------|
|-------------------------------------------------|
|-12-12-12-13-13-13-10-10-10-10-10-10-10-10-10-10-|
|-------------------------------------------------|
|
|  E     S  E     S  E     S  E     S  E     S  S
|-------------------------------------------------|
|-------------------------------------------------|
|-------------------------------------------------|
|--3-----3--3-----3--3-----3--3-----3--3-----3--3-|
|--3-----3--3-----3--3-----3--3-----3--3-----3--3-|
|--1-----1--1-----1--1-----1--1-----1--1-----1--1-|
|
|  W
|-------------------------------------------------|
|-------------------------------------------------|
|--5----------------------------------------------|
|--3----------------------------------------------|
|--3----------------------------------------------|
|-------------------------------------------------|


   S  S  S  S  S  S  S  S  S  S  S  S  S  S  S  S
|-------------------------------------------------|
|-------------------------------------------------|
|-------------------------------------------------|
|-------------------10-10-10-12-12-12-12-12-12-12-|
|-10-10-10-13-13-13-------------------------------|
|-------------------------------------------------|
|
|  E     S  E     S  E     S  E     S  E     S  S
|-------------------------------------------------|
|-------------------------------------------------|
|-------------------------------------------------|
|--5-----5--5-----5--5-----5--5-----5--5-----5--5-|
|--5-----5--5-----5--5-----5--5-----5--5-----5--5-|
|--3-----3--3-----3--3-----3--3-----3--3-----3--3-|
|
|  W
|-------------------------------------------------|
|-------------------------------------------------|
|--7----------------------------------------------|
|--5----------------------------------------------|
|--5----------------------------------------------|
|-------------------------------------------------|


   S   S  S  S  S  S  S  S  S   S  S  S  S  S  S  S
|---------------------------------------------------|
|---------------------------------------------------|
|-12--12-12-10-10-10--------------------------------|
|--------------------12-12-12--12-12-12-12-12-12-12-|
|---------------------------------------------------|
|---------------------------------------------------|
|
|  E      S  E     S  E     S   E     S  E     S  S
|---------------------------------------------------|
|---------------------------------------------------|
|--5------5--5-----5--3-----3---3-----3--3-----3--3-|
|--5------5--5-----5--3-----3---3-----3--3-----3--3-|
|--3------3--3-----3--1-----1---1-----1--1-----1--1-|
|---------------------------------------------------|
|
|  Q.                 E    +H
|---------------------------------------------------|
|--8------------------6-----------------------------|
|--5------------------3----(3)----------------------|
|--5------------------3----(3)----------------------|
|---------------------------------------------------|
|---------------------------------------------------|


   S   S  S  S  S  S  S  S  S   S  S  S  S  S  S  S
|---------------------------------------------------|
|---------------------------------------------------|
|---------------------------------------------------|
|-----------10-10-10-12-12-12--12-12-12-12-12-12-12-|
|-13--13-13-----------------------------------------|
|---------------------------------------------------|
|
|  E      S  E     S  E     S   E     S  E     S  S
|---------------------------------------------------|
|---------------------------------------------------|
|--3------3--3-----3--------------------------------|
|--3------3--3-----3--5-----5---5-----5--5-----5--5-|
|--1------1--1-----1--5-----5---5-----5--5-----5--5-|
|---------------------3-----3---3-----3--3-----3--3-|
|
|  Q.                 E    +H
|---------------------------------------------------|
|--6------------------------------------------------|
|--3------------------7----(7)----------------------|
|--3------------------5----(5)----------------------|
|---------------------5----(5)----------------------|
|---------------------------------------------------|


   S   S  S  S  S  S  S  S  S   S  S  S  S  S  S  S
|---------------------------------------------------||
|---------------------------------------------------||
|---------------------------------------------------||
|---------------------------------------------------||
|-12--12-12-13-13-13-10-10-10--10-10-10-10-10-10-10-||
|---------------------------------------------------||
|
|  E      S  E     S  E     S   E     S  E     S  S
|---------------------------------------------------||
|---------------------------------------------------||
|---------------------------------------------------||
|--3------3--3-----3--5-----5---5-----5--5-----5--5-||
|--3------3--3-----3--5-----5---5-----5--5-----5--5-||
|--1------1--1-----1--3-----3---3-----3--3-----3--3-||
|
|  Q.                 E    +H
|---------------------------------------------------||
|---------------------------------------------------||
|--5------------------7----(7)----------------------||
|--3------------------5----(5)----------------------||
|--3------------------5----(5)----------------------||
|---------------------------------------------------||


   Outro
     S  S  S  S  S  S  S  S  S  S  S  S  S  S  S  S
||--------------------------------------------------|
||o-------------------13-13-13-15-15-15-15-15-15-15-|
||--12-12-12-15-15-15-------------------------------|
||--------------------10-10-10-12-12-12-12-12-12-12-|
||o-10-10-10-13-13-13-------------------------------|
||--------------------------------------------------|
|
|    S  S  S  S  S  S  S  S  S  S  S  S  S  S  S  S
||--------------------------------------------------|
||o-------------------------------------------------|
||--------------------------------------------------|
||---5--5--5--5--5--5--5--5--5--5--5--5--5--5--5--5-|
||o--5--5--5--5--5--5--5--5--5--5--5--5--5--5--5--5-|
||---3--3--3--3--3--3--3--3--3--3--3--3--3--3--3--3-|
|
|    W
||--------------------------------------------------|
||o--8----------------------------------------------|
||---7----------------------------------------------|
||---5----------------------------------------------|
||o--5----------------------------------------------|
||--------------------------------------------------|


   S   S  S  S  S  S  S  S  S   S  S  S  S  S  S  S   3x
|-----------------------------------------------------||
|----------------------------------------------------o||
|-14--14-14-15-15-15-12-12-12--12-12-12-12-12-12-12---||
|-----------------------------------------------------||
|-12--12-12-13-13-13-10-10-10--10-10-10-10-10-10-10--o||
|-----------------------------------------------------||
|
|  S   S  S  S  S  S  S  S  S   S  S  S  S  S  S  S   3x
|-----------------------------------------------------||
|----------------------------------------------------o||
|-----------------------------------------------------||
|--8---8--8--8--8--8--5--5--5---5--5--5--5--5--5--5---||
|--8---8--8--8--8--8--5--5--5---5--5--5--5--5--5--5--o||
|--6---6--6--6--6--6--3--3--3---3--3--3--3--3--3--3---||
|
|  Q.                 E    +H                         3x
|-----------------------------------------------------||
|-11------------------8----(8)-----------------------o||
|-10------------------7----(7)------------------------||
|--8------------------5----(5)------------------------||
|--8------------------5----(5)-----------------------o||
|-----------------------------------------------------||


   S  S  S  S  S  S  S  S  S  S  S  S  S  S  S  S    E.  E.  Q.   Q
|-------------------------------------------------|------------------*|
|-------------------13-13-13-15-15-15-15-15-15-15-|------------------*|
|-12-12-12-15-15-15-------------------------------|-14--15--12\------*|
|-------------------10-10-10-12-12-12-12-12-12-12-|------------------*|
|-10-10-10-13-13-13-------------------------------|-12--13--10\------*|
|-------------------------------------------------|------------------*|
|
|  S  S  S  S  S  S  S  S  S  S  S  S  S  S  S  S    E.  E.  Q.   Q
|-------------------------------------------------|------------------*|
|-------------------------------------------------|------------------*|
|-------------------------------------------------|------------------*|
|--5--5--5--5--5--5--5--5--5--5--5--5--5--5--5--5-|--8---8---5-------*|
|--5--5--5--5--5--5--5--5--5--5--5--5--5--5--5--5-|--8---8---5-------*|
|--3--3--3--3--3--3--3--3--3--3--3--3--3--3--3--3-|--6---6---3-------*|
|
|  W                                                 Q.      Q.   Q
|-------------------------------------------------|------------------*|
|--8----------------------------------------------|-11-------8-------*|
|--7----------------------------------------------|-10-------7-------*|
|--5----------------------------------------------|--8-------5-------*|
|--5----------------------------------------------|--8-------5-------*|
|-------------------------------------------------|------------------*|




--------------------------------------------------------------------------------


Duration Legend
---------------
W - whole; H - half; Q - quarter; E - 8th; S - 16th; T - 32nd; X - 64th; a - acciaccatura
+ - note tied to previous; . - note dotted; .. - note double dotted
Uncapitalized letters represent notes that are staccato (1/2 duration)
Irregular groupings are notated above the duration line
Duration letters will always appear directly above the note/fret number it represents the
duration for.  Duration letters with no fret number below them represent rests.  Multi-
bar rests are notated in the form Wxn, where n is the number of bars to rest for.  Low
melody durations appear below the staff

Tablature Legend
----------------
 h   - hammer-on
 p   - pull-off
 b   - bend
 pb  - pre-bend
 r   - bend release (if no number after the r, then release immediately)
 /\  - slide into or out of (from/to "nowhere")
 s   - legato slide
 S   - shift slide
<n> - natural harmonic
[n]  - artificial harmonic
n(n) - tapped harmonic
 ~   - vibrato
 tr  - trill
 T   - tap
 TP  - trem. picking
 PM  - palm muting
\n/  - tremolo bar dip; n = amount to dip
 \n  - tremolo bar down
 n/  - tremolo bar up
/n\  - tremolo bar inverted dip
 =   - hold bend; also acts as connecting device for hammers/pulls
 <> - volume swell (louder/softer)
 x   - on rhythm slash represents muted slash
 o   - on rhythm slash represents single note slash

Misc Legend
-----------
 |  - bar
||  - double bar
||o - repeat start
o|| - repeat end
*|  - double bar (ending)
 :  - bar (freetime)
 $  - Segno
 &  - Coda
Tempo markers - <E/E./Q/Q./H/H.> = BPM(8/16=s8/s16), where s8 = swing 8ths, s16 = swing 16ths

comments
We did not receive enough feedback on this tab! Please rate:
print report bad tab
1 2 3 4 5
I want to post or [tab]
guest
You may want to rate the tab now too:
select rating
Please do not post tabs as comments. Select "correction" instead!