Oops, an error
Loading. Please wait.

The Way Tab

ver2
ver2

Whole song

Interactive

More versions @911Tabs.com
2,488 views 3 this week
no commentswrite comment
1 2 3 4 5
excellent!
x 1
Autoscroll
+/-
esc
set tempo
stop
Contributor
Hey! There's an official Ultimate Guitar app which is ideal
for learning songs when you're away from computer. Get the app
WARNING: You are trying to view
                                    content from Ultimate-Guitar.com
                                    in an unauthorized application,
                                    which is prohibited.

                                    Please use an official Ultimate
                                    Guitar Tabs application for iPhone,
                                    iPad or Android to access legitimate
                                    chords, guitar, bass, and drum tabs
                                    from Ultimate-Guitar.com database.

                                    Type "ultimate guitar tabs" in Apple
                                    App Store's or Android Market's
                                    search to find the application.
Tabbed by: Colin Attlesey [AttleseyC@Cogeco.ca]

  Tomi - Distorted - Let Ring
d|-----------------------|-----------------------|-----------------------|-----------------------|
A|-----------------------|-----------------------|-----------------------|-----------------------|
F|-----------------------|-----------------------|-----------------------|-----------------------|
C|-2---------------------|-----------------------|-----------------------|-----------------------|
G|-2---------------------|-----------------------|-----------------------|-----------------------|
D|-0---------------------|-----------------------|-----------------------|-----------------------|
 | Esa - Clean - With 400ms Echo                                                                 |
d|-----------------------|---------------10------|-----------------------|-----------------------|
A|-----------------------|-----------8--------8--|-7---------------------|-----------------------|
F|-----------------------|-------9---------------|-----9-------------9---|-------------7---------|
C|-----------------------|---9-------------------|---------9-------------|-9-------7-------------|
G|-----------------------|-7---------------------|-------------7---------|-----------------------|
D|-----------------------|-----------------------|-----------------------|---10------------10----|


  Tomi
d|-----------------------|-----------------------|-----------------------|-----------------------|
A|-----------------------|-----------------------|-----------------------|-----------------------|
F|-----------------------|-----------------------|-----------------------|-----------------------|
C|-----------------------|-2---------------------|-----------------------|-----------------------|
G|-----------------------|-2---------------------|-----------------------|-----------------------|
D|-----------------------|-0---------------------|-----------------------|-----------------------|
 | Esa                                                                                           |
d|-----------10----------|--12-10----------------|-----------------------|---------------10------|
A|-------8--------8----8-|--------8----7-8-------|-----------------------|-----8-----10----------|
F|-----9-----------------|-----------------9-----|----------7------------|-9---------------------|
C|---9-------------------|---------------------9-|-----7------------7-9--|---9-------------------|
G|-7---------------------|-----------------------|-7--------------7------|-----------------------|
D|-----------------------|-----------------------|-------10--------------|-----------------------|


  Tomi
d|-----------------------|-----------------------|-----------------------|-----------------------|
A|-----------------------|-----------------------|-----------------------|-----------------------|
F|-----------------------|-----------------------|-----------------------|-----------------------|
C|-----------------------|-----------------------|-----------------------|-----------------------|
G|-----------------------|-----------------------|-----------------------|-----------------------|
D|-----------------------|-----------------------|-----------------------|-----------------------|
 | Esa                                                                                           |
d|-----------------------|-----------------------|---------10----12--10--|-----------------------|
A|--8--10--7-------------|-----------------------|-----8-------8---------|-8---7-----------------|
F|------------9----------|----9-------7----------|-9---------------------|--------9--------------|
C|---------------9-------|------7----------------|---9-------------------|-----------9-----------|
G|-------------------7---|------------------7----|-----------------------|---------------7-------|
D|-----------------------|-10-----------10-------|-----------------------|------------------10---|


  Tomi
d|-----------------------|-----------------------|-----------------------|-----------------------|
A|-----------------------|-----------------------|-----------------------|-----------------------|
F|-----------------------|-----------------------|-----------------------|-----------------------|
C|-----------------------|-----------------------|-----------------------|-----------------------|
G|-----------------------|-----------------------|-----------------------|-----------------------|
D|-----------------------|-----------------------|-----------------------|-----------------------|
 | Esa                                                                                           |
d|-----------------------|-----------------------|-----------------------|-----------------------|
A|-----------------------|-----------------------|-----------------------|-----------------------|
F|---9------9------------|---9------9------------|---9------9------------|---9------9------------|
C|------9-------9--------|------9-------9--------|------9-------9--------|------9-------9--------|
G|--------7---7-------7--|--------7---7-------7--|--------7---7-------7--|--------7---7-------7--|
D|----------------10-----|----------------10-----|----------------10-----|----------------10-----|


  Tomi                                                                     With Echo
d|-----------------------|-----------------------|-----------------------|-----------------------|
A|-----------------------|-----------------------|-----------------------|-----------------------|
F|-----------------------|-----------------------|-----------------------|-----------------------|
C|-----------------------|-----------------------|-----------------------|--2--------------------|
G|-----------------------|-----------------------|-----------------------|--2--------------------|
D|-----------------------|-----------------------|-----------------------|--0--------------------|
 | Esa                                                                                           |
d|-----------------------|-----------------------|-----------------------|-----------------------|
A|-----------------------|-----------------------|-----------------------|-----------------------|
F|---9------9------------|---9------9------------|---9------9------------|---9------9------------|
C|------9-------9--------|------9-------9--------|------9-------9--------|------9-------9--------|
G|--------7---7-------7--|--------7---7-------7--|--------7---7-------7--|--------7---7-------7--|
D|----------------10-----|----------------10-----|----------------10-----|----------------10-----|


  Tomi   pm    har...            pm    har.....
d|----0------------------|----0------------------|----0------------------|----0------------------|
A|----0------------------|----0------------------|----0------------------|----0------------------|
F|----0---2--5-----------|----0---2--5-----------|----0---2--5-----------|----0---2--5-----------|
C|-2------2--5-----------|-2------2--5-----------|-2------2--5-----------|-2------2--5-----------|
G|-2------0--3--3b-------|-2------0--3--3b-------|-2------0--3--3b-------|-2------0--3--3b-------|
D|-0----------------3b---|-0---------------3b-2b-|-0----------------3b---|-0---------------3b-2b-|
  Esa - Repeat Intro with Half Way Through Add Wah


  Tomi & Esa after Repeat 7.5 Times With Wah 5-7.5 Then Play With Wah
d|-----------------------|-----------------------| |--0--------------------|
A|----------7-8-7-8-7-11-|----------7-8-7--------| |--0--------------------|
F|-------9---------------|-------9--------9---9--| |--0--------------------|
C|----9------------------|----9-------------9----| |-----------------------|
G|-7---------------------|-7---------------------| |-----------------------|
D|-----------------------|-----------------------| |-----------------------|


  Tomi - Lots of Fast Wah
d|-0---------------------|-0---------------------|--------------------0--|-0---------------0--0--|
A|-0---------------------|-0---------------------|--------------------0--|-0---------------0--0--|
F|-4---------------------|-2---------------------|-0------------------0--|-0---------------2--4--|
C|-4---------------------|-2---------------------|-5------------------4--|-2---------------2--4--|
G|-2---------------------|-0---------------------|-5------------------4--|-2---------------0--2--|
D|-----------------------|-----------------------|-3------------------2--|-0---------------------|
 | Esa                                                                                           |
d|-----------------------|-----------------------|-----------------------|-----------------------|
A|-----------------------|-----------------------|-----------------------|-----------------------|
F|-9---------------------|-7---------------------|-5---------------------|-2---------------7--9--|
C|-----------------------|-----------------------|-----------------------|-----------------------|
G|-----------------------|-----------------------|-----------------------|-----------------------|
D|-----------------------|-----------------------|-----------------------|-----------------------|


   Tomi & Esa                    Slow Wah Fast Picking
d|-----------------------|-----------------------|-----------------------|-----------------------|
A|-----------------------|-----------------------|-----------------------|-----------------------|
F|-9-------7-------6-----|-4-------9-------7-----|-6-------4-------7-----|-6-------4-------7--9--|
C|-9-------7-------6-----|-4-------9-------7-----|-6-------4-------7-----|-6-------4-------7--9--|
G|-7-------5-------4-----|-2-------7-------5-----|-4-------2-------5-----|-4-------2-------5--7--|
D|-----------------------|-----------------------|-----------------------|-----------------------|


 Tomi & Esa - 4 Times 3rd & 4th Times Without pm
  pm.............................................................................................
d|-----------------------|-----------------------|-----------------------|-----------------------|
A|-----------------------|-----------------------|-----------------------|-----------------------|
F|7--7--7--7--7--7--7--7-|12-12-12-12-12-12-12-12|3--3--3--3--3--3--3--3-|5--5--5--5--2--2--2--2-|
C|7--7--7--7--7--7--7--7-|12-12-12-12-12-12-12-12|3--3--3--3--3--3--3--3-|5--5--5--5--2--2--2--2-|
G|5--5--5--5--5--5--5--5-|10-10-10-10-10-10-10-10|1--1--1--1--1--1--1--1-|3--3--3--3--0--0--0--0-|
D|-----------------------|-----------------------|-----------------------|-----------------------|


  Tomi Repeat For Entire Guitar Solo
d|-----------------------|-----------------------|--------------0----0---|-0--0------------------|
A|-----------------------|-----------------------|--------------0----0---|-0--0------------------|
F|-4----------------4--4-|-2----------------2--2-|--------------0----0---|-2--4-------------4--4-|
C|-4----------------4--4-|-2----------------2--2-|-5------------4----2---|-2--4-------------4--4-|
G|-2----------------2--2-|-0----------------0--0-|-5------------4----2---|-0--2-------------2--2-|
D|-----------------------|-----------------------|-3------------2----0---|-----------------------|
  Esa - Guitar Solo
d|------------------17---|-----------------------|-------------------p---|17---------------------|
A|---h-------15-17fb--17-|-15------15-14---------|-----------------14-15-|--15-14--h-------------|
F|-14-16--16-------------|----16-16-----16-------|---p--14-16-14-16------|-------16-14-16--------|
C|-----------------------|-----------------16-16-|-14-16-----------------|---------------14-16---|
G|-----------------------|-----------------------|-----------------------|--------------------14-|
D|-----------------------|-----------------------|-----------------------|-----------------------|

d|-----------------------|-----------------------|--10p7--7--------------|-------------12b12-10p7|
A|-----------------------|-----------------------|------10-10p7-10p7-----|-----------------------|
F|-14---14--14--14-------|-11--11----h-----------|------------------9/11-|-9/11-9-7--------------|
C|-14-14b-14b-14b-14b-12-|-12--12--14-16-14-12---|-----------------------|---------9-------------|
G|-----------------------|---14--14--14-------14-|12---------------------|----------7-9----------|
D|-----------------------|-----------------------|-----------------------|-----------------------|


 Tomi & Esa
d|-----------------------|-----------------------|-----------------------|-----------------------|
A|-----------------------|-----------------------|-----------------------|-----------------------|
F|6--6--6--6--6--6--6--6-|11-11-11-11-11-11-11-11|2--2--2--2--2--2--2--2-|5--5--5--5-------------|
C|6--6--6--6--6--6--6--6-|11-11-11-11-11-11-11-11|2--2--2--2--2--2--2--2-|5--5--5--5--6--6--6--6-|
G|4--4--4--4--4--4--4--4-|-9--9--9--9--9--9--9--9|0--0--0--0--0--0--0--0-|2--2--2--2--6--6--6--6-|
D|-----------------------|-----------------------|-----------------------|------------4--4--4--4-|
 Tomi & Esa
d|-----------------------|-----------------------|-----------------------|-----------------------|
A|-----------------------|-----------------------|-----------------------|-----------------------|
F|6--6--6--6--6--6--6--6-|11-11-11-11-11-11-11-11|-2----------4----------|------------6----------|
C|6--6--6--6--6--6--6--6-|11-11-11-11-11-11-11-11|-2----------4----------|-6----------6----------|
G|4--4--4--4--4--4--4--4-|-9--9--9--9--9--9--9--9|-0----------2----------|-6----------4----------|
D|-----------------------|-----------------------|-----------------------|-4---------------------|
comments
We did not receive enough feedback on this tab! Please rate:
print report bad tab
1 2 3 4 5
I want to post or [tab]
guest
You may want to rate the tab now too:
select rating
Please do not post tabs as comments. Select "correction" instead!