Oops, an error
Loading. Please wait.

Two Moons Tab

ver1
ver1

Whole song

Interactive

More versions @911Tabs.com
1,053 views 15 this week
no commentswrite comment
1 2 3 4 5
excellent!
x 1
Autoscroll
+/-
esc
set tempo
stop
Contributor
Hey! There's an official Ultimate Guitar app which is ideal
for learning songs when you're away from computer. Get the app
WARNING: You are trying to view
                                    content from Ultimate-Guitar.com
                                    in an unauthorized application,
                                    which is prohibited.

                                    Please use an official Ultimate
                                    Guitar Tabs application for iPhone,
                                    iPad or Android to access legitimate
                                    chords, guitar, bass, and drum tabs
                                    from Ultimate-Guitar.com database.

                                    Type "ultimate guitar tabs" in Apple
                                    App Store's or Android Market's
                                    search to find the application.
#----------------------------------PLEASE NOTE---------------------------------#
#This file is the author's own work and represents their interpretation of the #
#song. You may only use this file for private study, scholarship, or research. #
#------------------------------------------------------------------------------#

TWO MOONS
As recorded by Amorphis
(From the 2006 Album ECLIPSE)


Transcribed by Danny Heater (hauntedinflames)

 Words by Paavo Haavikko Music by Holopainene, Kallio

 

Gtr I (D G C F A D) - 'Untitled'
Gtr II (D G C F A D) - 'Untitled'
Gtr III (D G C F A D) - 'Untitled'
Gtr IV (D G C F A D) - 'Untitled'
Gtr V (D G C F A D) - 'Untitled'


   Intro
    Q.=120                        1.
    N.C.
   6/4
    Gtr I
    E E E E E E  E E  E  E  E  E   E E E E E E  E E  E E Q
||-------------------------10-12-|---------------------------||
||o----------------9-10-12-------|----------------9-10-9----o||
||----------7-9-10----------7--9-|---------7-9-10--------7---||
||----7-9----------6--7--9-------|---7-9----------6--7-6-----||
||o-7-----7-5-7--8---------------|-7-----7-5-7--8--------5--o||
||--0-5-7-0----------------------|-0-5-7-0-------------------||
|
|   Gtrs II, III
|   W                              W
||-------------------------------|---------------------------||
||o------------------------------|--------------------------o||
||-------------------------------|---------------------------||
||-------------------------------|---------------------------||
||o------------------------------|--------------------------o||
||-------------------------------|---------------------------||


 2.
                                  A5  G#5 F5
  E E E E S S  S S  S S  S S S  S S S S S S S
|-----------------------------------------------|
|----------------9-10-9-------------------------|
|---------7-9-10--------10-9-7------------------|
|---7-9----------6--7-6--------10-9-7-6---------|
|-7-----7-5-7--8---------8-7-5----------8-7-8---|
|-0-5-7-0-----------------------8-7-5-4-1-0-1---|
|
| W                          E    E   E   E
|-----------------------------------------------|
|-----------------------------------------------|
|-----------------------------------------------|
|---------------------------------7---6---3-----|
|---------------------------------7---6---3-----|
|---------------------------------5---4---1-----|


  E5
  E  E E E E E  E E  E  E  E  E    E  E E E E E  E E  E E Q
|-------------------------10-12-|----------------------------|
|-----------------9-10-12-------|------------------9-10-9----|
|----------7-9-10---------------|-----------7-9-10--------7--|
|----7-9------------------------|-----7-9--------------------|
|-7------7----------------------|--7------7------------------|
|-------------------------------|----------------------------|
|
| Gtr III
| E  E E E E E  E E  E  E  E  E    E  E E E E E  E E  E E Q
|-------------------------------|----------------------------|
|-------------------------------|----------------------------|
|--------------------------7--9-|----------------------------|
|-----------------6--7--9-------|------------------6--7-6----|
|----------5-7--8---------------|-----------5-7--8--------5--|
|-0--5-7-0----------------------|--0--5-7-0------------------|
|
| Gtr II
| W.                              +W.
|-------------------------------|----------------------------|
|-------------------------------|----------------------------|
|-------------------------------|----------------------------|
|-2-----------------------------|-(2)------------------------|
|-2-----------------------------|-(2)------------------------|
|-0-----------------------------|-(0)------------------------|


                                                         A5G#F5
  E  E E E E E  E E  E  E  E  E    E  E E E E E  E E  E  E Q
|-------------------------10-12-|---------------------------------|
|-----------------9-10-12-------|------------------9-10--9--------|
|----------7-9-10---------------|-----------7-9-10---------7------|
|----7-9------------------------|-----7-9-------------------------|
|-7------7----------------------|--7------7-----------------------|
|-------------------------------|---------------------------------|
|
| E  E E E E E  E E  E  E  E  E    E  E E E E E  E E  E  E Q
|-------------------------------|---------------------------------|
|-------------------------------|---------------------------------|
|--------------------------7--9-|---------------------------------|
|-----------------6--7--9-------|------------------6--7--6--------|
|----------5-7--8---------------|-----------5-7--8---------5------|
|-0--5-7-0----------------------|--0--5-7-0-----------------------|
|
| W.                              +W                 +E  E E E
|-------------------------------|---------------------------------|
|-------------------------------|---------------------------------|
|-9-----------------------------|-(9)----------------(9)----------|
|-9-----------------------------|-(9)----------------(9)-7-6-3----|
|-7-----------------------------|-(7)----------------(7)-7-6-3----|
|-0-----------------------------|-(0)----------------(0)-5-4-1----|


  E5          N.C.               E5          F5
  E E E E E E  E E  E  E  E  E   E E E E E E  E E  E E Q
|------------------------10-12-|--------------------------|
|----------------9-10-12-------|----------------9-10-9----|
|---------7-9-10---------------|---------7-9-10--------7--|
|---7-9------------------------|---7-9--------------------|
|-7-----7----------------------|-7-----7------------------|
|------------------------------|--------------------------|
|
| E E E E E E  E E  E  E  E  E   E E E E E E  E E  E E Q
|------------------------------|--------------------------|
|------------------------------|--------------------------|
|-------------------------7--9-|--------------------------|
|----------------6--7--9-------|----------------6--7-6----|
|---------5-7--8---------------|---------5-7--8--------5--|
|-0-5-7-0----------------------|-0-5-7-0------------------|
|
| E E E E E E  E E  E  E  E  E   E E E E E E  E Q    E Q
|------------------------------|--------------------------|
|------------------------------|--------------------------|
|------------------------------|--------------------------|
|------------------------------|--------------------------|
|-2-2-2-2-2-2------------------|-2-2-2-2-2-2--3-x----3-3--|
|-0-0-0-0-0-0--0-5--4--0--4--1-|-0-0-0-0-0-0--1-x----1-1--|


  E5          N.C.               E5          F5
  E E E E E E  E E  E  E  E  E   E E E E E E  E E  E E Q
|------------------------10-12-|----------------------------|
|----------------9-10-12-------|----------------9-10-9------|
|---------7-9-10---------------|---------7-9-10--------7----|
|---7-9------------------------|---7-9----------------------|
|-7-----7----------------------|-7-----7--------------------|
|------------------------------|----------------------------|
|
| E E E E E E  E E  E  E  E  E   E E E E E E  E E  E E Q
|------------------------------|----------------------------|
|------------------------------|----------------------------|
|-------------------------7--9-|----------------------------|
|----------------6--7--9-------|----------------6--7-6------|
|---------5-7--8---------------|---------5-7--8--------5----|
|-0-5-7-0----------------------|-0-5-7-0--------------------|
|
| E E E E E E  E E  E  E  E  E   E E E E E E  E Q    E Q
|------------------------------|----------------------------|
|------------------------------|----------------------------|
|------------------------------|----------------------------|
|------------------------------|----------------------------|
|-2-2-2-2-2-2------------------|-2-2-2-2-2-2--3-x----3-3----|
|-0-0-0-0-0-0--0-5--4--0--4--1-|-0-0-0-0-0-0--1-x----1-1----|


  $
  E5          N.C.               E5          F5
  E E E E E E  E E  E  E  E  E   E E E E E E  E E  E E Q
|------------------------10-12-|--------------------------|
|----------------9-10-12-------|----------------9-10-9----|
|---------7-9-10---------------|---------7-9-10--------7--|
|---7-9------------------------|---7-9--------------------|
|-7-----7----------------------|-7-----7------------------|
|------------------------------|--------------------------|
|
| E E E E E E  E E  E  E  E  E   E E E E E E  E E  E E Q
|------------------------------|--------------------------|
|------------------------------|--------------------------|
|-------------------------7--9-|--------------------------|
|----------------6--7--9-------|----------------6--7-6----|
|---------5-7--8---------------|---------5-7--8--------5--|
|-0-5-7-0----------------------|-0-5-7-0------------------|
|
| E E E E E E  E E  E  E  E  E   E E E E E E  E Q    E Q
|------------------------------|--------------------------|
|------------------------------|--------------------------|
|------------------------------|--------------------------|
|------------------------------|--------------------------|
|-2-2-2-2-2-2------------------|-2-2-2-2-2-2--3-x----3-3--|
|-0-0-0-0-0-0--0-5--4--0--4--1-|-0-0-0-0-0-0--1-x----1-1--|


  E5          N.C.               E5          F5
  E E E E E E  E E  E  E  E  E   E E E E E E  E E  E E Q
|------------------------10-12-|----------------------------||
|----------------9-10-12-------|----------------9-10-9------||
|---------7-9-10---------------|---------7-9-10--------7----||
|---7-9------------------------|---7-9----------------------||
|-7-----7----------------------|-7-----7--------------------||
|------------------------------|----------------------------||
|
| E E E E E E  E E  E  E  E  E   E E E E E E  E E  E E Q
|------------------------------|----------------------------||
|------------------------------|----------------------------||
|-------------------------7--9-|----------------------------||
|----------------6--7--9-------|----------------6--7-6------||
|---------5-7--8---------------|---------5-7--8--------5----||
|-0-5-7-0----------------------|-0-5-7-0--------------------||
|
| E E E E E E  E E  E  E  E  E   E E E E E E  E Q    E Q
|------------------------------|----------------------------||
|------------------------------|----------------------------||
|------------------------------|----------------------------||
|------------------------------|----------------------------||
|-2-2-2-2-2-2------------------|-2-2-2-2-2-2--3-x----3-3----||
|-0-0-0-0-0-0--0-5--4--0--4--1-|-0-0-0-0-0-0--1-x----1-1----||


   Verse
    N.C.
    Gtrs II, III
    E E E E E E E E E E E E   E E E E E E E Q  E Q
||--------------------------|-----------------------|
||o-------------------------|-----------------------|
||--------------------------|-----------------------|
||--------------------------|-----------------------|
||o-------------------------|-----------------------|
||--0-0-0-0-0-0-0-5-4-0-4-1-|-0-0-0-0-0-0-1-1--1-1--|


  E E E E E E E E E E E E   E E E E E E E q  E Q
|-------------------------|--------------------------||
|-------------------------|-------------------------o||
|-------------------------|--------------------------||
|-------------------------|--------------------------||
|-------------------------|-------------------------o||
|-0-0-0-0-0-0-0-5-4-0-4-1-|-0-0-0-0-0-0-1-1--1-1-----||


 horus
  N.C.                                C5               Am
  Gtr IV
  W        +Q    Q    W.               W.               +W.
|-7--------(7)--10--|-7-------------|--8-------------|--(8)----|
|---------------10--|-8-------------|--8-------------|--(8)----|
|-9--------(9)--11--|-4-------------|--9-------------|--(9)----|
|-9--------(9)--12--|-5-------------|-10-------------|-(10)----|
|-------------------|---------------|----------------|---------|
|-------------------|---------------|----------------|---------|
|
| Gtrs II, III
| W        +Q    Q    W.               W.                W.
|-------------------|---------------|----------------|---0-----|
|-------------------|---------------|----------------|---1-----|
|-------------------|---------------|--5-------------|---2-----|
|-------------------|---------------|--5-------------|---2-----|
|-------------------|---------------|--3-------------|---0-----|
|-0--------(0)---2--|-3-------------|----------------|---------|


  E5              N.C.
  W          +Q    Q    W.
|-7----------(7)--10--|-7-------------|
|-----------------10--|-8-------------|
|-9----------(9)--11--|-4-------------|
|-9----------(9)--12--|-5-------------|
|---------------------|---------------|
|---------------------|---------------|
|
| H.      H        Q    W.
|---------------------|---------------|
|---------------------|---------------|
|---------9-----------|---------------|
|---------9-----------|---------------|
|---------7-----------|---------------|
|-0-------0--------2--|-3-------------|


  C5                                D5
   W.               +W          +E   Q.
|--8-------------|--(8)---------(8)-10-----|
|-10-------------|-(10)--------(10)-10-----|
|--9-------------|--(9)---------(9)--------|
|-10-------------|-(10)--------(10)-12-----|
|----------------|-------------------------|
|----------------|-------------------------|
|
|  W.               +W          +E   Q.
|----------------|-------------------------|
|----------------|-------------------------|
|--5-------------|--(5)---------(5)--7-----|
|--5-------------|--(5)---------(5)--7-----|
|--3-------------|--(3)---------(3)--5-----|
|----------------|-------------------------|


                                   To Coda
    E5              N.C.          B5
    W          +Q    Q    W.
||--7----------(7)--10--|-7---------------|
||o-----------------10--|-8---------------|
||--9----------(9)--11--|-4---------------|
||--9----------(9)--12--|-5---------------|
||o---------------------|-----------------|
||----------------------|-----------------|
|
|   H.      H        Q    H.      H.
||----------------------|-----------------|
||o---------------------|-----------------|
||----------------------|---------4-------|
||--9-------------------|---------4-------|
||o-7-------------------|---------2-------|
||--0-------0--------2--|-3---------------|


 1.
  E5              N.C.          D5
  W          +Q    Q    H.       H.
|-7----------(7)--10--|-7-------10------||
|-----------------10--|-8-------10-----o||
|-9----------(9)--11--|-4---------------||
|-9----------(9)--12--|-5-------12------||
|---------------------|----------------o||
|---------------------|-----------------||
|
| H.      H        Q    H.       H.
|---------------------|-----------------||
|---------------------|----------------o||
|---------------------|----------7------||
|-9-------------------|----------7------||
|-7-------------------|----------5-----o||
|-0-------0--------2--|-3---------------||


  2.
  E5N.C.                                       F5
  Gtr I
  E E E E E E  E E  E  E   E  E   E  E E E E E  E E  E E Q
|-------------------------10-12-|---------------------------|
|----------------9-10-12--------|-----------------9-10-9----|
|---------7-9-10----------------|----------7-9-10--------7--|
|---7-9-------------------------|----7-9--------------------|
|-7-----7-----------------------|-7------7------------------|
|-------------------------------|---------------------------|
|
| Gtr III
| E E E E E E  E E  E  E   E  E   E  E E E E E  E E  E E Q
|-------------------------------|---------------------------|
|-------------------------------|---------------------------|
|--------------------------7--9-|---------------------------|
|----------------6--7--9--------|-----------------6--7-6----|
|---------5-7--8----------------|----------5-7--8--------5--|
|-0-5-7-0-----------------------|-0--5-7-0------------------|
|
| Gtr II
|                                               PM     PM
| E W                  Q.         H.            E Q    E Q
|-------------------------------|---------------------------|
|-------------------------------|---------------------------|
|-------------------------------|---------------------------|
|-2-----------------------------|-----------------3------3--|
|-2-----------------------------|---------------3-3----3-3--|
|-0-----------------------------|---------------1-1----1-1--|


                                               D.S. al Coda
  E5N.C.
  E E E E E E  E E  E  E   E  E    E   E E E E E  E E  E E Q
|-------------------------10-12-|-------------------------------||
|----------------9-10-12--------|-------------------9-10-9------||
|---------7-9-10----------------|------------7-9-10--------7----||
|---7-9-------------------------|------7-9----------------------||
|-7-----7-----------------------|--7-------7--------------------||
|-------------------------------|-------------------------------||
|
| E E E E E E  E E  E  E   E  E    E   E E E E E  E E  E E Q
|-------------------------------|-------------------------------||
|-------------------------------|-------------------------------||
|--------------------------7--9-|-------------------------------||
|----------------6--7--9--------|-------------------6--7-6------||
|---------5-7--8----------------|------------5-7--8--------5----||
|-0-5-7-0-----------------------|--0---5-7-0--------------------||
|
| E W                  Q.          W.
|-------------------------------|-------------------------------||
|-------------------------------|-------------------------------||
|-------------------------------|-<5>\--------------------------||
|-2-----------------------------|-------------------------------||
|-2-----------------------------|-------------------------------||
|-0-----------------------------|-------------------------------||


 Breakdown
  &
  E5
  E  E E E E E  E E  E  E  E  E    E  E E E E E  E E  E E Q
|-------------------------10-12-|----------------------------|
|-----------------9-10-12-------|------------------9-10-9----|
|----------7-9-10---------------|-----------7-9-10--------7--|
|----7-9------------------------|-----7-9--------------------|
|-7------7----------------------|--7------7------------------|
|-------------------------------|----------------------------|
|
| Gtrs II, III
| W.                              +W.
|-------------------------------|----------------------------|
|-------------------------------|----------------------------|
|-------------------------------|----------------------------|
|-2-----------------------------|-(2)------------------------|
|-2-----------------------------|-(2)------------------------|
|-0-----------------------------|-(0)------------------------|


                                                 N.C.
   E  E E E E E  E E  E  E  E  E    E  E E E E E  E   E  E   E Q
|--------------------------10-12-|-----------------------------------|
|------------------9-10-12-------|--------------------9-10---9-------|
|-----------7-9-10---------------|-----------7-9-10------------7-----|
|-----7-9------------------------|-----7-9---------------------------|
|--7------7----------------------|--7------7-------------------------|
|--------------------------------|-----------------------------------|
|
| +W.                              +H.            S S E  S S E S S E
|--------------------------------|-----------------------------------|
|--------------------------------|-----------------------------------|
|--------------------------------|-----------------------------------|
|-(2)----------------------------|-(2)-------------------------------|
|-(2)----------------------------|-(2)-------------------------------|
|-(0)----------------------------|-(0)------------1-1-1--1-1-1-1-1-1-|


  E5
  E  E E E E E  E E  E  E  E  E    E  E E E E E  E E  E E Q
|-------------------------10-12-|----------------------------|
|-----------------9-10-12-------|------------------9-10-9----|
|----------7-9-10---------------|-----------7-9-10--------7--|
|----7-9------------------------|-----7-9--------------------|
|-7------7----------------------|--7------7------------------|
|-------------------------------|----------------------------|
|
| Gtr III
| E  E E E E E  E E  E  E  E  E    E  E E E E E  E E  E E Q
|-------------------------------|----------------------------|
|-------------------------------|----------------------------|
|--------------------------7--9-|----------------------------|
|-----------------6--7--9-------|------------------6--7-6----|
|----------5-7--8---------------|-----------5-7--8--------5--|
|-0--5-7-0----------------------|--0--5-7-0------------------|
|
| Gtr II
| W.                              +W.
|-------------------------------|----------------------------|
|-------------------------------|----------------------------|
|-------------------------------|----------------------------|
|-2-----------------------------|-(2)------------------------|
|-2-----------------------------|-(2)------------------------|
|-0-----------------------------|-(0)------------------------|


                                   N.C.         D5
   E  E E E E E  E E  E  E  E  E   E E E E E  E  H.
|--------------------------10-12-|---------------------|
|------------------9-10-12-------|--------------10-----|
|-----------7-9-10---------------|---------9-10--------|
|-----7-9------------------------|---7-9---------------|
|--7------7----------------------|-7-----7-------------|
|--------------------------------|---------------------|
|
|  E  E E E E E  E E  E  E  E  E   E E E E E  E  H.
|--------------------------------|---------------------|
|--------------------------------|---------------------|
|---------------------------7--9-|---------------7-----|
|------------------6--7--9-------|---------------7-----|
|-----------5-7--8---------------|---------7--8--5-----|
|--0--5-7-0----------------------|-0-5-7-0-------------|
|
| +W.                              E E E E E  E  H.
|--------------------------------|---------------------|
|--------------------------------|---------------------|
|--------------------------------|-x-x-x-x-x--x--7-----|
|-(2)----------------------------|-x-x-x-x-x--x--7-----|
|-(2)----------------------------|-x-x-x-x-x--x--5-----|
|-(0)----------------------------|---------------------|


  C5
  Gtr IV
  W.                    +W.
|-3-------------------|-(3)------------------|
|-5-------------------|-(5)------------------|
|-5-------------------|-(5)------------------|
|-5-------------------|-(5)------------------|
|---------------------|----------------------|
|---------------------|----------------------|
|
| W.                    +W.
|---------------------|----------------------|
|---------------------|----------------------|
|-5-------------------|-(5)------------------|
|-5-------------------|-(5)------------------|
|-3-------------------|-(3)------------------|
|---------------------|----------------------|
|
| Q   E Q  E Q  Q  Q     Q   E Q  E Q  Q  Q
|---------------------|----------------------|
|---------------------|----------------------|
|-5---5-5--5-5--5--5--|--5---5-5--5-5--5--5--|
|---------------------|----------------------|
|---------------------|----------------------|
|---------------------|----------------------|


  N.C.
  +W.                        +H.          H.
|-(3)----------------------|-(3)----------5---------------||
|-(5)----------------------|-(5)----------7---------------||
|-(5)----------------------|-(5)----------7---------------||
|-(5)----------------------|-(5)----------7---------------||
|--------------------------|------------------------------||
|--------------------------|------------------------------||
|
| Gtr V
|  TPTPTPTPTPTPTPTPTPTPTPTP   TPTPTPTPTPTPTPTPTPTPTPTP
|  E E E E E E E E E E E E    E E E E E E E E E E E E
|--------------------------|------------------------------||
|--xsxsxsxsxsxsxsxsxsxsxsx-|------------------------------||
|--xsxsxsxsxsxsxsxsxsxsxsxs|==xsxsxsxsxsxsxsxsxsxsxsx\----||
|--xsxsxsxsxsxsxsxsxsxsxsxs|==xsxsxsxsxsxsxsxsxsxsxsx\----||
|--------------------------|--xsxsxsxsxsxsxsxsxsxsxsx\----||
|--------------------------|------------------------------||
|
|  Q   E Q   E Q   Q   Q      Q   E Q   E Q   Q   Q
|--------------------------|------------------------------||
|--------------------------|------------------------------||
|--5---5-5---5-5---5---5---|--5---5-5---5-7---7---7-------||
|--------------------------|------------------------------||
|--------------------------|------------------------------||
|--------------------------|------------------------------||


 Solo
  E5                        F#5    G5            B5
  Gtr III
    H.            Q    Q     Q     Q    E  Q   E S S E Q   E E
|-/12------------10--------------|--------10-------------------|
|---------------------12----10---|-8----7------7-7-8-7---------|
|--------------------------------|---------------------9-------|
|--------------------------------|-------------------------7s9-|
|--------------------------------|-----------------------------|
|--------------------------------|-----------------------------|
|
| Gtr II
|   E  E E E E E  E E  E  E  E E   E  E E  E E E E   E E E E E
|--------------------------------|-----------------------------|
|--------------------------------|-----------------------------|
|--------------------------------|-----------------------------|
|--------------------------------|---------------4---4-4-4-4-4-|
|---2--2-2-2-2-2--2-2--2--2--4-4-|-5--5-5--5-5-5-2---2-2-2-2-2-|
|---0--0-0-0-0-0--0-0--0--0--2-2-|-3--3-3--3-3-3---------------|
|
| Gtr IV
|   W                 +Q     Q     W.
|---7-----------------(7)---10---|-7---------------------------|
|---------------------------10---|-8---------------------------|
|---9-----------------(9)---11---|-4---------------------------|
|---9-----------------(9)---12---|-5---------------------------|
|--------------------------------|-----------------------------|
|--------------------------------|-----------------------------|


  E5                      F#5    G5             D5
  Q.     Q.     Q    Q     Q     Q    E  Q    E  S   S E S S E E E
|------------------------------|-----------------------------------|
|------------------------------|-----------------------------------|
|-9------7---------------------|-7---------------------------------|
|---------------7--------------|-----------------------------------|
|-------------------10-----9---|------9-10---10--9--10-9-7-9-7-5s7-|
|------------------------------|-----------------------------------|
|
| E  E E E  E E E E  E  E  E E   E  E E  E E  E  E     E E   E E E
|------------------------------|-----------------------------------|
|------------------------------|-----------------------------------|
|------------------------------|-----------------------------------|
|------------------------------|-----------------7-----7-7---7-7-7-|
|-2--2-2-2--2-2-2-2--2--2--4-4-|-5--5-5--5-5--5--5-----5-5---5-5-5-|
|-0--0-0-0--0-0-0-0--0--0--2-2-|-3--3-3--3-3--3--------------------|
|
| W                 +Q     Q     H.              H.
|-7-----------------(7)---10---|-7--------------10-----------------|
|-------------------------10---|-8--------------10-----------------|
|-9-----------------(9)---11---|-4---------------------------------|
|-9-----------------(9)---12---|-5--------------12-----------------|
|------------------------------|-----------------------------------|
|------------------------------|-----------------------------------|


  E5                     F#5                  B5
  Q.     Q   E E E  E  E  Q     Q.     Q.      Q   Q   Q
|-----------------------------|----------------------------|
|-----------------------------|---------------10---8---7---|
|-------------------------7---|-9------7-------------------|
|----------------5--7--9------|----------------------------|
|-7------7---5-7--------------|----------------------------|
|-----------------------------|----------------------------|
|
| E  E E E E E E E  E  E  E E   E  E E E  E E  E E E E E E
|-----------------------------|----------------------------|
|-----------------------------|----------------------------|
|-----------------------------|----------------------------|
|-----------------------------|----------------4-4-4-4-4-4-|
|-2--2-2-2-2-2-2-2--2--2--4-4-|-5--5-5-5--5-5--2-2-2-2-2-2-|
|-0--0-0-0-0-0-0-0--0--0--2-2-|-3--3-3-3--3-3--------------|
|
| W                +Q     Q     W.
|-7----------------(7)---10---|-7--------------------------|
|------------------------10---|-8--------------------------|
|-9----------------(9)---11---|-4--------------------------|
|-9----------------(9)---12---|-5--------------------------|
|-----------------------------|----------------------------|
|-----------------------------|----------------------------|


  E5                        F#5    G5              D5
  Q.     Q    E   Q    Q     Q      Q.      Q    E  S   S  E  E  E  E  E
|---------------------10----12---|-12------15---15-14--15-14-12------------||
|--------8---10-/12--------------|------------------------------15---------||
|-9------------------------------|---------------------------------14-16---||
|--------------------------------|-----------------------------------------||
|--------------------------------|-----------------------------------------||
|--------------------------------|-----------------------------------------||
|
| E  E E E E  E   E E  E  E  E E    E  E E  E E  E  E      E  E  E  E  E
|--------------------------------|-----------------------------------------||
|--------------------------------|-----------------------------------------||
|--------------------------------|-----------------------------------------||
|--------------------------------|------------------7------7--7--7--7--7---||
|-2--2-2-2-2--2---2-2--2--2--4-4-|--5--5-5--5-5--5--5------5--5--5--5--5---||
|-0--0-0-0-0--0---0-0--0--0--2-2-|--3--3-3--3-3--3-------------------------||
|
| W                   +Q     Q      H.              H.
|-7-------------------(7)---10---|--7--------------10----------------------||
|---------------------------10---|--8--------------10----------------------||
|-9-------------------(9)---11---|--4--------------------------------------||
|-9-------------------(9)---12---|--5--------------12----------------------||
|--------------------------------|-----------------------------------------||
|--------------------------------|-----------------------------------------||


 Outro
  E5                             F#5          G5                 B5
    Q.      Q    E  E  E  Q       E  +E        +Q     E  E  E  E  Q    E  E  Q
|---------------14-15-17-17b19---17-(17)b19-|-(17)---15-14----14-----------------|
|-/17------17-------------------------------|--------------17----15--------------|
|-------------------------------------------|-------------------------14-12-11---|
|-------------------------------------------|------------------------------------|
|-------------------------------------------|------------------------------------|
|-------------------------------------------|------------------------------------|
|
|   E  E E  E E  E  E  E  E    E  E   E         E  E  E  E  E  E  E E  E  E  E E
|-------------------------------------------|------------------------------------|
|-------------------------------------------|------------------------------------|
|-------------------------------------------|------------------------------------|
|-------------------------------------------|---------------------4-4--4--4--4-4-|
|---2--2-2--2-2--2--2--2--2----2--4---4-----|---5--5--5--5--5--5--2-2--2--2--2-2-|
|---0--0-0--0-0--0--0--0--0----0--2---2-----|---3--3--3--3--3--3-----------------|
|
|   W                    +Q       Q             W.
|---7--------------------(7)-----10---------|---7--------------------------------|
|--------------------------------10---------|---8--------------------------------|
|---9--------------------(9)-----11---------|---4--------------------------------|
|---9--------------------(9)-----12---------|---5--------------------------------|
|-------------------------------------------|------------------------------------|
|-------------------------------------------|------------------------------------|


  E5                          F#5    G5           D5
    Q.      Q    E  Q    Q     Q     E  Q   E Q    Q    S S E Q
|----------------------------------|--------------------------------|
|-/12------12---10-12--------------|--------------------------------|
|-----------------------12----11---|-9--7---------------------------|
|----------------------------------|--------7-5----4----4-5-4-------|
|----------------------------------|--------------------------5-----|
|----------------------------------|--------------------------------|
|
|   E  E E  E E  E  E E  E  E  E E   E  E E E E E  E  E E   E E E
|----------------------------------|--------------------------------|
|----------------------------------|--------------------------------|
|----------------------------------|--------------------------------|
|----------------------------------|---------------7--7-7---7-7-7---|
|---2--2-2--2-2--2--2-2--2--2--4-4-|-5--5-5-5-5-5--5--5-5---5-5-5---|
|---0--0-0--0-0--0--0-0--0--0--2-2-|-3--3-3-3-3-3-------------------|
|
|   W                   +Q     Q     H.            H.
|---7-------------------(7)---10---|-7------------10----------------|
|-----------------------------10---|-8------------10----------------|
|---9-------------------(9)---11---|-4------------------------------|
|---9-------------------(9)---12---|-5------------12----------------|
|----------------------------------|--------------------------------|
|----------------------------------|--------------------------------|


  E5                      F#5    G5           B5
   Q.     Q   E E E  E  E  E E   E  E E E E E E E E E E  E
|------------------------------|---------------------------|
|------------------------------|---------------------------|
|------------------------------|---------------------------|
|-----------------5--5--5--5-5-|-5--5-5-5-5-5-5s7-7s9-9s12-|
|-/7------7---5-7--------------|---------------------------|
|------------------------------|---------------------------|
|
|  E  E E E E E E E  E  E  E E   E  E E E E E E E E E E  E
|------------------------------|---------------------------|
|------------------------------|---------------------------|
|------------------------------|---------------------------|
|------------------------------|--------------4-4-4-4-4--4-|
|--2--2-2-2-2-2-2-2--2--2--4-4-|-5--5-5-5-5-5-2-2-2-2-2--2-|
|--0--0-0-0-0-0-0-0--0--0--2-2-|-3--3-3-3-3-3--------------|
|
|  W                +Q     Q     W.
|--7----------------(7)---10---|-7-------------------------|
|-------------------------10---|-8-------------------------|
|--9----------------(9)---11---|-4-------------------------|
|--9----------------(9)---12---|-5-------------------------|
|------------------------------|---------------------------|
|------------------------------|---------------------------|


  E5                     F#5    G5          D5
  Q.     Q   E Q    Q     Q      E  Q  E Q   Q   Q  Q
|-----------------------------|--------------------------|
|-----------------------------|-10--8--8-7---7-----------|
|-9------9---7-9--------------|------------------9--7----|
|-------------------9-----7---|--7--5--5-4---4-----------|
|-----------------------------|------------------7--5----|
|-----------------------------|--------------------------|
|
| E  E E E E E E E  E  E  E E    H.          H.
|-----------------------------|--------------------------|
|-----------------------------|--------------------------|
|-----------------------------|--------------------------|
|-----------------------------|--------------7-----------|
|-2--2-2-2-2-2-2-2--2--2--4-4-|--5-----------5-----------|
|-0--0-0-0-0-0-0-0--0--0--2-2-|--3-----------------------|
|
| W                +Q     Q      H.          H.
|-7----------------(7)---10---|--7----------10-----------|
|------------------------10---|--8----------10-----------|
|-9----------------(9)---11---|--4-----------------------|
|-9----------------(9)---12---|--5----------12-----------|
|-----------------------------|--------------------------|
|-----------------------------|--------------------------|


  E5
  Gtr I
  E  E E E E E  E E  E  E  E  E    E  E E E E E  E E  E E Q
|-------------------------10-12-|----------------------------|
|-----------------9-10-12-------|------------------9-10-9----|
|----------7-9-10---------------|-----------7-9-10--------7--|
|----7-9------------------------|-----7-9--------------------|
|-7------7----------------------|--7------7------------------|
|-------------------------------|----------------------------|
|
| Gtrs II, III
| W.                              +W.
|-------------------------------|----------------------------|
|-------------------------------|----------------------------|
|-------------------------------|----------------------------|
|-2-----------------------------|-(2)------------------------|
|-2-----------------------------|-(2)------------------------|
|-0-----------------------------|-(0)------------------------|


                                                 F5             E5  N.C.
   E  E E E E E  E E  E  E  E  E    E  E E E E E  E E  E E Q    W
|--------------------------10-12-|----------------------------|------------------*|
|------------------9-10-12-------|------------------9-10-9----|------------------*|
|-----------7-9-10---------------|-----------7-9-10--------7--|------------------*|
|-----7-9------------------------|-----7-9--------------------|------------------*|
|--7------7----------------------|--7------7------------------|------------------*|
|--------------------------------|----------------------------|------------------*|
|
| +W.                              +H.            E Q    E Q    E W        Q.
|--------------------------------|----------------------------|------------------*|
|--------------------------------|----------------------------|------------------*|
|--------------------------------|----------------------------|------------------*|
|-(2)----------------------------|-(2)------------3-3----3-3--|-2----------------*|
|-(2)----------------------------|-(2)------------3-3----3-3--|-2----------------*|
|-(0)----------------------------|-(0)------------1-1----1-1--|-0----------------*|




--------------------------------------------------------------------------------


Duration Legend
---------------
W - whole; H - half; Q - quarter; E - 8th; S - 16th; T - 32nd; X - 64th; a - acciaccatura
+ - note tied to previous; . - note dotted; .. - note double dotted
Uncapitalized letters represent notes that are staccato (1/2 duration)
Irregular groupings are notated above the duration line
Duration letters will always appear directly above the note/fret number it represents the
duration for.  Duration letters with no fret number below them represent rests.  Multi-
bar rests are notated in the form Wxn, where n is the number of bars to rest for.  Low
melody durations appear below the staff

Tablature Legend
----------------
 h   - hammer-on
 p   - pull-off
 b   - bend
 pb  - pre-bend
 r   - bend release (if no number after the r, then release immediately)
 /\  - slide into or out of (from/to "nowhere")
 s   - legato slide
 S   - shift slide
<n> - natural harmonic
[n]  - artificial harmonic
n(n) - tapped harmonic
 ~   - vibrato
 tr  - trill
 T   - tap
 TP  - trem. picking
 PM  - palm muting
\n/  - tremolo bar dip; n = amount to dip
 \n  - tremolo bar down
 n/  - tremolo bar up
/n\  - tremolo bar inverted dip
 =   - hold bend; also acts as connecting device for hammers/pulls
 <> - volume swell (louder/softer)
 x   - on rhythm slash represents muted slash
 o   - on rhythm slash represents single note slash

Misc Legend
-----------
 |  - bar
||  - double bar
||o - repeat start
o|| - repeat end
*|  - double bar (ending)
 :  - bar (freetime)
 $  - Segno
 &  - Coda
Tempo markers - <E/E./Q/Q./H/H.> = BPM(8/16=s8/s16), where s8 = swing 8ths, s16 = swing 16ths

comments
We did not receive enough feedback on this tab! Please rate:
print report bad tab
1 2 3 4 5
I want to post or [tab]
guest
You may want to rate the tab now too:
select rating
Please do not post tabs as comments. Select "correction" instead!