Oops, an error
Loading. Please wait.

Under A Soil And Black Stone Tab

ver1
ver1

Whole song

Interactive

More versions @911Tabs.com
454 views 3 this week
no commentswrite comment
1 2 3 4 5
please rate
Autoscroll
+/-
esc
set tempo
stop
Contributor
Tuning
Tabbers playing skills
D G C F A D
intermediate ++
Hey! There's an official Ultimate Guitar app which is ideal
for learning songs when you're away from computer. Get the app
WARNING: You are trying to view
                                    content from Ultimate-Guitar.com
                                    in an unauthorized application,
                                    which is prohibited.

                                    Please use an official Ultimate
                                    Guitar Tabs application for iPhone,
                                    iPad or Android to access legitimate
                                    chords, guitar, bass, and drum tabs
                                    from Ultimate-Guitar.com database.

                                    Type "ultimate guitar tabs" in Apple
                                    App Store's or Android Market's
                                    search to find the application.
  UNDER A SOIL AND BLACK STONE
                             As recorded by Amorphis
                         (From the 2006 Album ECLIPSE)
Tablature Legend
----------------
 h   - hammer-on
 p   - pull-off
 b   - bend
 pb  - pre-bend
 r   - bend release (if no number after the r, then release immediately)
 /\  - slide into or out of (from/to "nowhere")
 s   - legato slide
 S   - shift slide
<n>  - natural harmonic
[n]  - artificial harmonic
n(n) - tapped harmonic
 ~   - vibrato
 tr  - trill
 T   - tap
 TP  - trem. picking
 PM  - palm muting
\n/  - tremolo bar dip; n = amount to dip
 \n  - tremolo bar down
 n/  - tremolo bar up
/n\  - tremolo bar inverted dip
 =   - hold bend; also acts as connecting device for hammers/pulls
 <>  - volume swell (louder/softer)
 x   - on rhythm slash represents muted slash
 o   - on rhythm slash represents single note slash

D Tuning

 Intro
  Q=58
 4/4
  Gtr III
|-12-----------------------------|
|-----12-15-13-12----------------|
|-----------------14-14----------|
|--------------------------------|
|--------------------------------|
|--------------------------------|
|
| Gtr I
|-^0-----------------(0)-5-(5)---|
|------------------------------5-|
|-^2-----------------(2)---------|
|-^2-----------------(2)---------|
|-^0-----------------(0)---------|
|--------------------------------|


|-12---------------------------------------------------|----12-------------||
|-----------------12------15------13-12-------------12-|-13----15-12-------||
|---------------------------------------14-14----14----|-------------14----||
|---------------------------------------------14-------|-------------------||
|------------------------------------------------------|-------------------||
|------------------------------------------------------|-------------------||
|
|  >
|------------------------------------------------------|--1-----3-----0----||
|-(5)-(5)-(5)-(5)-(5)-(5)-(5)-(5)----------------------|--1-----3----------||
|------------------------------------------------------|--2-----0-----2----||
|------------------------------------------------------|--3-----0-----2----||
|------------------------------------------------------|--3-----2-----0----||
|------------------------------------------------------|--1-----3----------||


 Verse
|-12-----------------------------------|
|---------12---15---13-12--------------|
|-------------------------14---14------|
|--------------------------------------|
|--------------------------------------|
|--------------------------------------|
|
| Gtr II
|--0-0--0--0-0----0--0--0----0--0-0--0-|
|--------------------------------------|
|--2-2--2--2-2----2--2--2----2--2-2--2-|
|--2-2--2--2-2----2--2--2----2--2-2--2-|
|--0-0--0--0-0----0--0--0----0--0-0--0-|
|--------------------------------------|


|-12---------------------------------------|----12-------------------|
|---------12---15---13-12---------------12-|-13----15-12-------------|
|-------------------------14---14----14----|-------------14----------|
|---------------------------------14-------|-------------------------|
|------------------------------------------|-------------------------|
|------------------------------------------|-------------------------|
|
|--0-0--0--0-0----0--0--0----0--0--0-----0-|--1-----3-----0-0-0-0--0-|
|------------------------------------------|--1-----3----------------|
|--2-2--2--2-2----2--2--2----2--2--2-----2-|--2-----0-----2-2-2-2--2-|
|--2-2--2--2-2----2--2--2----2--2--2-----2-|--3-----0-----2-2-2-2--2-|
|--0-0--0--0-0----0--0--0----0--0--0-----0-|--3-----2-----0-0-0-0--0-|
|------------------------------------------|--1-----3----------------|


|-12-----------------------------------|
|---------12---15---13-12--------------|
|-------------------------14---14------|
|--------------------------------------|
|--------------------------------------|
|--------------------------------------|
|
|--0-0--0--0-0----0--0--0----0--0-0--0-|
|--------------------------------------|
|--2-2--2--2-2----2--2--2----2--2-2--2-|
|--2-2--2--2-2----2--2--2----2--2-2--2-|
|--0-0--0--0-0----0--0--0----0--0-0--0-|
|--------------------------------------|


|-12---------------------------------------|----12------------------------------|
|---------12---15---13-12---------------12-|-13----15-12-------------------12---|
|-------------------------14---14----14----|-------------14-----(14)----14------|
|---------------------------------14-------|-------------------------14---------|
|------------------------------------------|------------------------------------|
|------------------------------------------|------------------------------------|
|
|--0-0--0--0-0----0--0--0----0--0--0-----0-|--1-----3-----0-0-0---0------0--0---|
|------------------------------------------|--1-----3---------------------------|
|--2-2--2--2-2----2--2--2----2--2--2-----2-|--2-----0-----2-2-2---2------2--2---|
|--2-2--2--2-2----2--2--2----2--2--2-----2-|--3-----0-----2-2-2---2------2--2---|
|--0-0--0--0-0----0--0--0----0--0--0-----0-|--3-----2-----0-0-0---0------0--0---|
|------------------------------------------|--1-----3---------------------------|


|----12----------------------------|
|-13----15-12-------------------12-|
|-------------14-----(14)----14----|
|-------------------------14-------|
|----------------------------------|
|----------------------------------|
|
|--1-----3-----0-0-0---0------0--0-|
|--1-----3-------------------------|
|--2-----0-----2-2-2---2------2--2-|
|--3-----0-----2-2-2---2------2--2-|
|--3-----2-----0-0-0---0------0--0-|
|--1-----3-------------------------|


|----12-----------------|--------------------------------||
|-13-----13-12-------12-|-10-----12-----13-----15--------||
|--------------14-13----|--------------------------------||
|-----------------------|--7------9-----10-----12--------||
|-----------------------|--------------------------------||
|-----------------------|--------------------------------||
|
|--1---------0----------|--0-0-0--0-0-0--0-0-0--0-0-0-0--||
|--1---------0----------|--0-0-0--0-0-0--0-0-0--0-0-0-0--||
|--2---------0----------|--2-2-2--2-2-2--2-2-2--2-2-2-2--||
|--3---------2----------|--2-2-2--2-2-2--2-2-2--0-0-0-0--||
|--3---------2----------|--0-0-0--2-2-2--3-3-3--0-0-0-0--||
|--1---------0----------|--------------------------------||


 horus
  Gtr V
|-------------------------------|-------------------------------|
|-------------------------------|-------------------------------|
|-5---------7-------------(7)---|-5---------7-------------(7)---|
|-5---------7-------------(7)---|-5---------7-------------(7)---|
|-3---------5-------------(5)---|-3---------5-------------(5)---|
|-------------------------------|-------------------------------|
|
|-0-0-0-0-0-2-2-2-2-2-2-2--2--2-|-0-0-0-0-0-2-2-2-2-2-2-2--2--2-|
|-1-1-1-1-1-3-3-3-3-3-3-3--3--3-|-1-1-1-1-1-3-3-3-3-3-3-3--3--3-|
|-0-0-0-0-0-2-2-2-2-2-2-2--2--2-|-0-0-0-0-0-2-2-2-2-2-2-2--2--2-|
|-2-2-2-2-2-0-0-0-0-0-0-0--0--0-|-2-2-2-2-2-0-0-0-0-0-0-0--0--0-|
|-3-3-3-3-3---------------------|-3-3-3-3-3---------------------|
|-------------------------------|-------------------------------|


|-------------------------------|-----------------------||
|-------------------------------|-----------------------||
|-5---------7-------------(7)---|-5---------7----(7)----||
|-5---------7-------------(7)---|-5---------7----(7)----||
|-3---------5-------------(5)---|-3---------5----(5)----||
|-------------------------------|-----------------------||
|
|-0-0-0-0-0-2-2-2-2-2-2-2--2--2-|-0-0-0-0-0-2----(2)----||
|-1-1-1-1-1-3-3-3-3-3-3-3--3--3-|-1-1-1-1-1-3----(3)----||
|-0-0-0-0-0-2-2-2-2-2-2-2--2--2-|-0-0-0-0-0-2----(2)----||
|-2-2-2-2-2-0-0-0-0-0-0-0--0--0-|-2-2-2-2-2-0----(0)----||
|-3-3-3-3-3---------------------|-3-3-3-3-3-------------||
|-------------------------------|-----------------------||


 Verse
  Gtr III
|-12-----------------------------------|
|---------12---15---13-12--------------|
|-------------------------14---14------|
|--------------------------------------|
|--------------------------------------|
|--------------------------------------|
|
| Gtr V
|  ~~
|--------------------------------------|
|--------------------------------------|
|--9-----------------------------------|
|----------9---12---10--9--7----7------|
|--------------------------------------|
|--------------------------------------|
|
| Gtr II
|--0-0--0--0-0----0--0--0----0--0-0--0-|
|--------------------------------------|
|--2-2--2--2-2----2--2--2----2--2-2--2-|
|--2-2--2--2-2----2--2--2----2--2-2--2-|
|--0-0--0--0-0----0--0--0----0--0-0--0-|
|--------------------------------------|


|-12---------------------------------------|----12-------------------------|
|---------12---15---13-12---------------12-|-13----15------12--------------|
|-------------------------14---14----14----|------------------14-----------|
|---------------------------------14-------|-------------------------------|
|------------------------------------------|-------------------------------|
|------------------------------------------|-------------------------------|
|
|  ~~
|------------------------------------------|-------------------------------|
|------------------------------------------|-------------------------------|
|--9---------------------------------------|-----9-------------------------|
|----------9---12---10--9--7----7-----7--9-|-10-----9-10-9--5--7-----------|
|----------------------------------7-------|-------------------------------|
|------------------------------------------|-------------------------------|
|
|--0-0--0--0-0----0--0--0----0--0--0-----0-|--1-----3----------0-0-0-0--0--|
|------------------------------------------|--1-----3----------------------|
|--2-2--2--2-2----2--2--2----2--2--2-----2-|--2-----0----------2-2-2-2--2--|
|--2-2--2--2-2----2--2--2----2--2--2-----2-|--3-----0----------2-2-2-2--2--|
|--0-0--0--0-0----0--0--0----0--0--0-----0-|--3-----2----------0-0-0-0--0--|
|------------------------------------------|--1-----3----------------------|


|-12-----------------------------------|
|---------12---15---13-12--------------|
|-------------------------14---14------|
|--------------------------------------|
|--------------------------------------|
|--------------------------------------|
|
|  ~~
|--------------------------------------|
|--------------------------------------|
|--9-----------------------------------|
|----------9---12---10--9--7----7------|
|--------------------------------------|
|--------------------------------------|
|
|--0-0--0--0-0----0--0--0----0--0-0--0-|
|--------------------------------------|
|--2-2--2--2-2----2--2--2----2--2-2--2-|
|--2-2--2--2-2----2--2--2----2--2-2--2-|
|--0-0--0--0-0----0--0--0----0--0-0--0-|
|--------------------------------------|


|-12---------------------------------------|----12---------------------------------|
|---------12---15---13-12---------------12-|-13----15------12-------------------12-|
|-------------------------14---14----14----|------------------14-----(14)----14----|
|---------------------------------14-------|------------------------------14-------|
|------------------------------------------|---------------------------------------|
|------------------------------------------|---------------------------------------|
|
|  ~~
|------------------------------------------|---------------------------------------|
|------------------------------------------|---------------------------------------|
|--9---------------------------------------|-----9---------------------------------|
|----------9---12---10--9--7----7-----7--9-|-10-----9-10-9--5--7------(7)-----7--9-|
|----------------------------------7-------|-------------------------------7-------|
|------------------------------------------|---------------------------------------|
|
|--0-0--0--0-0----0--0--0----0--0--0-----0-|--1-----3----------0-0-0---0------0--0-|
|------------------------------------------|--1-----3------------------------------|
|--2-2--2--2-2----2--2--2----2--2--2-----2-|--2-----0----------2-2-2---2------2--2-|
|--2-2--2--2-2----2--2--2----2--2--2-----2-|--3-----0----------2-2-2---2------2--2-|
|--0-0--0--0-0----0--0--0----0--0--0-----0-|--3-----2----------0-0-0---0------0--0-|
|------------------------------------------|--1-----3------------------------------|


|----12---------------------------------|
|-13----15------12-------------------12-|
|------------------14-----(14)----14----|
|------------------------------14-------|
|---------------------------------------|
|---------------------------------------|
|
|---------------------------------------|
|---------------------------------------|
|-----9---------------------------------|
|-10-----9-10-9--5--7------(7)-----7--9-|
|-------------------------------7-------|
|---------------------------------------|
|
|--1-----3----------0-0-0---0------0--0-|
|--1-----3------------------------------|
|--2-----0----------2-2-2---2------2--2-|
|--3-----0----------2-2-2---2------2--2-|
|--3-----2----------0-0-0---0------0--0-|
|--1-----3------------------------------|


|----12-----------------|--------------------------------||
|-13-----13-12-------12-|-10-----12-----13------15-------||
|--------------14-13----|--------------------------------||
|-----------------------|--7------9-----10------12-------||
|-----------------------|--------------------------------||
|-----------------------|--------------------------------||
|
|-----------------------|--------------------------------||
|-----------------------|--------------------------------||
|-----9-----------------|--------------------------------||
|-10-----10--9--7--6--9-|--7---7--9---9-10---10-12-------||
|-----------------------|--------------------------------||
|-----------------------|--------------------------------||
|
|--1---------0----------|--0-0-0--0-0-0--0-0--0--0-0-0-0-||
|--1---------0----------|--------------------------------||
|--2---------0----------|--2-2-2--2-2-2--2-2--2--2-2-2-2-||
|--3---------2----------|--2-2-2--2-2-2--2-2--2--0-0-0-0-||
|--3---------2----------|--0-0-0--2-2-2--3-3--3--0-0-0-0-||
|--1---------0----------|--------------------------------||


 Chorus
  Gtr V
|-------------------------------|-------------------------------|
|-------------------------------|-------------------------------|
|-5---5-5-x-7---------(7)-7-7---|-5---5-5-x-7---------(7)-7-7---|
|-5---5-5-x-7---------(7)-7-7-7-|-5---5-5-x-7---------(7)-7-7-7-|
|-3---3-3-x-5---------(5)-5-5-5-|-3---3-3-x-5---------(5)-5-5-5-|
|-------------------------------|-------------------------------|
|
| Gtr II
|-0-0-0-0-0-2-2-2-2-2--2--2-2-2-|-0-0-0-0-0-2-2-2-2-2--2--2-2-2-|
|-1-1-1-1-1-3-3-3-3-3--3--3-3-3-|-1-1-1-1-1-3-3-3-3-3--3--3-3-3-|
|-0-0-0-0-0-2-2-2-2-2--2--2-2-2-|-0-0-0-0-0-2-2-2-2-2--2--2-2-2-|
|-2-2-2-2-2-0-0-0-0-0--0--0-0-0-|-2-2-2-2-2-0-0-0-0-0--0--0-0-0-|
|-3-3-3-3-3---------------------|-3-3-3-3-3---------------------|
|-------------------------------|-------------------------------|


|-------------------------------|-------------------------------||
|-------------------------------|-------------------------------||
|-5---5-5-x-7---------(7)-------|-5---5-5-x-7---------(7)-------||
|-5---5-5-x-7---------(7)-------|-5---5-5-x-7---------(7)-------||
|-3---3-3-x-5---------(5)-------|-3---3-3-x-5---------(5)-------||
|-------------------------------|-------------------------------||
|
|-0-0-0-0-0-2-2-2-2-2--2--2-2-2-|-0-0-0-0-0-2-2-2-2-2--2--2-2-2-||
|-1-1-1-1-1-3-3-3-3-3--3--3-3-3-|-1-1-1-1-1-3-3-3-3-3--3--3-3-3-||
|-0-0-0-0-0-2-2-2-2-2--2--2-2-2-|-0-0-0-0-0-2-2-2-2-2--2--2-2-2-||
|-2-2-2-2-2-0-0-0-0-0--0--0-0-0-|-2-2-2-2-2-0-0-0-0-0--0--0-0-0-||
|-3-3-3-3-3---------------------|-3-3-3-3-3---------------------||
|-------------------------------|-------------------------------||


 Interlude
|---------------------------------------------------------------------------|
|-12-0-0-12-10-0-0-10-8-0-0-8-7-0-0-10-12-0-0-12-10-0-0-10-8-0-0-8-7-0-0-8--|
|---------------------------------------------------------------------------|
|---------------------------------------------------------------------------|
|---------------------------------------------------------------------------|
|---------------------------------------------------------------------------|
|
| Gtr IV
|  >
|---------------------------------------------------------------------------|
|---------------------------------------------------------------------------|
|---------------------------------------------------------------------------|
|--2------------------------------------------------------------------------|
|--2------------------------------------------------------------------------|
|--0------------------------------------------------------------------------|


|---------------------------------------------------------------------|
|-10-0-0-10-8-0-0-8-7-0-0-7-5-0-0-7-8-0-0-8-7-0-0-7-5-0-0-5-3-0-0-10--|
|---------------------------------------------------------------------|
|---------------------------------------------------------------------|
|---------------------------------------------------------------------|
|---------------------------------------------------------------------|
|
|---------------------------------------------------------------------|
|---------------------------------------------------------------------|
|---------------------------------------------------------------------|
|--7--------------------------------5---------------7-----------------|
|--5--------------------------------3---------------5-----------------|
|---------------------------------------------------------------------|


|---------------------------------------------------------------------------|
|-12-0-0-12-10-0-0-10-8-0-0-8-7-0-0-10-12-0-0-12-10-0-0-10-8-0-0-8-7-0-0-8--|
|---------------------------------------------------------------------------|
|---------------------------------------------------------------------------|
|---------------------------------------------------------------------------|
|---------------------------------------------------------------------------|
|
|---------------------------------------------------------------------------|
|---------------------------------------------------------------------------|
|---------------------------------------------------------------------------|
|---------------------------------------------------------------------------|
|--2------------------------------------------------------------------------|
|--0------------------------------------------------------------------------|


|---------------------------------------------------------------------|
|-10-0-0-10-8-0-0-8-7-0-0-7-5-0-0-7-8-0-0-8-7-0-0-7-5-0-0-5-3-0-0-10--|
|---------------------------------------------------------------------|
|---------------------------------------------------------------------|
|---------------------------------------------------------------------|
|---------------------------------------------------------------------|
|
|---------------------------------------------------------------------|
|---------------------------------------------------------------------|
|---------------------------------------------------------------------|
|--7--------------------------------5---------------4-----------------|
|--5--------------------------------3---------------2-----------------|
|---------------------------------------------------------------------|


||---------------------------------------------------------------------------|
||o-12-0-0-12-10-0-0-10-8-0-0-8-7-0-0-10-12-0-0-12-10-0-0-10-8-0-0-8-7-0-0-8-|
||---------------------------------------------------------------------------|
||---------------------------------------------------------------------------|
||o--------------------------------------------------------------------------|
||---------------------------------------------------------------------------|
|
||---------------------------------------------------------------------------|
||o--------------------------------------------------------------------------|
||---------------------------------------------------------------------------|
||---2-2-2--2--2-2-2--2-2-2-2-2-2-2-2--2--2-2-2--2--2-2-2--2-2-2-2-2-2-2-2-2-|
||o--2-2-2--2--2-2-2--2-2-2-2-2-2-2-2--2--2-2-2--2--2-2-2--2-2-2-2-2-2-2-2-2-|
||---0-0-0--0--0-0-0--0-0-0-0-0-0-0-0--0--0-0-0--0--0-0-0--0-0-0-0-0-0-0-0-0-|
|
|   Gtr VI
||---------------------------------------------------------------------------|
||o-12-----------------------------------------------------------------------|
||---9-----------------------------------------------------------------------|
||---9-----------------------------------------------------------------------|
||o--------------------------------------------------------------------------|
||---------------------------------------------------------------------------|


|----------------------------------------------------------------------|
|-10-0-0-10-8-0-0-8-7-0-0-7-5-0-0-7-8-0-0-8-7-0-0-7--5-0-0-5-3-0-0-10--|
|----------------------------------------------------------------------|
|----------------------------------------------------------------------|
|----------------------------------------------------------------------|
|----------------------------------------------------------------------|
|
|----------------------------------------------------------------------|
|----------------------------------------------------------------------|
|--7-7-7--7-7-7-7-7-7-7-7-7-7-7-7-7-5-5-5-5-5-5-5-5--7-7-7-7-7-7-7--7--|
|--7-7-7--7-7-7-7-7-7-7-7-7-7-7-7-7-5-5-5-5-5-5-5-5--7-7-7-7-7-7-7--7--|
|--5-5-5--5-5-5-5-5-5-5-5-5-5-5-5-5-3-3-3-3-3-3-3-3--5-5-5-5-5-5-5--5--|
|----------------------------------------------------------------------|
|
|----------------------------------------------------------------------|
|-10--------------------------------8---------------10-----------------|
|--7--------------------------------5----------------7-----------------|
|--7--------------------------------5----------------7-----------------|
|----------------------------------------------------------------------|
|----------------------------------------------------------------------|


|---------------------------------------------------------------------------|
|-12-0-0-12-10-0-0-10-8-0-0-8-7-0-0-10-12-0-0-12-10-0-0-10-8-0-0-8-7-0-0-8--|
|---------------------------------------------------------------------------|
|---------------------------------------------------------------------------|
|---------------------------------------------------------------------------|
|---------------------------------------------------------------------------|
|
|---------------------------------------------------------------------------|
|---------------------------------------------------------------------------|
|---------------------------------------------------------------------------|
|--2-2-2--2--2-2-2--2-2-2-2-2-2-2-2--2--2-2-2--2--2-2-2--2-2-2-2-2-2-2-2-2--|
|--2-2-2--2--2-2-2--2-2-2-2-2-2-2-2--2--2-2-2--2--2-2-2--2-2-2-2-2-2-2-2-2--|
|--0-0-0--0--0-0-0--0-0-0-0-0-0-0-0--0--0-0-0--0--0-0-0--0-0-0-0-0-0-0-0-0--|
|
|---------------------------------------------------------------------------|
|-12------------------------------------------------------------------------|
|--9------------------------------------------------------------------------|
|--9------------------------------------------------------------------------|
|---------------------------------------------------------------------------|
|---------------------------------------------------------------------------|


|---------------------------------------------------------------------||
|-10-0-0-10-8-0-0-8-7-0-0-7-5-0-0-7-8-0-0-8-7-0-0-7-5-0-0-5-3-0-0-0--o||
|---------------------------------------------------------------------||
|---------------------------------------------------------------------||
|--------------------------------------------------------------------o||
|---------------------------------------------------------------------||
|
|---------------------------------------------------------------------||
|--------------------------------------------------------------------o||
|--7-7-7--7-7-7-7-7-7-7-7-7-7-7-7-7-5-5-5-5-5-5-5-5-4-4-4-4-4-4-4-4---||
|--7-7-7--7-7-7-7-7-7-7-7-7-7-7-7-7-5-5-5-5-5-5-5-5-4-4-4-4-4-4-4-4---||
|--5-5-5--5-5-5-5-5-5-5-5-5-5-5-5-5-3-3-3-3-3-3-3-3-2-2-2-2-2-2-2-2--o||
|---------------------------------------------------------------------||
|
|---------------------------------------------------------------------||
|-10--------------------------------8---------------7----------------o||
|--7--------------------------------5---------------4-----------------||
|--7--------------------------------5---------------4-----------------||
|--------------------------------------------------------------------o||
|---------------------------------------------------------------------||


 Solo
|---------------------------------------------------------15-17-17-15-17-20-20-15-20-15-17-20-15--|
|-18-18-17-18---18-17-15-18-18-17-18-17-18-17-15-18-17-15-----------------------------------------|
|-------------------------------------------------------------------------------------------------|
|-------------------------------------------------------------------------------------------------|
|-------------------------------------------------------------------------------------------------|
|-------------------------------------------------------------------------------------------------|
|
|-------------------------------------------------------------------------------------------------|
|-------------------------------------------------------------------------------------------------|
|--7--7--7--7-7--7--7--7--7--7--7--7--7--7--7--7--7--7--7--7--7--7--7--7--7--7--7--7--7--7--7--7--|
|--7--7--7--7-7--7--7--7--7--7--7--7--7--7--7--7--7--7--7--7--7--7--7--7--7--7--7--7--7--7--7--7--|
|--5--5--5--5-5--5--5--5--5--5--5--5--5--5--5--5--5--5--5--5--5--5--5--5--5--5--5--5--5--5--5--5--|
|-------------------------------------------------------------------------------------------------|
|
|-------------------------------------------------------------------------------------------------|
|-10----------------------------------------------------------------------------------------------|
|--7----------------------------------------------------------------------------------------------|
|--7----------------------------------------------------------------------------------------------|
|-------------------------------------------------------------------------------------------------|
|-------------------------------------------------------------------------------------------------|


|--------------------------------------------------------------------------------------------------|
|-17-18-18-18-15-17-13-17-13-15-15-15-10-15-10-13--------------------------------------------------|
|-------------------------------------------------10-12-10-12-10----------------------------12-10--|
|----------------------------------------------------------------12-10-10----------------10--------|
|-------------------------------------------------------------------------13-10----10-13-----------|
|-------------------------------------------------------------------------------13-----------------|
|
|--------------------------------------------------------------------------------------------------|
|--------------------------------------------------------------------------------------------------|
|--5--5--5--5--5--5--5--5--5--5--5--5--5--5--5--5--3--3--3--3--3--3--3--3--5--5--5--5--5--5--5--5--|
|--5--5--5--5--5--5--5--5--5--5--5--5--5--5--5--5--3--3--3--3--3--3--3--3--5--5--5--5--5--5--5--5--|
|--3--3--3--3--3--3--3--3--3--3--3--3--3--3--3--3--1--1--1--1--1--1--1--1--3--3--3--3--3--3--3--3--|
|--------------------------------------------------------------------------------------------------|
|
|--------------------------------------------------------------------------------------------------|
|--8-----------------------------------------------6-----------------------8-----------------------|
|--5-----------------------------------------------3-----------------------5-----------------------|
|--5-----------------------------------------------3-----------------------5-----------------------|
|--------------------------------------------------------------------------------------------------|
|--------------------------------------------------------------------------------------------------|


|---------------------------------------------------------------------------------|
|---------------------------------------------------------------------------------|
|-10-12-12-10-9-10---10-0-10-0-7-0-3-0-2-0-10---7-0-7-10-7-10-7-7-10-12-14-17-12--|
|------------------7--------------------------7-----------------------------------|
|---------------------------------------------------------------------------------|
|---------------------------------------------------------------------------------|
|
|---------------------------------------------------------------------------------|
|---------------------------------------------------------------------------------|
|--7--7--7--7-7--7-7--7-7--7-7-7-7-7-7-7-7--7-7-7-7-7--7-7--7-7-7--7--7--7--7--7--|
|--7--7--7--7-7--7-7--7-7--7-7-7-7-7-7-7-7--7-7-7-7-7--7-7--7-7-7--7--7--7--7--7--|
|--5--5--5--5-5--5-5--5-5--5-5-5-5-5-5-5-5--5-5-5-5-5--5-5--5-5-5--5--5--5--5--5--|
|---------------------------------------------------------------------------------|
|
|---------------------------------------------------------------------------------|
|-10------------------------------------------------------------------------------|
|--7------------------------------------------------------------------------------|
|--7------------------------------------------------------------------------------|
|---------------------------------------------------------------------------------|
|---------------------------------------------------------------------------------|


|----------------------------------------------------------15-17-15----15-20-17-15-17-20-15-17-20--|
|-------------------15-17-15-17-15----18-15-18-15-18-17-15----------18-----------------------------|
|-12-17-14-12-17-14----------------17--------------------------------------------------------------|
|--------------------------------------------------------------------------------------------------|
|--------------------------------------------------------------------------------------------------|
|--------------------------------------------------------------------------------------------------|
|
|--------------------------------------------------------------------------------------------------|
|--------------------------------------------------------------------------------------------------|
|--5--5--5--5--5--5--5--5--5--5--5--5--5--5--5--5--3--3--3--3--3--3--3--3--2--2--2--2--2--2--2--2--|
|--5--5--5--5--5--5--5--5--5--5--5--5--5--5--5--5--3--3--3--3--3--3--3--3--2--2--2--2--2--2--2--2--|
|--3--3--3--3--3--3--3--3--3--3--3--3--3--3--3--3--1--1--1--1--1--1--1--1--0--0--0--0--0--0--0--0--|
|--------------------------------------------------------------------------------------------------|
|
|--------------------------------------------------------------------------------------------------|
|--8-----------------------------------------------6-----------------------5-----------------------|
|--5-----------------------------------------------3-----------------------2-----------------------|
|--5-----------------------------------------------3-----------------------2-----------------------|
|--------------------------------------------------------------------------------------------------|
|--------------------------------------------------------------------------------------------------|


|-15\-------------------------------------------------------------------------|
|---------------------------------------12--0-0-12-10-0-0-10-8-0-0-8-7-0-0-8--|
|-----------------------------------------------------------------------------|
|-----------------------------------------------------------------------------|
|-----------------------------------------------------------------------------|
|-----------------------------------------------------------------------------|
|
|-----------------------------------------------------------------------------|
|-----------------------------------------------------------------------------|
|-----------------------------------------------------------------------------|
|--2--2-2-2-2-2-2-2-2-2-2-2---2--2-2-2---2--2-2--2--2-2-2--2-2-2-2-2-2-2-2-2--|
|--2--2-2-2-2-2-2-2-2-2-2-2---2--2-2-2---2--2-2--2--2-2-2--2-2-2-2-2-2-2-2-2--|
|--0--0-0-0-0-0-0-0-0-0-0-0---0--0-0-0---0--0-0--0--0-0-0--0-0-0-0-0-0-0-0-0--|
|
|----------------------------10---------12------------------------------------|
|-12------------------------(12)-------(12)-----------------------------------|
|--9-------------------------(9)--------(9)-----------------------------------|
|--9-------------------------(9)--------(9)-----------------------------------|
|-----------------------------------------------------------------------------|
|-----------------------------------------------------------------------------|


|--------------------------------------------------------------------------|
|-10-0-0-10-8-0-0-8-7-0-0-7-5-0-0-7-8-0--0-8-7--0-0-7--5-0-0--5-3-0--0-10--|
|--------------------------------------------------------------------------|
|--------------------------------------------------------------------------|
|--------------------------------------------------------------------------|
|--------------------------------------------------------------------------|
|
|--------------------------------------------------------------------------|
|--------------------------------------------------------------------------|
|--7-7-7--7-7-7-7-7-7-7-7-7-7-7-7-7-5-5--5-5-5--5-5-5--7-7-7--7-7-7--7--7--|
|--7-7-7--7-7-7-7-7-7-7-7-7-7-7-7-7-5-5--5-5-5--5-5-5--7-7-7--7-7-7--7--7--|
|--5-5-5--5-5-5-5-5-5-5-5-5-5-5-5-5-3-3--3-3-3--3-3-3--5-5-5--5-5-5--5--5--|
|--------------------------------------------------------------------------|
|
|-----------------------------------7---10-7---10-7---10-7---10-7---10-----|
|-10--------------------------------8-----------------10-------------------|
|--7--------------------------------5------------------7-------------------|
|--7--------------------------------5------------------7-------------------|
|--------------------------------------------------------------------------|
|--------------------------------------------------------------------------|


|-------------------------------------------------------------------------------|
|-12-0-0-12-10-0--0-10---8--0-0-8-7-0-0-10-12-0-0-12-10-0-0-10-8-0-0-8-7-0-0-8--|
|-------------------------------------------------------------------------------|
|-------------------------------------------------------------------------------|
|-------------------------------------------------------------------------------|
|-------------------------------------------------------------------------------|
|
|-------------------------------------------------------------------------------|
|-------------------------------------------------------------------------------|
|-------------------------------------------------------------------------------|
|--2-2-2--2--2-2--2--2---2--2-2-2-2-2-2--2--2-2-2--2--2-2-2--2-2-2-2-2-2-2-2-2--|
|--2-2-2--2--2-2--2--2---2--2-2-2-2-2-2--2--2-2-2--2--2-2-2--2-2-2-2-2-2-2-2-2--|
|--0-0-0--0--0-0--0--0---0--0-0-0-0-0-0--0--0-0-0--0--0-0-0--0-0-0-0-0-0-0-0-0--|
|
|--------10------12----(12)-----------------------------------------------------|
|-12----------------------------------------------------------------------------|
|--9----------------------------------------------------------------------------|
|--9----------------------------------------------------------------------------|
|-------------------------------------------------------------------------------|
|-------------------------------------------------------------------------------|


|---------------------------------------------------------------------||
|-10-0-0-10-8-0-0-8-7-0-0-7-5-0-0-7-8-0-0-8-7-0-0-7-5-0-0-5-3-0-0-10--||
|---------------------------------------------------------------------||
|---------------------------------------------------------------------||
|---------------------------------------------------------------------||
|---------------------------------------------------------------------||
|
|---------------------------------------------------------------------||
|---------------------------------------------------------------------||
|--7-7-7--7-7-7-7-7-7-7-7-7-7-7-7-7-5---5---5---5---4---4---4---4-----||
|--7-7-7--7-7-7-7-7-7-7-7-7-7-7-7-7-5---5---5---5---4---4---4---4-----||
|--5-5-5--5-5-5-5-5-5-5-5-5-5-5-5-5-3---3---3---3---2---2---2---2-----||
|---------------------------------------------------------------------||
|
|---------------------------------------------------------------------||
|-10--------------------------------8---------------7-----------------||
|--7--------------------------------5---------------4-----------------||
|--7--------------------------------5---------------4-----------------||
|---------------------------------------------------------------------||
|---------------------------------------------------------------------||


 Chorus
  Gtr V
|-------------------------------|-------------------------------|
|-------------------------------|-------------------------------|
|-5---5-5-x-7---------(7)-7-7---|-5---5-5-x-7---------(7)-7-7---|
|-5---5-5-x-7---------(7)-7-7-7-|-5---5-5-x-7---------(7)-7-7-7-|
|-3---3-3-x-5---------(5)-5-5-5-|-3---3-3-x-5---------(5)-5-5-5-|
|-------------------------------|-------------------------------|
|
| Gtr II
|-0-0-0-0-0-2-2-2-2-2--2--2-2-2-|-0-0-0-0-0-2-2-2-2-2--2--2-2-2-|
|-1-1-1-1-1-3-3-3-3-3--3--3-3-3-|-1-1-1-1-1-3-3-3-3-3--3--3-3-3-|
|-0-0-0-0-0-2-2-2-2-2--2--2-2-2-|-0-0-0-0-0-2-2-2-2-2--2--2-2-2-|
|-2-2-2-2-2-0-0-0-0-0--0--0-0-0-|-2-2-2-2-2-0-0-0-0-0--0--0-0-0-|
|-3-3-3-3-3---------------------|-3-3-3-3-3---------------------|
|-------------------------------|-------------------------------|


|-------------------------------|-------------------------------||
|-------------------------------|-------------------------------||
|-5---5-5-x-7---------(7)-------|-5---5-5-x-7---------(7)-------||
|-5---5-5-x-7---------(7)-------|-5---5-5-x-7---------(7)-------||
|-3---3-3-x-5---------(5)-------|-3---3-3-x-5---------(5)-------||
|-------------------------------|-------------------------------||
|
|-0-0-0-0-0-2-2-2-2-2--2--2-2-2-|-0-0-0-0-0-2-2-2-2-2--2--2-2-2-||
|-1-1-1-1-1-3-3-3-3-3--3--3-3-3-|-1-1-1-1-1-3-3-3-3-3--3--3-3-3-||
|-0-0-0-0-0-2-2-2-2-2--2--2-2-2-|-0-0-0-0-0-2-2-2-2-2--2--2-2-2-||
|-2-2-2-2-2-0-0-0-0-0--0--0-0-0-|-2-2-2-2-2-0-0-0-0-0--0--0-0-0-||
|-3-3-3-3-3---------------------|-3-3-3-3-3---------------------||
|-------------------------------|-------------------------------||


 Outro
                                                        H
|------------------------|------------------------------|
|-12---------------------|-12---------------------------|
|-----11-14-12-11--------|------11-14-12-11----------11-|
|-----------------14-14--|------------------14-14-14----|
|------------------------|------------------------------|
|------------------------|------------------------------|
|
| Gtr IV
|------------------------|------------------------------|
|------------------------|------------------------------|
|------------------------|------------------------------|
|--2---------------------|-(2)--------------------------|
|--2---------------------|-(2)--------------------------|
|--0---------------------|-(0)--------------------------|


 .=H
|--------------------------|
|--------------------------|
|-12--11----------------11-|
|--------12-14--(14)-14----|
|--------------------------|
|--------------------------|
|
|--------------------------|
|--------------------------|
|--5---7-------------------|
|--5---7-----2-------------|
|--3---5-----2-------------|
|------------0-------------|


|-----------------------------|-------------------|--------------------*|
|-----------------------------|-------------------|--------------------*|
|-12-/16-11----------------11-|-12--11-12-11------|--------------------*|
|-----------12-14--(14)-14----|---------------13--|-14-----------------*|
|-----------------------------|-------------------|--------------------*|
|-----------------------------|-------------------|--------------------*|
|
|-----------------------------|-------------------|-------0------------*|
|-----------------------------|-------------------|-----------0----0---*|
|--5------7-------------------|--5---------4------|--------------------*|
|--5------7-----2-------------|--5---------4------|--2---(2)-(2)--(2)--*|
|--3------5-----2-------------|--3---------2------|--2---(2)-(2)--(2)--*|
|---------------0-------------|-------------------|--0---(0)-(0)--(0)--*|
comments
We did not receive enough feedback on this tab! Please rate:
print report bad tab
1 2 3 4 5
I want to post or [tab]
guest
You may want to rate the tab now too:
select rating
Please do not post tabs as comments. Select "correction" instead!