Oops, an error
Loading. Please wait.

Weaving The Incantation Tab

ver1
ver1

Whole song

Interactive

More versions @911Tabs.com
1,506 views 3 this week
no commentswrite comment
1 2 3 4 5
please rate
Autoscroll
+/-
esc
set tempo
stop
Contributor
WARNING: You are trying to view
                                    content from Ultimate-Guitar.com
                                    in an unauthorized application,
                                    which is prohibited.

                                    Please use an official Ultimate
                                    Guitar Tabs application for iPhone,
                                    iPad or Android to access legitimate
                                    chords, guitar, bass, and drum tabs
                                    from Ultimate-Guitar.com database.

                                    Type "ultimate guitar tabs" in Apple
                                    App Store's or Android Market's
                                    search to find the application.
#----------------------------------PLEASE NOTE---------------------------------#
#This file is the author's own work and represents their interpretation of the #
#song. You may only use this file for private study, scholarship, or research. #
#------------------------------------------------------------------------------#




Transcribed by hauntedinflames



 

 

Gtr I (D G C F A D) - 'Untitled'
Gtr II (D G C F A D) - 'Untitled'
Gtr III (D G C F A D) - 'Untitled'


    Q=125
   6/8
    Gtrs I, II
    E S S S S E S S S S   E S S S S E  E E
||----------------------|------------------|
||o---------------------|------------------|
||--9---------9---------|-9---------9-11-9-|
||--9---------9---------|-9----------------|
||o-7---------7---------|-7---------7--9-7-|
||--0-0-0-0-0-0-0-0-0-0-|-0-0-0-0-0--------|


  S S S S S S S S S S S S    S  S  S  S  S  S S S S S S S
|-------------------------|----------------------------------|
|-------------------------|----------------------------------|
|-8-8-8-8-8-8-------------|----------------------------------|
|-------------9-9-9-9-9-9-|-10-10-10-10-10-10-5-5-5-5-5-5----|
|-6-6-6-6-6-6-------------|----------------------------------|
|-------------7-7-7-7-7-7-|--8--8--8--8--8--8-3-3-3-3-3-3----|


  E S S S S E S S S S   E S S S S   E  E E
|---------------------|--------------------|
|---------------------|--------------------|
|-9---------9---------|-9---------/12-11-9-|
|-9---------9---------|-9------------------|
|-7---------7---------|-7---------/10--9-7-|
|-0-0-0-0-0-0-0-0-0-0-|-0-0-0-0-0----------|


  S S S S S S S S S S S S    S  S  S  S  S  S S S S S S S    4x
|-------------------------|----------------------------------||
|-------------------------|---------------------------------o||
|-8-8-8-8-8-8-------------|-------------------8-8-8-8-8-8----||
|-------------9-9-9-9-9-9-|-10-10-10-10-10-10----------------||
|-6-6-6-6-6-6-------------|-------------------6-6-6-6-6-6---o||
|-------------7-7-7-7-7-7-|--8--8--8--8--8--8----------------||


    Q.    E E E   H    E E    H.        +Q.   Q.
||--------------|----------|----------|-----------|
||o-------------|----------|----------|-----------|
||--------------|----------|----------|-----------|
||--------------|----------|----------|-----------|
||o------/9-7-5-|----------|----------|-----------|
||--0-----------|-5----3-5-|-/7-------|-(7)---3---|


  Q.    E E E   H    E E    H.        +Q   S S Q.
|-------------|----------|----------|---------------||
|-------------|----------|----------|--------------o||
|-------------|----------|----------|---------------||
|-------------|----------|----------|---------------||
|------/9-7-5-|----------|----------|----------5---o||
|-0-----------|-5----3-5-|-/7-------|-(7)--x-x-3----||


  Gtr II
   E E  E Q.       +H        E E    H.             +Q.     Q.
|----------------|---------------|---------------|----------------|
|-10-9-10--------|---------------|---------------|----------------|
|---------6------|-(6)-------2-4-|-/6------------|-(6)------------|
|----------------|---------------|---------------|---------7------|
|----------------|---------------|---------------|----------------|
|----------------|---------------|---------------|----------------|
|
| Gtr I
|  E E  E E  E E    E  E E E E E    E  E E E E E    E  E E E  E E
|----------------|---------------|---------------|----------------|
|----------------|---------------|---------------|----------------|
|----------------|--4--4-4-4-4-4-|--6--6-6-6-6-6-|--6--6-6--------|
|--4-4--4-4--4-4-|--4--4-4-4-4-4-|--6--6-6-6-6-6-|--6--6-6--------|
|--4-4--4-4--4-4-|--2--2-2-2-2-2-|--4--4-4-4-4-4-|--4--4-4--------|
|--2-2--2-2--2-2-|---------------|---------------|---------5--5-5-|


   E E  E Q.       +H        E E    H.             H.
|----------------|---------------|---------------|--------------|
|-10-9-10--------|---------------|---------------|-6------------|
|---------6------|-(6)-------2-4-|-/6------------|--------------|
|----------------|---------------|---------------|--------------|
|----------------|---------------|---------------|--------------|
|----------------|---------------|---------------|--------------|
|
|  E E  E E  E E    E  E E E E E    E  E E E E E   E  E E E E E
|----------------|---------------|---------------|--------------|
|----------------|---------------|---------------|--------------|
|----------------|--4--4-4-4-4-4-|--6--6-6-6-6-6-|-6--6-6-------|
|--4-4--4-4--4-4-|--4--4-4-4-4-4-|--6--6-6-6-6-6-|-6--6-6-------|
|--4-4--4-4--4-4-|--2--2-2-2-2-2-|--4--4-4-4-4-4-|-4--4-4-------|
|--2-2--2-2--2-2-|---------------|---------------|--------5-5-5-|


     |-3--|
   E S  S S E Q.       E E E E E E    H.             +H.
|--------------------|-------------|---------------|---------------|
|-10-9-10-9-7--------|-------------|---------------|---------------|
|-------------6------|---------2-4-|-/6------------|-(6)-----------|
|--------------------|-9-9-9-9-----|---------------|---------------|
|--------------------|-------------|---------------|---------------|
|--------------------|-------------|---------------|---------------|
|
|  E E      E E  E E   E E E E E E    E  E E E E E    E  E E E E E
|--------------------|-------------|---------------|---------------|
|--------------------|-------------|---------------|---------------|
|--------------------|-4-4-4-4-4-4-|--6--6-6-6-6-6-|--6--6-6-------|
|--4-4------4-4--4-4-|-4-4-4-4-4-4-|--6--6-6-6-6-6-|--6--6-6-------|
|--4-4------4-4--4-4-|-2-2-2-2-2-2-|--4--4-4-4-4-4-|--4--4-4-------|
|--2-2------2-2--2-2-|-------------|---------------|---------5-5-5-|


     |-3--|
   E S  S S E Q.       E E E E E E    H.             +H.
|--------------------|-------------|---------------|---------------||
|-10-9-10-9-7--------|-------------|---------------|---------------||
|-------------6------|---------2-4-|-/6------------|-(6)-----------||
|--------------------|-9-9-9-9-----|---------------|---------------||
|--------------------|-------------|---------------|---------------||
|--------------------|-------------|---------------|---------------||
|
|  E E      E E  E E   E E E E E E    E  E E E E E    E  E E E E E
|--------------------|-------------|---------------|---------------||
|--------------------|-------------|---------------|---------------||
|--------------------|-4-4-4-4-4-4-|--6--6-6-6-6-6-|--6--6-6-------||
|--4-4------4-4--4-4-|-4-4-4-4-4-4-|--6--6-6-6-6-6-|--6--6-6-------||
|--4-4------4-4--4-4-|-2-2-2-2-2-2-|--4--4-4-4-4-4-|--4--4-4-------||
|--2-2------2-2--2-2-|-------------|---------------|---------5-5-5-||


  Gtrs I, II
  Q.     E E E   H    E E    H.        +Q.   Q.
|--------------|----------|----------|------------|
|--------------|----------|----------|------------|
|------/11-9-7-|----------|----------|------------|
|-2------------|-7----5-7-|-/9-------|-(9)--------|
|-------/9-7-5-|----------|----------|-------5----|
|-0------------|-5----3-5-|-/7-------|-(7)---3----|


  Q.     E E E   H    E E    H.        +Q   S S Q.
|--------------|----------|----------|--------------||
|--------------|----------|----------|--------------||
|------/11-9-7-|----------|----------|--------------||
|-2------------|-7----5-7-|-/9-------|-(9)----------||
|-------/9-7-5-|----------|----------|----------5---||
|-0------------|-5----3-5-|-/7-------|-(7)--x-x-3---||


    E S S S S E S S S S   E S S S S E  E E
||----------------------|------------------|
||o---------------------|------------------|
||--9---------9---------|-9---------9-11-9-|
||--9---------9---------|-9----------------|
||o-7---------7---------|-7---------7--9-7-|
||--0-0-0-0-0-0-0-0-0-0-|-0-0-0-0-0--------|


  S S S S S S S S S S S S    S  S  S  S  S  S S S S S S S
|-------------------------|--------------------------------|
|-------------------------|--------------------------------|
|-8-8-8-8-8-8-------------|--------------------------------|
|-------------9-9-9-9-9-9-|-10-10-10-10-10-10-5-5-5-5-5-5--|
|-6-6-6-6-6-6-------------|--------------------------------|
|-------------7-7-7-7-7-7-|--8--8--8--8--8--8-3-3-3-3-3-3--|


  1.
  E S S S S E S S S S   E S S S S   E  E E
|---------------------|--------------------|
|---------------------|--------------------|
|-9---------9---------|-9---------/12-11-9-|
|-9---------9---------|-9------------------|
|-7---------7---------|-7---------/10--9-7-|
|-0-0-0-0-0-0-0-0-0-0-|-0-0-0-0-0----------|


  S S S S S S S S S S S S    S  S  S  S  S  S S S S S S S
|-------------------------|----------------------------------||
|-------------------------|---------------------------------o||
|-8-8-8-8-8-8-------------|-------------------8-8-8-8-8-8----||
|-------------9-9-9-9-9-9-|-10-10-10-10-10-10----------------||
|-6-6-6-6-6-6-------------|-------------------6-6-6-6-6-6---o||
|-------------7-7-7-7-7-7-|--8--8--8--8--8--8----------------||


  2.
  E S S S S E S S S S   E S S S S   E  E E
|---------------------|--------------------|
|---------------------|--------------------|
|-9---------9---------|-9---------/12-11-9-|
|-9---------9---------|-9------------------|
|-7---------7---------|-7---------/10--9-7-|
|-0-0-0-0-0-0-0-0-0-0-|-0-0-0-0-0----------|


  S S S S S S S S S S S S    S  S  S  S  S  S   Q.
|-------------------------|---------------------------||
|-------------------------|---------------------------||
|-8-8-8-8-8-8-------------|---------------------------||
|-------------9-9-9-9-9-9-|-10-10-10-10-10-10-/13\----||
|-6-6-6-6-6-6-------------|---------------------------||
|-------------7-7-7-7-7-7-|--8--8--8--8--8--8-/11\----||


  Gtr II
   E E  E Q.       +H        E E    H.             +Q.     Q.
|----------------|---------------|---------------|----------------|
|-10-9-10--------|---------------|---------------|----------------|
|---------6------|-(6)-------2-4-|-/6------------|-(6)------------|
|----------------|---------------|---------------|---------7------|
|----------------|---------------|---------------|----------------|
|----------------|---------------|---------------|----------------|
|
| Gtr I
|  E E  E E  E E    E  E E E E E    E  E E E E E    E  E E E  E E
|----------------|---------------|---------------|----------------|
|----------------|---------------|---------------|----------------|
|----------------|--4--4-4-4-4-4-|--6--6-6-6-6-6-|--6--6-6--------|
|--4-4--4-4--4-4-|--4--4-4-4-4-4-|--6--6-6-6-6-6-|--6--6-6--------|
|--4-4--4-4--4-4-|--2--2-2-2-2-2-|--4--4-4-4-4-4-|--4--4-4--------|
|--2-2--2-2--2-2-|---------------|---------------|---------5--5-5-|


   E E  E Q.       +H        E E    H.             H.
|----------------|---------------|---------------|--------------|
|-10-9-10--------|---------------|---------------|-6------------|
|---------6------|-(6)-------2-4-|-/6------------|--------------|
|----------------|---------------|---------------|--------------|
|----------------|---------------|---------------|--------------|
|----------------|---------------|---------------|--------------|
|
|  E E  E E  E E    E  E E E E E    E  E E E E E   E  E E E E E
|----------------|---------------|---------------|--------------|
|----------------|---------------|---------------|--------------|
|----------------|--4--4-4-4-4-4-|--6--6-6-6-6-6-|-6--6-6-------|
|--4-4--4-4--4-4-|--4--4-4-4-4-4-|--6--6-6-6-6-6-|-6--6-6-------|
|--4-4--4-4--4-4-|--2--2-2-2-2-2-|--4--4-4-4-4-4-|-4--4-4-------|
|--2-2--2-2--2-2-|---------------|---------------|--------5-5-5-|


     |-3--|
   E S  S S E Q.       E E E E E E    H.             +H.
|--------------------|-------------|---------------|---------------|
|-10-9-10-9-7--------|-------------|---------------|---------------|
|-------------6------|---------2-4-|-/6------------|-(6)-----------|
|--------------------|-9-9-9-9-----|---------------|---------------|
|--------------------|-------------|---------------|---------------|
|--------------------|-------------|---------------|---------------|
|
|  E E      E E  E E   E E E E E E    E  E E E E E    E  E E E E E
|--------------------|-------------|---------------|---------------|
|--------------------|-------------|---------------|---------------|
|--------------------|-4-4-4-4-4-4-|--6--6-6-6-6-6-|--6--6-6-------|
|--4-4------4-4--4-4-|-4-4-4-4-4-4-|--6--6-6-6-6-6-|--6--6-6-------|
|--4-4------4-4--4-4-|-2-2-2-2-2-2-|--4--4-4-4-4-4-|--4--4-4-------|
|--2-2------2-2--2-2-|-------------|---------------|---------5-5-5-|


     |-3--|
   E S  S S E Q.       E E E E E E    H.             +H.
|--------------------|-------------|---------------|---------------||
|-10-9-10-9-7--------|-------------|---------------|---------------||
|-------------6------|---------2-4-|-/6------------|-(6)-----------||
|--------------------|-9-9-9-9-----|---------------|---------------||
|--------------------|-------------|---------------|---------------||
|--------------------|-------------|---------------|---------------||
|
|  E E      E E  E E   E E E E E E    E  E E E E E    E  E E E E E
|--------------------|-------------|---------------|---------------||
|--------------------|-------------|---------------|---------------||
|--------------------|-4-4-4-4-4-4-|--6--6-6-6-6-6-|--6--6-6-------||
|--4-4------4-4--4-4-|-4-4-4-4-4-4-|--6--6-6-6-6-6-|--6--6-6-------||
|--4-4------4-4--4-4-|-2-2-2-2-2-2-|--4--4-4-4-4-4-|--4--4-4-------||
|--2-2------2-2--2-2-|-------------|---------------|---------5-5-5-||


  Q=110
  Gtr III
  E  S S S S E S S S S    E  S S S S E S S S S
|----------------------|-----------------------|
|------------8---------|-------------8---------|
|--------9-9-9-9-9-----|---------9-9-9-9-9-----|
|-9--9-9-9-9-9-9-9-9-9-|--9--9-9-9-9-9-9-9-9-9-|
|-7--7-7-7-7-7-7-7-7-7-|--7--7-7-7-7-7-7-7-7-7-|
|-0----------0---------|--0----------0---------|
|
| >
| H.                     +H.
|----------------------|-----------------------|
|----------------------|-----------------------|
|----------------------|-----------------------|
|----------------------|-----------------------|
|-2--------------------|-(2)-------------------|
|-0--------------------|-(0)-------------------|


   E  S S S S E S S S S    E  S S S S E S S S S
|-----------------------|------------------------|
|-------------8---------|-------------8----------|
|---------9-9-9-9-9-----|---------9-9-9-9-9------|
|--9--9-9-9-9-9-9-9-9-9-|--9--9-9-9-9-9-9-9-9-9--|
|--7--7-7-7-7-7-7-7-7-7-|--7--7-7-7-7-7-7-7-7-7--|
|--0----------0---------|--0----------0----------|
|
| +H.                     +H.
|-----------------------|------------------------|
|-----------------------|------------------------|
|-----------------------|------------------------|
|-----------------------|------------------------|
|-(2)-------------------|-(2)--------------------|
|-(0)-------------------|-(0)--------------------|


  E S S S S E S S S S   E S S S S E S S S S
|---------------------|---------------------|
|-----------8---------|-----------8---------|
|-------9-9-9-9-9-----|-------9-9-9-9-9-----|
|-9-9-9-9-9-9-9-9-9-9-|-9-9-9-9-9-9-9-9-9-9-|
|-7-7-7-7-7-7-7-7-7-7-|-7-7-7-7-7-7-7-7-7-7-|
|-0---------0---------|-0---------0---------|


  E S S S S E S S S S   E S S S S E S S S S
|---------------------|----------------------|
|-----------8---------|-----------8----------|
|-------9-9-9-9-9-----|-------9-9-9-9-9------|
|-9-9-9-9-9-9-9-9-9-9-|-9-9-9-9-9-9-9-9-9-9--|
|-7-7-7-7-7-7-7-7-7-7-|-7-7-7-7-7-7-7-7-7-7--|
|-0---------0---------|-0---------0----------|


    Gtr II
              ~~~~~~~~~~~~~~~~~
    E E   E   Q.           +H            +E    E
||-----------------------|-------------------------|
||o----------------------|-------------------------|
||--9-7---9--------------|-------------------------|
||------------9----------|-(9)-----------(9)---5---|
||o----------------------|-------------------------|
||-----------------------|-------------------------|
|
|   Gtr III
|   E S S S S E  S S S S    E  S S S S E  S  S S S
||------------7----------|-------------7-----------|
||o-------8-8-8--8-------|---------8-8-8--8--------|
||------9-9-9-9--9-9-----|-------9-9-9-9--9--9-----|
||--9-9-9-9-9-9--9-9-9-9-|--9--9-9-9-9-9--9--9-9-9-|
||o-7-7-7-7-7-7--7-7-7-7-|--7--7-7-7-7-7--7--7-7-7-|
||--0---------0----------|--0----------0-----------|


   H.                     +H.
|-----------------------|-----------------------|
|-----------------------|-----------------------|
|-----------------------|-----------------------|
|-/7--------------------|-(7)-------------------|
|-----------------------|-----------------------|
|-----------------------|-----------------------|
|
|  E  S S S S E S S S S    E  S S S S E S S S S
|-------------5---------|-------------5---------|
|-------------5-5-------|-------------5-5-------|
|---------5-5-5-5-5-----|---------5-5-5-5-5-----|
|-------7-7-7-7-7-7-7-7-|-------7-7-7-7-7-7-7-7-|
|--7--7-7-7-7-7-7-7-7-7-|--7--7-7-7-7-7-7-7-7-7-|
|--5--5-5-5-5-5-5-5-5-5-|--5--5-5-5-5-5-5-5-5-5-|


                                     ~~~
  E E   H               +Q.          Q.
|---------------------|-------------------------|
|---------------------|-------------------------|
|---------------------|-------------------------|
|-9-7---9-------------|-(9)---------------------|
|---------------------|-------------10----------|
|---------------------|-------------------------|
|
| E S S S S E S S S S    E  S S S S  E  S S S S
|-----------7---------|--------------7----------|
|-----------7-7-------|--------------7--7-------|
|-------8-8-8-8-8-----|---------8-8--8--8-8-----|
|-----9-9-9-9-9-9-9-9-|-------9-9-9--9--9-9-9-9-|
|-9-9-9-9-9-9-9-9-9-9-|--9--9-9-9-9--9--9-9-9-9-|
|-7-7-7-7-7-7-7-7-7-7-|--7--7-7-7-7--7--7-7-7-7-|


         ~~~~~~~~~~~~~~~~~~~~~
  E E   +H                +H.
|-----------------------|-------------------------||
|-----------------------|------------------------o||
|-----------------------|-------------------------||
|-----------------------|-------------------------||
|-9-7---(7)-------------|-(7)--------------------o||
|-----------------------|-------------------------||
|
| E S S  S  S E S S S S    E  S S S S E S S S S
|-------------7---------|-------------7-----------||
|--------8--8-8-8-------|---------8-8-8-8--------o||
|-----9--9--9-9-9-9-----|-------9-9-9-9-9-9-------||
|-9-9-9--9--9-9-9-9-9-9-|--9--9-9-9-9-9-9-9-9-9---||
|-7-7-7--7--7-7-7-7-7-7-|--7--7-7-7-7-7-7-7-7-7--o||
|-0-----------0---------|--0----------0-----------||


            ~~~~~~~~~~~~~~~~~
  E E   E   Q.           +Q.         E  E    E
|----------------------|-------------------------|
|----------------------|-------------------------|
|-9-7---9--------------|-------------------------|
|-----------9----------|-(9)---------9-10--------|
|----------------------|--------------------10---|
|----------------------|-------------------------|
|
| Gtrs I, III
| E S S S S E  S S S S    E  S S S S E  S S  S S
|----------------------|-------------------------|
|-8-8-8-8-8-8--8-8-8-8-|--8--8-8-8-8-8--8-8--8-8-|
|-9-9-9-9-9-9--9-9-9-9-|--9--9-9-9-9-9--9-9--9-9-|
|-9-9-9-9-9-9--9-9-9-9-|--9--9-9-9-9-9--9-9--9-9-|
|-7-7-7-7-7-7--7-7-7-7-|--7--7-7-7-7-7--7-7--7-7-|
|----------------------|-------------------------|


    ~~~~~~~~~~~~~~~~~~~~~~~~~~~~
    H.                      +Q.          Q      E
|------------------------|---------------------------|
|------------------------|---------------------------|
|------------------------|---------------------------|
|------------------------|---------------------------|
|-/12--------------------|-(12)---------10-----12----|
|------------------------|---------------------------|
|
|   E  S S S S E S S S S     E  S S S S  E S S  S S
|------------------------|---------------------------|
|------------------------|---------------------------|
|---5--5-5-5-5-5-5-5-5-5-|---5--5-5-5-5--5-5-5--5-5--|
|---7--7-7-7-7-7-7-7-7-7-|---7--7-7-7-7--7-7-7--7-7--|
|---7--7-7-7-7-7-7-7-7-7-|---7--7-7-7-7--7-7-7--7-7--|
|---5--5-5-5-5-5-5-5-5-5-|---5--5-5-5-5--5-5-5--5-5--|


           ~~~~~~~~~~~~~~~~~~~~~
   E  E    H                +Q.          Q      E
|------------------------|--------------------------|
|------------------------|--------------------------|
|------------------------|--------------------------|
|------------------------|--------------------------|
|-14-12---14-------------|-(14)---------12-----14---|
|------------------------|--------------------------|
|
|  E  S S  S S E S S S S     E  S S S S  E S S  S S
|------------------------|--------------------------|
|------------------------|--------------------------|
|--4--4-4--4-4-4-4-4-4-4-|---4--4-4-4-4--4-4-4--4-4-|
|--5--5-5--5-5-5-5-5-5-5-|---5--5-5-5-5--5-5-5--5-5-|
|--5--5-5--5-5-5-5-5-5-5-|---5--5-5-5-5--5-5-5--5-5-|
|--3--3-3--3-3-3-3-3-3-3-|---3--3-3-3-3--3-3-3--3-3-|


   ~~~~~~~~~~~~~~~~~~~~~~~~~~~~~~~~~~~~~~~~~
   Q.          Q.            Q.          Q.
|-------------------------|--------------------------|
|-------------------------|--------------------------|
|-------------------------|--------------------------|
|-------------14----------|-13----------16-----------|
|-14----------------------|--------------------------|
|-------------------------|--------------------------|
|
|  E  S S S S  E  S S S S    E  S S S S  E  S S S S
|-------------------------|--------------------------|
|-------------------------|--------------------------|
|--8--8-8-8-8--8--8-8-8-8-|--8--8-8-8-8--8--8-8-8-8--|
|--9--9-9-9-9--9--9-9-9-9-|--9--9-9-9-9--9--9-9-9-9--|
|--9--9-9-9-9--9--9-9-9-9-|--9--9-9-9-9--9--9-9-9-9--|
|--7--7-7-7-7--7--7-7-7-7-|--7--7-7-7-7--7--7-7-7-7--|


                      ~~~
           |---3---|
   E  E    S  S    S  Q.            +E   E    E    E  E    E
|--------------------------------|-----------------------------|
|--------------------------------|----------------15-13--------|
|-11-12---11-12---11-------------|------------------------14---|
|--------------------14----------|-(14)-14---16----------------|
|--------------------------------|-----------------------------|
|--------------------------------|-----------------------------|
|
|  E  S S  S    S     E  S S S S     E   S S  S S  E  S S  S S
|--------------------------------|-----------------------------|
|--8--8-8--8----8-----8--8-8-8-8-|---8---8-8--8-8--8--8-8--8-8-|
|--9--9-9--9----9-----9--9-9-9-9-|---9---9-9--9-9--9--9-9--9-9-|
|--9--9-9--9----9-----9--9-9-9-9-|---9---9-9--9-9--9--9-9--9-9-|
|--7--7-7--7----7-----7--7-7-7-7-|---7---7-7--7-7--7--7-7--7-7-|
|--------------------------------|-----------------------------|


   ~~~
   H.                      +E   E    E    E  Q
|-----------------------|-------------------------------|
|-----------------------|------12---12---12-12\---------|
|-14--------------------|-(14)--------------------------|
|-----------------------|-------------------------------|
|-----------------------|-------------------------------|
|-----------------------|-------------------------------|
|
|  E  S S S S E S S S S     E   S S  S S  E  S  S S S
|-----------------------|-------------------------------|
|-----------------------|-------------------------------|
|--5--5-5-5-5-5-5-5-5-5-|---5---5-5--5-5--5--5--5-5-5---|
|--7--7-7-7-7-7-7-7-7-7-|---7---7-7--7-7--7--7--7-7-7---|
|--7--7-7-7-7-7-7-7-7-7-|---7---7-7--7-7--7--7--7-7-7---|
|--5--5-5-5-5-5-5-5-5-5-|---5---5-5--5-5--5--5--5-5-5---|


                                |--3--|
   E.    E    S  E  S S E     E S S   S E   Q.
|---------------------------|--------------------------|
|-15----12---12-10-10-8-8---|-7-7-8---7-----7----------|
|---------------------------|-----------9--------------|
|---------------------------|--------------------------|
|---------------------------|--------------------------|
|---------------------------|--------------------------|
|
|  E  S  S S  S  E  S S S S   E S   S   S S E  S S S S
|---------------------------|--------------------------|
|---------------------------|--------------------------|
|--4--4--4-4--4--4--4-4-4-4-|-4-4---4---4-4-4--4-4-4-4-|
|--5--5--5-5--5--5--5-5-5-5-|-5-5---5---5-5-5--5-5-5-5-|
|--5--5--5-5--5--5--5-5-5-5-|-5-5---5---5-5-5--5-5-5-5-|
|--3--3--3-3--3--3--3-3-3-3-|-3-3---3---3-3-3--3-3-3-3-|


    TP          TP               ~~~
    Q.          Q.            E  Q.         E   E
|--------------------------|--------------------------||
|--------------------------|--------------------------||
|--------------14----------|--------------------7-----||
|-/17----------------------|-17-16----------9---------||
|--------------------------|--------------------------||
|--------------------------|--------------------------||
|
|   E  S S S S  E  S S S S    E  S  S S S E S S S S
|--------------------------|--------------------------||
|--------------------------|--------------------------||
|---8--8-8-8-8--8--8-8-8-8-|--8--8--8-8-8-8-8-8-8-8---||
|---9--9-9-9-9--9--9-9-9-9-|--9--9--9-9-9-9-9-9-9-9---||
|---9--9-9-9-9--9--9-9-9-9-|--9--9--9-9-9-9-9-9-9-9---||
|---7--7-7-7-7--7--7-7-7-7-|--7--7--7-7-7-7-7-7-7-7---||


            ~~~~~~~~~~~~~~~~~
  E E   E   Q.           +Q.         Q      E
|----------------------|------------------------|
|----------------------|------------------------|
|-9-7---9--------------|------------------------|
|-----------9----------|-(9)---------9\-----5---|
|----------------------|------------------------|
|----------------------|------------------------|
|
| E S S S S E  S S S S    E  S S S S E  S S S S
|----------------------|------------------------|
|-8-8-8-8-8-8--8-8-8-8-|--8--8-8-8-8-8--8-8-8-8-|
|-9-9-9-9-9-9--9-9-9-9-|--9--9-9-9-9-9--9-9-9-9-|
|-9-9-9-9-9-9--9-9-9-9-|--9--9-9-9-9-9--9-9-9-9-|
|-7-7-7-7-7-7--7-7-7-7-|--7--7-7-7-7-7--7-7-7-7-|
|----------------------|------------------------|


   ~~~~~~~~~~~~~~~~~~~~~~~~~~~
   H.                     +Q.         Q     E
|-----------------------|------------------------|
|-----------------------|------------------------|
|-----------------------|------------------------|
|-/7--------------------|-(7)---------5-----7----|
|-----------------------|------------------------|
|-----------------------|------------------------|
|
|  E  S S S S E S S S S    E  S S S S E S S S S
|-----------------------|------------------------|
|-----------------------|------------------------|
|--5--5-5-5-5-5-5-5-5-5-|--5--5-5-5-5-5-5-5-5-5--|
|--7--7-7-7-7-7-7-7-7-7-|--7--7-7-7-7-7-7-7-7-7--|
|--7--7-7-7-7-7-7-7-7-7-|--7--7-7-7-7-7-7-7-7-7--|
|--5--5-5-5-5-5-5-5-5-5-|--5--5-5-5-5-5-5-5-5-5--|


        ~~~~~~~~~~~~~~~~~~~~
  E E   H               +Q.         Q     E
|---------------------|-----------------------|
|---------------------|-----------------------|
|---------------------|-----------------------|
|-9-7---9-------------|-(9)---------7-----9---|
|---------------------|-----------------------|
|---------------------|-----------------------|
|
| E S S S S E S S S S    E  S S S S E S S S S
|---------------------|-----------------------|
|---------------------|-----------------------|
|-4-4-4-4-4-4-4-4-4-4-|--4--4-4-4-4-4-4-4-4-4-|
|-5-5-5-5-5-5-5-5-5-5-|--5--5-5-5-5-5-5-5-5-5-|
|-5-5-5-5-5-5-5-5-5-5-|--5--5-5-5-5-5-5-5-5-5-|
|-3-3-3-3-3-3-3-3-3-3-|--3--3-3-3-3-3-3-3-3-3-|


  ~~~~~~~~~~~~~~~~~~~~~~~~~~~~~~~~~~~~~~
  Q.         Q.           Q.         Q.
|-----------------------|------------------------|
|-----------------------|------------------------|
|------------9----------|-8----------9-----------|
|-9---------------------|------------------------|
|-----------------------|------------------------|
|-----------------------|------------------------|
|
| E  S S S S E  S S S S   E  S S S S E  S S S S
|-----------------------|------------------------|
|-----------------------|------------------------|
|-8--8-8-8-8-8--8-8-8-8-|-8--8-8-8-8-8--8-8-8-8--|
|-9--9-9-9-9-9--9-9-9-9-|-9--9-9-9-9-9--9-9-9-9--|
|-9--9-9-9-9-9--9-9-9-9-|-9--9-9-9-9-9--9-9-9-9--|
|-7--7-7-7-7-7--7-7-7-7-|-7--7-7-7-7-7--7-7-7-7--|


                     ~~~~~~~~~~~~~~~~~
           |---3---|
   E  E    S  S    S Q.           +Q.          E  E   E
|-------------------------------|-------------------------|
|-------------------------------|-------------------------|
|-12-11---11-12---11-9----------|-(9)---------12-11---9---|
|-------------------------------|-------------------------|
|-------------------------------|-------------------------|
|-------------------------------|-------------------------|
|
|  E  S S  S    S    E  S S S S    E  S S S S  E  S S S S
|-------------------------------|-------------------------|
|--8--8-8--8----8----8--8-8-8-8-|--8--8-8-8-8--8--8-8-8-8-|
|--9--9-9--9----9----9--9-9-9-9-|--9--9-9-9-9--9--9-9-9-9-|
|--9--9-9--9----9----9--9-9-9-9-|--9--9-9-9-9--9--9-9-9-9-|
|--7--7-7--7----7----7--7-7-7-7-|--7--7-7-7-7--7--7-7-7-7-|
|-------------------------------|-------------------------|


  ~~~~~~~~~~~~~~~~~~~~~~~~~~~
  H.                     +Q.         Q     E
|----------------------|-------------------------|
|----------------------|-------------------------|
|----------------------|-------------------------|
|-7--------------------|-(7)---------5-----7-----|
|----------------------|-------------------------|
|----------------------|-------------------------|
|
| E  S S S S E S S S S    E  S S S S E S S S S
|----------------------|-------------------------|
|----------------------|-------------------------|
|-5--5-5-5-5-5-5-5-5-5-|--5--5-5-5-5-5-5-5-5-5---|
|-7--7-7-7-7-7-7-7-7-7-|--7--7-7-7-7-7-7-7-7-7---|
|-7--7-7-7-7-7-7-7-7-7-|--7--7-7-7-7-7-7-7-7-7---|
|-5--5-5-5-5-5-5-5-5-5-|--5--5-5-5-5-5-5-5-5-5---|


                                              H=H
        ~~~~~~~~~~~~~~~~~~~~                    ~~~~~~~~~~~~~~~~~~~~~~~~~~
  E E   H               +Q.         Q     E     Q.     Q.       Q.     Q.
|---------------------|-----------------------|---------------|---------------||
|---------------------|-----------------------|---------------|---------------||
|---------------------|-----------------------|--------9------|-8------9------||
|-9-7---9-------------|-(9)---------7-----9---|-9-------------|---------------||
|---------------------|-----------------------|---------------|---------------||
|---------------------|-----------------------|---------------|---------------||
|
| E S S S S E S S S S    E  S S S S E S S S S   E  E E E  E E   E  E E E  E E
|---------------------|-----------------------|---------------|---------------||
|---------------------|-----------------------|---------------|---------------||
|-4-4-4-4-4-4-4-4-4-4-|--4--4-4-4-4-4-4-4-4-4-|---------------|-8--8-8-8--8-8-||
|-5-5-5-5-5-5-5-5-5-5-|--5--5-5-5-5-5-5-5-5-5-|-9--9-9-9--9-9-|-9--9-9-9--9-9-||
|-5-5-5-5-5-5-5-5-5-5-|--5--5-5-5-5-5-5-5-5-5-|-9--9-9-9--9-9-|-9--9-9-9--9-9-||
|-3-3-3-3-3-3-3-3-3-3-|--3--3-3-3-3-3-3-3-3-3-|-7--7-7-7--7-7-|-7--7-7-7--7-7-||


  Q=125
   E E  E Q.       +H        E E    H.             +Q.     Q.
|----------------|---------------|---------------|----------------|
|-10-9-10--------|---------------|---------------|----------------|
|---------6------|-(6)-------2-4-|-/6------------|-(6)------------|
|----------------|---------------|---------------|---------7------|
|----------------|---------------|---------------|----------------|
|----------------|---------------|---------------|----------------|
|
| Gtr I
|  E E  E E  E E    E  E E E E E    E  E E E E E    E  E E E  E E
|----------------|---------------|---------------|----------------|
|----------------|---------------|---------------|----------------|
|----------------|--4--4-4-4-4-4-|--6--6-6-6-6-6-|--6--6-6--------|
|--4-4--4-4--4-4-|--4--4-4-4-4-4-|--6--6-6-6-6-6-|--6--6-6--------|
|--4-4--4-4--4-4-|--2--2-2-2-2-2-|--4--4-4-4-4-4-|--4--4-4--------|
|--2-2--2-2--2-2-|---------------|---------------|---------5--5-5-|


                                                   ~~
   E E  E Q.       +H        E E    H.             H.
|----------------|---------------|---------------|--------------|
|-10-9-10--------|---------------|---------------|-6------------|
|---------6------|-(6)-------2-4-|-/6------------|--------------|
|----------------|---------------|---------------|--------------|
|----------------|---------------|---------------|--------------|
|----------------|---------------|---------------|--------------|
|
|  E E  E E  E E    E  E E E E E    E  E E E E E   E  E E E E E
|----------------|---------------|---------------|--------------|
|----------------|---------------|---------------|--------------|
|----------------|--4--4-4-4-4-4-|--6--6-6-6-6-6-|-6--6-6-------|
|--4-4--4-4--4-4-|--4--4-4-4-4-4-|--6--6-6-6-6-6-|-6--6-6-------|
|--4-4--4-4--4-4-|--2--2-2-2-2-2-|--4--4-4-4-4-4-|-4--4-4-------|
|--2-2--2-2--2-2-|---------------|---------------|--------5-5-5-|


     |-3--|
   E S  S S E Q.       E E E E E E    H.             +H.
|--------------------|-------------|---------------|---------------|
|-10-9-10-9-7--------|-------------|---------------|---------------|
|-------------6------|---------2-4-|-/6------------|-(6)-----------|
|--------------------|-9-9-9-9-----|---------------|---------------|
|--------------------|-------------|---------------|---------------|
|--------------------|-------------|---------------|---------------|
|
|  E E      E E  E E   E E E E E E    E  E E E E E    E  E E E E E
|--------------------|-------------|---------------|---------------|
|--------------------|-------------|---------------|---------------|
|--------------------|-4-4-4-4-4-4-|--6--6-6-6-6-6-|--6--6-6-------|
|--4-4------4-4--4-4-|-4-4-4-4-4-4-|--6--6-6-6-6-6-|--6--6-6-------|
|--4-4------4-4--4-4-|-2-2-2-2-2-2-|--4--4-4-4-4-4-|--4--4-4-------|
|--2-2------2-2--2-2-|-------------|---------------|---------5-5-5-|


                                                      ~~~
     |-3--|
   E S  S S E Q.       E E E E E E    H.              H.
|--------------------|-------------|---------------|---------------||
|-10-9-10-9-7--------|-------------|---------------|---------------||
|-------------6------|---------2-4-|-/6------------|-[6]-----------||
|--------------------|-9-9-9-9-----|---------------|---------------||
|--------------------|-------------|---------------|---------------||
|--------------------|-------------|---------------|---------------||
|
|  E E      E E  E E   E E E E E E    E  E E E E E    E  E E E E E
|--------------------|-------------|---------------|---------------||
|--------------------|-------------|---------------|---------------||
|--------------------|-4-4-4-4-4-4-|--6--6-6-6-6-6-|--6--6-6-------||
|--4-4------4-4--4-4-|-4-4-4-4-4-4-|--6--6-6-6-6-6-|--6--6-6-------||
|--4-4------4-4--4-4-|-2-2-2-2-2-2-|--4--4-4-4-4-4-|--4--4-4-------||
|--2-2------2-2--2-2-|-------------|---------------|---------5-5-5-||


   ~~~~~~~~~~~~~~~~~~~~~~~~~~~~~~~~~~~~~~~~~~~~~~~~~~~~~~~
   Q.            Q.              Q.            Q.
|-----------------------------|--------------------------|
|-17------------17------------|-17------------17---------|
|-19b21---------19b21---------|-19b21---------19b21------|
|-----------------------------|--------------------------|
|-----------------------------|--------------------------|
|-----------------------------|--------------------------|
|
| Gtr II
|  E    S S S S  E    S S S S    E    S S S S  E     E E
|-----------------------------|--------------------------|
|-----------------------------|--------------------------|
|--9-------------9------------|--9-------------9----11-9-|
|--9-------------9------------|--9-----------------------|
|--7-------------7------------|--7-------------7-----9-7-|
|--0----0-0-0-0--0----0-0-0-0-|--0----0-0-0-0------------|


 ~~~~~~~~~~~~~~~~~~~~~~~~~~~~~~~~~~~~~~~~~~~~~~~~~~~~~~~~~~~~~~
   Q.              Q.                Q.                   Q.
|---------------------------------|----------------------------------------|
|-17--------------17--------------|-17-------------------17----------------|
|-19b21-----------19b21-----------|-19b21----------------19b21-------------|
|---------------------------------|----------------------------------------|
|---------------------------------|----------------------------------------|
|---------------------------------|----------------------------------------|
|
|  S    S S S S S  S    S S S S S    S     S  S  S  S  S  S    S S S S S
|---------------------------------|----------------------------------------|
|---------------------------------|----------------------------------------|
|--8----8-8-8-8-8-----------------|----------------------------------------|
|------------------9----9-9-9-9-9-|-10----10-10-10-10-10--5----5-5-5-5-5---|
|--6----6-6-6-6-6-----------------|----------------------------------------|
|------------------7----7-7-7-7-7-|--8-----8--8--8--8--8--3----3-3-3-3-3---|


                         ~~                                    ~~~~~~~~~~~
                                           |--3--|
   S      S  S  S  S  S  Q      +E         S  S  S  E    E     Q.
|---------------------------------------|--------------------------------|
|---------------------------------------|-13-15-13-12---12----12---------|
|-14b16==14-14-14-14-14-14-----(14)r\---|---------------------14b16------|
|---------------------------------------|--------------------------------|
|---------------------------------------|--------------------------------|
|---------------------------------------|--------------------------------|
|
|  E         S  S  S  S  E S S   S    S    E        S S  S S   E     E E
|---------------------------------------|--------------------------------|
|---------------------------------------|--------------------------------|
|--9---------------------9--------------|--9-----------------/12----11-9-|
|--9---------------------9--------------|--9-----------------------------|
|--7---------------------7--------------|--7-----------------/10-----9-7-|
|--0---------0--0--0--0--0-0-0---0----0-|--0--------0-0--0-0-------------|


 ~~~~~~~~~~~~~~~~~~~~~~~~~~~~~~~~~~~~~~~~~~~~~~~~~~~~~~~~~~~~~~
   Q.              Q.                Q.                   Q.
|---------------------------------|-10-------------------10----------------|
|-12--------------12--------------|-13b15----------------13b15-------------|
|-14b16-----------14b16-----------|----------------------------------------|
|---------------------------------|----------------------------------------|
|---------------------------------|----------------------------------------|
|---------------------------------|----------------------------------------|
|
|  S    S S S S S  S    S S S S S    S     S  S  S  S  S  S    S S S S S
|---------------------------------|----------------------------------------|
|---------------------------------|----------------------------------------|
|--8----8-8-8-8-8-----------------|-----------------------8----8-8-8-8-8---|
|------------------9----9-9-9-9-9-|-10----10-10-10-10-10-------------------|
|--6----6-6-6-6-6-----------------|-----------------------6----6-6-6-6-6---|
|------------------7----7-7-7-7-7-|--8-----8--8--8--8--8-------------------|


   ~~~~~~~~~~~~~~~~~~~~~~~~~~~~~~~~~~~~~~~~~~~~~~~~~~~~~~~
   Q.            Q.              Q.            Q.
|-----------------------------|--------------------------|
|-12------------12------------|-12------------12---------|
|-14b16---------14b16---------|-14b16---------14b16------|
|-----------------------------|--------------------------|
|-----------------------------|--------------------------|
|-----------------------------|--------------------------|
|
|  E    S S S S  E    S S S S    E    S S S S  E     E E
|-----------------------------|--------------------------|
|-----------------------------|--------------------------|
|--9-------------9------------|--9-------------9----11-9-|
|--9-------------9------------|--9-----------------------|
|--7-------------7------------|--7-------------7-----9-7-|
|--0----0-0-0-0--0----0-0-0-0-|--0----0-0-0-0------------|


 ~~~~~~~~~~~~~~~~~~~~~~~~~~~~~~~~~~~~~~~~~~~~~~~~~~~~~~~~~~~~~~
   Q.              Q.                Q.                   Q.
|---------------------------------|----------------------------------------|
|-12--------------12--------------|-12-------------------12----------------|
|-14b16-----------14b16-----------|-14b16----------------14b16-------------|
|---------------------------------|----------------------------------------|
|---------------------------------|----------------------------------------|
|---------------------------------|----------------------------------------|
|
|  S    S S S S S  S    S S S S S    S     S  S  S  S  S  S    S S S S S
|---------------------------------|----------------------------------------|
|---------------------------------|----------------------------------------|
|--8----8-8-8-8-8-----------------|----------------------------------------|
|------------------9----9-9-9-9-9-|-10----10-10-10-10-10--5----5-5-5-5-5---|
|--6----6-6-6-6-6-----------------|----------------------------------------|
|------------------7----7-7-7-7-7-|--8-----8--8--8--8--8--3----3-3-3-3-3---|


   Q.            Q.              Q.             Q.
|-12------------14------------|-15-------------17---------|
|-15b17---------17b19---------|-18b20----------20b22------|
|-----------------------------|---------------------------|
|-----------------------------|---------------------------|
|-----------------------------|---------------------------|
|-----------------------------|---------------------------|
|
|  E    S S S S  E    S S S S    E    S S S S   E     E E
|-----------------------------|---------------------------|
|-----------------------------|---------------------------|
|--9-------------9------------|--9------------/12----11-9-|
|--9-------------9------------|--9------------------------|
|--7-------------7------------|--7------------/10-----9-7-|
|--0----0-0-0-0--0----0-0-0-0-|--0----0-0-0-0-------------|


   Q.              Q.                Q.                   Q.
|-19--------------19--------------|-19-------------------19----------------|
|-22b24-----------22b24-----------|-22b24----------------22b24-------------|
|---------------------------------|----------------------------------------|
|---------------------------------|----------------------------------------|
|---------------------------------|----------------------------------------|
|---------------------------------|----------------------------------------|
|
|  S    S S S S S  S    S S S S S    S     S  S  S  S  S  S    S S S S S
|---------------------------------|----------------------------------------|
|---------------------------------|----------------------------------------|
|--8----8-8-8-8-8-----------------|-----------------------8----8-8-8-8-8---|
|------------------9----9-9-9-9-9-|-10----10-10-10-10-10-------------------|
|--6----6-6-6-6-6-----------------|-----------------------6----6-6-6-6-6---|
|------------------7----7-7-7-7-7-|--8-----8--8--8--8--8-------------------|


   >
   H.            +H.         +H.         W
|-19----------|-(19)------|-(19)------|--------*|
|-22b24=======|=(22)------|-(22)------|--------*|
|-------------|-----------|-----------|--------*|
|-------------|-----------|-----------|--------*|
|-------------|-----------|-----------|--------*|
|-------------|-----------|-----------|--------*|
|
|  >
|  H.            +H.         +H.        +H.
|-------------|-----------|-----------|--------*|
|-------------|-----------|-----------|--------*|
|-------------|-----------|-----------|--------*|
|--2----------|--(2)------|--(2)------|-(2)----*|
|--2----------|--(2)------|--(2)------|-(2)----*|
|--0----------|--(0)------|--(0)------|-(0)----*|




--------------------------------------------------------------------------------


Duration Legend
---------------
W - whole; H - half; Q - quarter; E - 8th; S - 16th; T - 32nd; X - 64th; a - acciaccatura
+ - note tied to previous; . - note dotted; .. - note double dotted
Uncapitalized letters represent notes that are staccato (1/2 duration)
Irregular groupings are notated above the duration line
Duration letters will always appear directly above the note/fret number it represents the
duration for.  Duration letters with no fret number below them represent rests.  Multi-
bar rests are notated in the form Wxn, where n is the number of bars to rest for.  Low
melody durations appear below the staff

Tablature Legend
----------------
 h   - hammer-on
 p   - pull-off
 b   - bend
 pb  - pre-bend
 r   - bend release (if no number after the r, then release immediately)
 /\  - slide into or out of (from/to "nowhere")
 s   - legato slide
 S   - shift slide
<n> - natural harmonic
[n]  - artificial harmonic
n(n) - tapped harmonic
 ~   - vibrato
 tr  - trill
 T   - tap
 TP  - trem. picking
 PM  - palm muting
\n/  - tremolo bar dip; n = amount to dip
 \n  - tremolo bar down
 n/  - tremolo bar up
/n\  - tremolo bar inverted dip
 =   - hold bend; also acts as connecting device for hammers/pulls
 <> - volume swell (louder/softer)
 x   - on rhythm slash represents muted slash
 o   - on rhythm slash represents single note slash

Misc Legend
-----------
 |  - bar
||  - double bar
||o - repeat start
o|| - repeat end
*|  - double bar (ending)
 :  - bar (freetime)
 $  - Segno
 &  - Coda
Tempo markers - <E/E./Q/Q./H/H.> = BPM(8/16=s8/s16), where s8 = swing 8ths, s16 = swing 16ths

comments
We did not receive enough feedback on this tab! Please rate:
print report bad tab
1 2 3 4 5
I want to post or [tab]
guest
You may want to rate the tab now too:
select rating
Please do not post tabs as comments. Select "correction" instead!