Oops, an error
Loading. Please wait.

Bondz Kitzuna Tab

7,597 views 1 this week
no commentswrite comment
1 2 3 4 5
worth learning
x 1
add to favorites launch autoscroll
font size
0
reset
Autoscroll
+/-
esc
set tempo
stop
Contributor
WARNING: You are trying to view
                                    content from Ultimate-Guitar.com
                                    in an unauthorized application,
                                    which is prohibited.

                                    Please use an official Ultimate
                                    Guitar Tabs application for iPhone,
                                    iPad or Android to access legitimate
                                    chords, guitar, bass, and drum tabs
                                    from Ultimate-Guitar.com database.

                                    Type "ultimate guitar tabs" in Apple
                                    App Store's or Android Market's
                                    search to find the application.
Gah I spelled the name wrong. D: 

Oh well!

Here you go! ^_^

Rhythm and solo guitar are on the bottom 

Nyappy!

o(^-^)o


Intro -

Guitar 1                3 times
e|-------------------------|--------------------//5-3-----------------|
B|-------------------------|--------------------//5-3-----------------|
G|-5-5-------------5-------|------5-5---------------------------------|
D|-7-7-x-x-x-x-5h7-7-------|------7-7-x-x-x-x-------------------------|
A|-------------------------|------------------------------------------|
E|-------------------------|------------------------------------------|

                        1 time
e|-------------------------|---------8-7------------------------------|
B|-------------------------|-------------8-5--------------------------|
G|-5-5-------------5-------|-----------------7-5----------------------|
D|-7-7-x-x-x-x-5h7-7-------|---------------------7--------------------|
A|-------------------------|------------------------------------------|
E|-------------------------|------------------------------------------|

                        3 times
e|-------------------------|--------------------//5-3-----------------|
B|-------------------------|--------------------//5-3-----------------|
G|-5-5-------------5-------|------5-5---------------------------------|
D|-7-7-x-x-x-x-5h7-7-------|------7-7-x-x-x-x-------------------------|
A|-------------------------|------------------------------------------|
E|-------------------------|------------------------------------------|

                        1 time
e|-------------------------|------------------------------------------|
B|-------------------------|------------------------------------------|
G|-5-5-------------5-------|----9----7----5---------------------------|
D|-7-7-x-x-x-x-5h7-7-------|----9----7----5----5----------------------|
A|-------------------------|----7----5----3----5----------------------|
E|-------------------------|-------------------3----------------------|


Verse -

Guitar 1
e|----------------|---------------|--------------|---------------------|
B|----------------|---------------|--------------|---------------------|
G|----------------|---------------|--------------|-9--9--9--9\\--------|
D|---7~-----------|--(7)----------|--(7)---------|-9--9--9--9\\--------|
A|---7~-----------|--(7)----------|--(7)---------|-7--7--7--7\\--------|
E|---5~-----------|--(5)----------|--(5)---------|---------------------|


e|----------------|---------------|--------------|---------------------|
B|----------------|---------------|--------------|---------------------|
G|-5--------------|-5-------------|-5------------|-9--9--9--9\\--------|
D|-7--------------|-7-------------|-7------------|-9--9--9--9\\--------|
A|-7-x-x-x-x--xx--|-7-x-x-x-x--xx-|-7-x-x-x-x--xx|-7--7--7--7\\--------|
E|----------------|---------------|--------------|---------------------|


Bride-

Guitar 1
e|-----------------|-----------------|
B|-----------------|-----------------|
G|-----------------|-----------------|
D|-2-2-2-2-5-5-5-5-|-7-7-7-7-9-9-9-9-|
A|-0-0-0-0-3-3-3-3-|-5-5-5-5-7-7-7-7-|
E|-----------------|-----------------|

e|-----------------|------------------------|
B|-----------------|------------------------|
G|-----------------|------------------------|
D|-2-2-2-2-5-5-5-5-|-7-7-7-7--10-10-10-10---|
A|-0-0-0-0-3-3-3-3-|-5-5-5-5--8--8--8--8----|
E|-----------------|------------------------|

e|-----------------|-----------------|
B|-----------------|-----------------|
G|-----------------|-----------------|
D|-2-2-2-2-5-5-5-5-|-7-7-7-7-9-9-9-9-|
A|-0-0-0-0-3-3-3-3-|-5-5-5-5-7-7-7-7-|
E|-----------------|-----------------|

e|-----------------|-----------------|
B|-----------------|-----------------|
G|-----------------|-----------------|
D|-----------------|-----------------|
A|-7-7-7-7-5-5-5-5-|-3-5-3-2~--------|
E|-5-5-5-5-3-3-3-3-|-1-3-1-0~--------|


Verse-

Guitar 1
e|----------------|---------------|--------------|---------------------|
B|----------------|---------------|--------------|---------------------|
G|-5--------------|-5-------------|-5------------|-9--9--9--9\\--------|
D|-7--------------|-7-------------|-7------------|-9--9--9--9\\--------|
A|-7-x-x-x-x--xx--|-7-x-x-x-x--xx-|-7-x-x-x-x--xx|-7--7--7--7\\--------|
E|----------------|---------------|--------------|---------------------|

e|----------------|---------------|--------------|---------------------|
B|----------------|---------------|--------------|---------------------|
G|-5--------------|-5-------------|-5------------|-9--9--9--9\\--------|
D|-7--------------|-7-------------|-7------------|-9--9--9--9\\--------|
A|-7-x-x-x-x--xx--|-7-x-x-x-x--xx-|-7-x-x-x-x--xx|-7--7--7--7\\--------|
E|----------------|---------------|--------------|---------------------|

Pre Chorus -

Guitar 1
e|----------------|----------------|--------------|---------------------|
B|---1----1-------|---1-----3------|---1----1-----|---3----1------------|
G|--2----2-2------|--------4-4-----|--2----2-2----|--4----2-2-----------|
D|-2---3----------|--2---5---------|-2---3--------|-5---3---------------|
A|----------------|-3--------------|--------------|---------------------|
E|----------------|----------------|--------------|---------------------|

e|----------------|----------------|--------------|----------------------|
B|---1----1-------|---1-----3------|---1----1-----|----------------------|
G|--2----2-2------|--------4-4-----|--2----2-2----|10-------10-------12\\|
D|-2---3----------|--2---5---------|-2---3--------|10-10-10-10-10-10-12\\|
A|----------------|-3--------------|--------------|-8--8--8--8--8--8-10\\|
E|----------------|----------------|--------------|----------------------|
PM                                                     •  •     •  •


Chorus -

Guitar 1                         2 times
e|----------------|-----------------|--------------|---------------------|
B|----------------|-----------------|--------------|---------------------|
G|----------------|-----------------|--------------|---------------------|
D|--7--5--3-------|-5------7--------|-7--5--3------|-5------3------------|
A|--7--5--3-------|-5------7--------|-7--5--3------|-5------3------------|
E|--5--3--1--x-x--|-3--x-x-5--x-x---|-5--3--1--x-x-|-3--x-x-1--x-x-------|

e|----------------|----------------|--------------|---------------------|
B|----------------|----------------|--------------|---------------------|
G|----------------|----------------|--------------|-7~------------------|
D|-3~-------------|-5~-------------|-7~-----------|-7~------------------|
A|-3~-------------|-5~-------------|-7~-----------|-5~------------------|
E|-1~-------------|-3~-------------|-5~-----------|---------------------|

e|----------------|----------------|--------------|---------------------|
B|----------------|----------------|--------------|---------------------|
G|----------------|----------------|--------------|---------------------|
D|-3~-------------|-5~-------------|-7~-----------|--7~\\---------------|
A|-3~-------------|-5~-------------|-7~-----------|--7~\\---------------|
E|-1~-------------|-3~-------------|-5~-----------|--5~\\---------------|


Bridge -

Guitar 1                4 times
e|-------------------------|--------------------//5-3-----------------|
B|-------------------------|--------------------//5-3-----------------|
G|-5-5-------------5-------|------5-5---------------------------------|
D|-7-7-x-x-x-x-5h7-7-------|------7-7-x-x-x-x-------------------------|
A|-------------------------|------------------------------------------|
E|-------------------------|------------------------------------------|


Verse -

Guitar 1                       2 times
e|----------------|---------------|--------------|---------------------|
B|----------------|---------------|--------------|---------------------|
G|-5--------------|-5-------------|-5------------|-9--9--9--9\\--------|
D|-7--------------|-7-------------|-7------------|-9--9--9--9\\--------|
A|-7-x-x-x-x--xx--|-7-x-x-x-x--xx-|-7-x-x-x-x--xx|-7--7--7--7\\--------|
E|----------------|---------------|--------------|---------------------|


Pre Chorus -

Guitar 1
e|----------------|----------------|--------------|---------------------|
B|---1----1-------|---1-----3------|---1----1-----|---3----1------------|
G|--2----2-2------|--------4-4-----|--2----2-2----|--4----2-2-----------|
D|-2---3----------|--2---5---------|-2---3--------|-5---3---------------|
A|----------------|-3--------------|--------------|---------------------|
E|----------------|----------------|--------------|---------------------|

e|----------------|----------------|--------------|----------------------|
B|---1----1-------|---1-----3------|---1----1-----|----------------------|
G|--2----2-2------|--------4-4-----|--2----2-2----|10-------10-----------|
D|-2---3----------|--2---5---------|-2---3--------|10-10-10-10-10-10--3--|
A|----------------|-3--------------|--------------|-8--8--8--8--8--8--3--|
E|----------------|----------------|--------------|-------------------1--|
PM                                                     •  •     •  •


Chorus -

Guitar 1                         2 times
e|----------------|-----------------|--------------|---------------------|
B|----------------|-----------------|--------------|---------------------|
G|----------------|-----------------|--------------|---------------------|
D|--7--5--3-------|-5------7--------|-7--5--3------|-5------3------------|
A|--7--5--3-------|-5------7--------|-7--5--3------|-5------3------------|
E|--5--3--1--x-x--|-3--x-x-5--x-x---|-5--3--1--x-x-|-3--x-x-1--x-x-------|

e|----------------|----------------|--------------|---------------------|
B|----------------|----------------|--------------|---------------------|
G|----------------|----------------|--------------|-7~------------------|
D|-3~-------------|-5~-------------|-7~-----------|-7~------------------|
A|-3~-------------|-5~-------------|-7~-----------|-5~------------------|
E|-1~-------------|-3~-------------|-5~-----------|---------------------|

e|----------------|----------------|--------------|---------------------|
B|----------------|----------------|--------------|---------------------|
G|----------------|----------------|--------------|---------------------|
D|-3~-------------|-5~-------------|-7~-----------|--7--7--7--7\\-------|
A|-3~-------------|-5~-------------|-7~-----------|--7--7--7--7\\-------|
E|-1~-------------|-3~-------------|-5~-----------|--5--5--5--5\\-------|


Pre Solo -

Guitar 1
e|----------------|----------------|--------------|---------------------|
B|----------------|----------------|--------------|---------------------|
G|------T---------|------T---------|------T-------|----------T----------|
D|------S---------|------S---------|------S-------|----------S----------|
A|------E---------|------E---------|------E-------|----------E----------|
E|------R---------|------R---------|------R-------|----------R----------|

e|----------------|----------------|--------------|---------------------|
B|----------------|----------------|--------------|---------------------|
G|----7b9---------|------(9)-------|----(9)-------|--------9rb7---------|
D|----------------|----------------|--------------|---------------------|
A|----------------|----------------|--------------|---------------------|
E|----------------|----------------|--------------|---------------------|


Solo -

Guitar 1
e|----------------|----------------|--------------|---------------------|
B|----------------|----------------|--------------|---------------------|
G|----------5-----|---------7------|--------------|---------5-----------|
D|----5-5h7-------|----5-5h7-------|-----5--------|----5-5h7-7----------|
A|----------------|----------------|---7---7\\----|---------------------|
E|----------------|----------------|--------------|---------------------|
PM    •                •                               •

e|----------------|----------------|--------------|---------------------|
B|-------------7*-|----------------|--------------|---------------------|
G|----------7-5---|----------5-----|----------7---|---------------------|
D|-------5-7------|----5-5h7-------|----5-5h7-----|---------5-----------|
A|--7-7-5---------|----------------|--------------|-------7---7\\-------|
E|----------------|----------------|--------------|---------------------|
PM  • • •• •• •        •                •

e|----------------|----------------|
B|----------------|----------------|
G|---5-7-9-12-----|-14-12-9-7------|
D|----------------|----------------|
A|----------------|----------------|
E|----------------|----------------|
     T T T T         T  T T T


Interlude -

Guitar 1
e|----------------|----------------|--------------|---------------------|
B|----------------|----------------|--------------|---------------------|
G|--5~------------|----(5)---------|-5------------|---------------------|
D|----------------|----------------|-5-5-5-5-5-5-5|-5-5-5-5-5-5-5-5-----|
A|----------------|----------------|-3-3-3-3-3-3-3|-3-3-3-3-3-3-3-3-----|
E|----------------|----------------|--------------|---------------------|
PM                                     • • • • • •  • • • • • • • •

e|----------------|----------------|----------------|---------------------|
B|----------------|----------------|----------------|---------------------|
G|----------------|----------------|----------------|---------------------|
D|-5--------------|----------------|----------------|---------------------|
A|-5-5-5-5-5-5-5--|-5-5-5-5-5-5-5--|-7-7-7-7-7-7-7-7|-7-7-7-7-7-7-7-7-----|
E|-3-3-3-3-3-3-3--|-3-3-3-3-3-3-3--|-5-5-5-5-5-5-5-5|-5-5-5-5-5-5-5-5-----|
PM   • • • • • •  • • • • • • • •    • • • • • •  • • • • • • • • • •

e|---------------|-----------------|--------------|---------------------|
B|---------------|-----------------|--------------|---------------------|
G|---------------|-----------------|-5------------|---------------------|
D|-7-------------|-----------------|-5-5-5-5-5-5-5|-5-5-5-5-5-5-5-5-----|
A|-7-7-7-7-7-7-7-|-7-7-7-7-7-7-7-7-|-3-3-3-3-3-3-3|-3-3-3-3-3-3-3-3-----|
E|-5-5-5-5-5-5-5-|-5-5-5-5-5-5-5-5-|--------------|---------------------|
PM   • • • • • •   • • • • • • • •     • • • • • •  • • • • • • • •


e|----------------|----------------|----------------|---------------------|
B|----------------|----------------|----------------|---------------------|
G|----------------|----------------|----------------|---------------------|
D|-5--------------|----------------|----------------|---------------------|
A|-5-5-5-5-5-5-5--|-5-5-5-5-5-5-5--|-7-7-7-7-7-7-7-7|-7-7-7-7-7-7-7-7-----|
E|-3-3-3-3-3-3-3--|-3-3-3-3-3-3-3--|-5-5-5-5-5-5-5-5|-5-5-5-5-5-5-5-5-----|
PM   • • • • • •  • • • • • • • •    • • • • • •  • • • • • • • • • •


Pre Chorus -

Guitar 1                         2 times
e|----------------|----------------|--------------|---------------------|
B|---1----1-------|---1-----3------|---1----1-----|---3----1------------|
G|--2----2-2------|--------4-4-----|--2----2-2----|--4----2-2-----------|
D|-2---3----------|--2---5---------|-2---3--------|-5---3---------------|
A|----------------|-3--------------|--------------|---------------------|
E|----------------|----------------|--------------|---------------------|

e|----------------|
B|----------------|
G|----------------|
D|------------3-3-|
A|3-3-3-3-3-3-3-3-|
E|1-1-1-1-1-1-1-1-|
PM  • •   • •


Chorus -

Guitar 1                         2 times
e|----------------|-----------------|--------------|---------------------|
B|----------------|-----------------|--------------|---------------------|
G|----------------|-----------------|--------------|---------------------|
D|--7--5--3-------|-5------7--------|-7--5--3------|-5------3------------|
A|--7--5--3-------|-5------7--------|-7--5--3------|-5------3------------|
E|--5--3--1--x-x--|-3--x-x-5--x-x---|-5--3--1--x-x-|-3--x-x-1--x-x-------|

e|----------------|----------------|--------------|---------------------|
B|----------------|----------------|--------------|---------------------|
G|----------------|----------------|--------------|-7~------------------|
D|-3~-------------|-5~-------------|-7~-----------|-7~------------------|
A|-3~-------------|-5~-------------|-7~-----------|-5~------------------|
E|-1~-------------|-3~-------------|-5~-----------|---------------------|

e|----------------|----------------|--------------|---------------------|
B|----------------|----------------|--------------|---------------------|
G|----------------|----------------|--------------|---------------------|
D|-3~-------------|-5~-------------|-7~-----------|--7~\\---------------|
A|-3~-------------|-5~-------------|-7~-----------|--7~\\---------------|
E|-1~-------------|-3~-------------|-5~-----------|--5~\\---------------|


Outro -

Guitar 1                16 times
e|-------------------------|--------------------//5-3-----------------|
B|-------------------------|--------------------//5-3-----------------|
G|-5-5-------------5-------|------5-5---------------------------------|
D|-7-7-x-x-x-x-5h7-7-------|------7-7-x-x-x-x-------------------------|
A|-------------------------|------------------------------------------|
E|-------------------------|------------------------------------------|



****************************RHYTHM GUITAR************************************

Intro -

Guitar 2                         3 times
e|----------------|----------------|--------------|---------------------|
B|----------------|----------------|--------------|---------------------|
G|----------------|----------------|--------------|-7~------------------|
D|-3~-------------|-5~-------------|-7~-----------|-7~------------------|
A|-3~-------------|-5~-------------|-7~-----------|-5~------------------|
E|-1~-------------|-3~-------------|-5~-----------|---------------------|

e|-------------------|
B|-------------------|
G|-9--7--5-----------|
D|-9--7--5--5--------|
A|-7--5--3--5--------|
E|----------3--------|


Verse

Bridge

Verse

Pre Chorus -

Guitar 2
e|----------------|----------------|--------------|---------------------|
B|----------------|----------------|--------------|---------------------|
G|----------------|----------------|--------------|---------------------|
D|-----5-5--------|----------------|------5-5-----|--7------------------|
A|-7---3-3--------|-3----5-5-------|--7---3-3-----|--5---3-3------------|
E|-5-x------x-----|-1--x-3-3--x----|--5-x-----x---|----x-1-1------------|

e|----------------|----------------|--------------|----------------------|
B|----------------|----------------|--------------|----------------------|
G|----------------|----------------|--------------|10-------10-------12\\|
D|-----5-5--------|----------------|------5-5-----|10-10-10-10-10-10-12\\|
A|-7---3-3--------|-3----5-5-------|--7---3-3-----|-8--8--8--8--8--8-10\\|
E|-5-x------x-----|-1--x-3-3--x----|--5-x-----x---|----------------------|
PM                                                     •  •     •  •


Chorus.

Bridge -

Guitar2                          2 times
e|----------------|----------------|--------------|---------------------|
B|----------------|----------------|--------------|---------------------|
G|----------------|----------------|--------------|-7~------------------|
D|-3~-------------|-5~-------------|-7~-----------|-7~------------------|
A|-3~-------------|-5~-------------|-7~-----------|-5~------------------|
E|-1~-------------|-3~-------------|-5~-----------|---------------------|


Verse.


Pre Chorus -

Guitar 2
e|----------------|----------------|--------------|---------------------|
B|----------------|----------------|--------------|---------------------|
G|----------------|----------------|--------------|---------------------|
D|-----5-5--------|----------------|------5-5-----|--7------------------|
A|-7---3-3--------|-3----5-5-------|--7---3-3-----|--5---3-3------------|
E|-5-x------x-----|-1--x-3-3--x----|--5-x-----x---|----x-1-1------------|

e|----------------|----------------|--------------|----------------------|
B|----------------|----------------|--------------|----------------------|
G|----------------|----------------|--------------|10-------10-----------|
D|-----5-5--------|----------------|------5-5-----|10-10-10-10-10-10--3--|
A|-7---3-3--------|-3----5-5-------|--7---3-3-----|-8--8--8--8--8--8--3--|
E|-5-x------x-----|-1--x-3-3--x----|--5-x-----x---|-------------------1--|
PM                                                     •  •     •  •


Chorus.

Pre Solo -

Guitar 2
e|-----------------|-----------------|
B|-----------------|-----------------|
G|-----------------|-----------------|
D|-2-2-2-2-5-5-5-5-|-7-7-7-7-9-9-9-9-|    \
A|-0-0-0-0-3-3-3-3-|-5-5-5-5-7-7-7-7-|     \
E|-----------------|-----------------|      \
                                             \
e|-----------------|---------------------------------- / \
B|-----------------|---------------------------------- /  \
G|-----------------|---------------------------------- /   \
D|-2-2-2-2-5-5-5-5-|-7-7-7-7--10-10-10-10------------- /    \
A|-0-0-0-0-3-3-3-3-|-5-5-5-5--8--8--8--8----|  ------- /     2 times
E|-----------------|------------------------| -------- /
                                              /
e|-----------------|-----------------|      -- /
B|-----------------|-----------------|     --- /
G|-----------------|-----------------|    ---- /
D|-2-2-2-2-5-5-5-5-|-7-7-7-7-9-9-9-9-|   ----- /
A|-0-0-0-0-3-3-3-3-|-5-5-5-5-7-7-7-7-|  ------ /
E|-----------------|-----------------| ------- /


Solo -

Guitar 2
e|-----------------|-----------------|
B|-----------------|-----------------|
G|-----------------|-----------------|
D|-2-2-2-2-5-5-5-5-|-7-7-7-7-9-9-9-9-|    \
A|-0-0-0-0-3-3-3-3-|-5-5-5-5-7-7-7-7-|     \
E|-----------------|-----------------|      \
                                             \
e|-----------------|---------------------------------- / \
B|-----------------|---------------------------------- /  \
G|-----------------|---------------------------------- /   \
D|-2-2-2-2-5-5-5-5-|-7-7-7-7--10-10-10-10------------- /    \
A|-0-0-0-0-3-3-3-3-|-5-5-5-5--8--8--8--8----|  ------- /     2 times
E|-----------------|------------------------| -------- /
                                              /
e|-----------------|-----------------|      -- /
B|-----------------|-----------------|     --- /
G|-----------------|-----------------|    ---- /
D|-2-2-2-2-5-5-5-5-|-7-7-7-7-9-9-9-9-|   ----- /
A|-0-0-0-0-3-3-3-3-|-5-5-5-5-7-7-7-7-|  ------ /
E|-----------------|-----------------| ------- /

Interlude -

Guitar 1
e|----------------|----------------|--------------|---------------------|
B|----------------|----------------|--------------|---------------------|
G|----------------|----------------|-5------------|---------------------|
D|----------------|----------------|-5-5-5-5-5-5-5|-5-5-5-5-5-5-5-5-----|
A|-7-7-7-7-7-7-7-7|-7-7-7-7-7-7-7-7|-3-3-3-3-3-3-3|-3-3-3-3-3-3-3-3-----|
E|-5-5-5-5-5-5-5-5|-5-5-5-5-5-5-5-5|--------------|---------------------|
PM • • • • • • • •  • • • • • • • •    • • • • • •  • • • • • • • •

e|----------------|----------------|----------------|---------------------|
B|----------------|----------------|----------------|---------------------|
G|----------------|----------------|----------------|---------------------|
D|-5--------------|----------------|----------------|---------------------|
A|-5-5-5-5-5-5-5--|-5-5-5-5-5-5-5--|-7-7-7-7-7-7-7-7|-7-7-7-7-7-7-7-7-----|
E|-3-3-3-3-3-3-3--|-3-3-3-3-3-3-3--|-5-5-5-5-5-5-5-5|-5-5-5-5-5-5-5-5-----|
PM   • • • • • •  • • • • • • • •    • • • • • •  • • • • • • • • • •

e|---------------|-----------------|--------------|---------------------|
B|---------------|-----------------|--------------|---------------------|
G|---------------|-----------------|-5------------|---------------------|
D|-7-------------|-----------------|-5-5-5-5-5-5-5|-5-5-5-5-5-5-5-5-----|
A|-7-7-7-7-7-7-7-|-7-7-7-7-7-7-7-7-|-3-3-3-3-3-3-3|-3-3-3-3-3-3-3-3-----|
E|-5-5-5-5-5-5-5-|-5-5-5-5-5-5-5-5-|--------------|---------------------|
PM   • • • • • •   • • • • • • • •     • • • • • •  • • • • • • • •


e|----------------|----------------|----------------|---------------------|
B|----------------|----------------|----------------|---------------------|
G|----------------|----------------|----------------|---------------------|
D|-5--------------|----------------|----------------|---------------------|
A|-5-5-5-5-5-5-5--|-5-5-5-5-5-5-5--|-7-7-7-7-7-7-7-7|-7-7-7-7-7-7-7-7-----|
E|-3-3-3-3-3-3-3--|-3-3-3-3-3-3-3--|-5-5-5-5-5-5-5-5|-5-5-5-5-5-5-5-5-----|
PM   • • • • • •  • • • • • • • •    • • • • • •  • • • • • • • • • •


Pre Chorus -

Guitar 2
e|----------------|----------------|--------------|---------------------|
B|----------------|----------------|--------------|---------------------|
G|----------------|----------------|--------------|---------------------|
D|-----5-5--------|----------------|------5-5-----|--7------------------|
A|-7---3-3--------|-3----5-5-------|--7---3-3-----|--5---3-3------------|
E|-5-x------x-----|-1--x-3-3--x----|--5-x-----x---|----x-1-1------------|

e|----------------|----------------|--------------|---------------------|
B|----------------|----------------|--------------|---------------------|
G|----------------|----------------|--------------|---------------------|
D|-----5-5--------|----------------|------5-5-----|--7------------------|
A|-7---3-3--------|-3----5-5-------|--7---3-3-----|--5---3-3------------|
E|-5-x------x-----|-1--x-3-3--x----|--5-x-----x---|----x-1-1------------|

e|----------------|
B|----------------|
G|----------------|
D|------------3-3-|
A|3-3-3-3-3-3-3-3-|
E|1-1-1-1-1-1-1-1-|
PM  • •   • •


Chorus.


Outro -

Guitar 2                         16 times
e|----------------|----------------|--------------|---------------------|
B|----------------|----------------|--------------|---------------------|
G|----------------|----------------|--------------|-7~------------------|
D|-3~-------------|-5~-------------|-7~-----------|-7~------------------|
A|-3~-------------|-5~-------------|-7~-----------|-5~------------------|
E|-1~-------------|-3~-------------|-5~-----------|---------------------|

Final Chord -

Guitar 2
e|----------------|
B|----------------|
G|------5~--------|
D|------7~--------|
A|------7~--------|
E|----------------|

*******************************INTRO SOLO************************************
e|---------12-12--|--10-10---------|--------------|---------------------|
B|-10-------------|------------8-8-|-10--8-10-12--|-13-12-10----8-8-8---|
G|----------------|----------------|--------------|---------------------|
D|----------------|----------------|--------------|---------------------|
A|----------------|----------------|--------------|---------------------|
E|----------------|----------------|--------------|---------------------|

e|---------12-12--|--10-10---------|--------------|---------------------|
B|-10-------------|-------------8--|-10-----------|---------------------|
G|----------------|----------------|--------------|---------------------|
D|----------------|----------------|--------------|---------------------|
A|----------------|----------------|--------------|---------------------|
E|----------------|----------------|--------------|---------------------|


***************************OUTRO SOLO****************************************
e|---------12-12--|--10-10---------|--------------|---------------------|
B|-10-------------|------------8-8-|-10--8-10-12--|-13-12-10----8-8-8---|
G|----------------|----------------|--------------|---------------------|
D|----------------|----------------|--------------|---------------------|
A|----------------|----------------|--------------|---------------------|
E|----------------|----------------|--------------|---------------------|

e|---------12-12--|--10-10---------|--------------|-12--10----8--7------|
B|-10-------------|-------------8--|-10-----------|---------------------|
G|----------------|----------------|--------------|---------------------|
D|----------------|----------------|--------------|---------------------|
A|----------------|----------------|--------------|---------------------|
E|----------------|----------------|--------------|---------------------|

e|--------15------|----------------|----------------|---------------------|
B|-12-13----------|-12-13--15---17-|-15h17p15-13-12-|-12-13--12-12--------|
G|----------------|----------------|----------------|---------------------|
D|----------------|----------------|----------------|---------------------|
A|----------------|----------------|----------------|---------------------|
E|----------------|----------------|----------------|---------------------|

e|----------------|----------------|--------------|---------------------|
B|-12-13-12-10----|----------------|--------------|---------------------|
G|----------------|--7b9---7-------|--5-----5-----|----7-5--------------|
D|----------------|----------------|----5h7-------|--------5-7----------|
A|----------------|----------------|--------------|---------------------|
E|----------------|----------------|--------------|---------------------|

e|----------------|-----12-----12--|---12-10--8-7-|---5--7-8------------|
B|----------------|-10------10-----|10------------|---------------------|
G|---5--7---------|----------------|--------------|---------------------|
D|----------------|----------------|--------------|---------------------|
A|----------------|----------------|--------------|---------------------|
E|----------------|----------------|--------------|---------------------|

e|-10--12--12-----|--10-10--8--8---|-12-10-10-----|--8-8--7-7--5--5-----|
B|----------------|----------------|--------------|---------------------|
G|----------------|----------------|--------------|---------------------|
D|----------------|----------------|--------------|---------------------|
A|----------------|----------------|--------------|---------------------|
E|----------------|----------------|--------------|---------------------|



LEGEND

\\ --- slide out of
* ---- Pinch harmonic
•\PM - Palm Mute
T ---- Tremolo Pick
comments
We did not receive enough feedback on this tab! Please rate:
1 2 3 4 5
I want to post or [tab]
guest
You may want to rate the tab now too:
select rating
Please do not post tabs as comments. Select "correction" instead!