Oops, an error
Loading. Please wait.

Escapism Tab

ver1
ver1

Whole song

Interactive

More versions @911Tabs.com
9,861 views 15 this week
no commentswrite comment
1 2 3 4 5
worth learning
x 1
Autoscroll
+/-
esc
set tempo
stop
Contributor
Difficulty
Hey! There's an official Ultimate Guitar app which is ideal
for learning songs when you're away from computer. Get the app
WARNING: You are trying to view
                                    content from Ultimate-Guitar.com
                                    in an unauthorized application,
                                    which is prohibited.

                                    Please use an official Ultimate
                                    Guitar Tabs application for iPhone,
                                    iPad or Android to access legitimate
                                    chords, guitar, bass, and drum tabs
                                    from Ultimate-Guitar.com database.

                                    Type "ultimate guitar tabs" in Apple
                                    App Store's or Android Market's
                                    search to find the application.
-------------------------------------------------------------------------------
                             ESCAPISM - AN CAFE
-------------------------------------------------------------------------------
Tabbed by: Jesse! :D
Email: NyappyxCAFE@hotmail.com

Tuning: standard 

Intro:  (play like 4 times I think)
e|---------------------------------------------------------------------------|
B|---------------------------------------------------------------------------|
G|---------------------------------------------------------------------------|
D|---------------------------------------------------------------------------|
A|-4-4-4-4--4-4-4--4-4-4-7-7-6-6--4-4-4-4--4-4-4--4-4-4-7-7-6-6--------------|
E|-2-2-0-2--2-0-2--2-0-2-5-5-4-4--2-2-0-2--2-0-2--2-0-2-5-5-4-4--------------|

Bass fill:
e|---------------------------------------------------------------------------|
B|-------T-------------------------------------------------------------------|
G|-------S-------------------------------------------------------------------|
D|-------E-------------------------------------------------------------------|
A|-------R-------------------------------------------------------------------|
E|---------------------------------------------------------------------------|

Verse: (Play twice)
e|---------------------------x-x-x-x-x---------------------------------------|
B|---------------------------x-x-x-x-x---------------------------------------|
G|---------------------------x-x-x-x-x---------------------------------------|
D|--4-4-4---------4-4-4------------------------------------------------------|
A|--4-4-4---------4-4-2------------------------------------------------------|
E|--2-2-2---------2-2-2------------------------------------------------------|
PM    •             •

Bridge: (Play 4 times) [Only play 7's the first time]
e|---------------------------------------------------------------------------|
B|---------------------------------------------------------------------------|
G|-7-/---11-11--9-11--11--9-11--11--9-11--14-14-13-13------------------------|
D|-7-/---11-11-11-11--11-11-11--11-11-11--11-11-11-11------------------------|
A|---------------------------------------------------------------------------|
E|---------------------------------------------------------------------------|

Verse: 
e|----------------------------------------------x-x-x-x-x--------------------|
B|-------7--10--9---10-9-\---------7--10--9-\---x-x-x-x-x--------------------|
G|-------6--9---8---9--8-\---------6--9---8-\---x-x-x-x-x--------------------|
D|-4-4------------------------4-4--------------------------------------------|
A|-4-4------------------------4-4--------------------------------------------|
E|-2-2------------------------2-2--------------------------------------------|
PM   •                          •
 
e|---------------------------------------------------------------------------|
B|-------7--10--9---10-9-\---------7--10--9--9-9-9-10-10-9-9-----------------|
G|-------6--9---8---9--8-\---------6--9---8--8-8-8-9--9--8-8-----------------|
D|-4-4------------------------4-4--------------------------------------------|
A|-4-4------------------------4-4--------------------------------------------|
E|-2-2------------------------2-2--------------------------------------------|
PM   •                          •


Pre chorus: (play twice)
e|---------------------------------------------------------------------------|
B|---------------------------------------------------------------------------|
G|-------------------------------11-11--9-14-13--11-11-11--9-14-13-----------|
D|-------------------------------11-11-11-11-11--11-11-11-11-11-11-----------|
A|-7--7--7-7-7-7-6-6-6-6-6-6-6-6---------------------------------------------|
E|-5--5--5-5-5-5-4-4-4-4-4-4-4-4---------------------------------------------|

e|---------------------------------------------------------------------------|
B|---------------------------------------------------------------------------|
G|-------------------------------11-11--9-14-13--14-16-16-14-13--------------|
D|-------------------------------11-11-11-11-11--11-11-11-11-11--------------|
A|-7--7--7-7-7-7-6-6-6-6-6-6-6-6---------------------------------------------|
E|-5--5--5-5-5-5-4-4-4-4-4-4-4-4---------------------------------------------|

e|---------------------------------------------------------------------------|
B|---------------------------------------------------------------------------|
G|-------------------------------11-11--9-14-13--11-11-11--9-14-13-----------|
D|-------------------------------11-11-11-11-11--11-11-11-11-11-11-----------|
A|-7--7--7-7-7-7-6-6-6-6-6-6-6-6---------------------------------------------|
E|-5--5--5-5-5-5-4-4-4-4-4-4-4-4---------------------------------------------|


e|---------------------------------------------------------------------------|
B|---------------------------------------------------------------------------|
G|-------------------------------11-11--9-14-13--14-16-14~~------------------|
D|-------------------------------11-11-11-11-11--11-11-11~~------------------|
A|-7--7--7-7-7-7-6-6-6-6-6-6-6-6---------------------------------------------|
E|-5--5--5-5-5-5-4-4-4-4-4-4-4-4---------------------------------------------|




Chorus: (itsu datte naku ...)
e|---------------------------------------------------------------------------|
B|---------------------------------------------------------------------------|
G|---------------------------------------------------------------------------|
D|---------------------6-6-6-6-6-8-8-8-8-8-8-8-8-----------------------------|
A|-7-7-7-7-7-6-6-6-6-6-4-4-4-4-4-6-6-6-6-6-6-6-6-----------------------------|
E|-5-5-5-5-5-4-4-4-4-4-------------------------------------------------------|

 
e|---------------------------------------------------------------------------|
B|---------------------------------------------------------------------------|
G|----------------------6-9-4-6--11-9-11-------------------------------------|
D|----------------------x-x-x-x--x--x-x--------------------------------------|
A|-7-7-7-7-7-6-6-6-6-6--4-7-2-4--9--7-9--------------------------------------|
E|-5-5-5-5-5-4-4-4-4-4-------------------------------------------------------|

e|---------------------------------------------------------------------------|
B|---------------------------------------------------------------------------|
G|---------------------------------------------------------------------------|
D|---------------------6-6-6-6-6-8-8-8-8-8-8-8-8-----------------------------|
A|-7-7-7-7-7-6-6-6-6-6-4-4-4-4-4-6-6-6-6-6-6-6-6-----------------------------|
E|-5-5-5-5-5-4-4-4-4-4-------------------------------------------------------|


e|---------------------------------------------------------------------------|
B|---------------------------------------------------------------------------|
G|----------------------6-6-6-6-8-8-8-8-9-9-9-9-11-11-11-11------------------|
D|----------------------x-x-x-x-x-x-x-x-x-x-x-x-x--x--x--x-------------------|
A|-7-7-7-7-7-6-6-6-6-6--4-4-4-4-6-6-6-6-7-7-7-7-9--9--9--9-------------------|
E|-5-5-5-5-5-4-4-4-4-4-------------------------------------------------------|

e|---------------------------------------------------------------------------|
B|---------------------------------------------------------------------------|
G|---------------------------------------------------------------------------|
D|---------------------6-6-6-6-6-8-8-8-8-8-8-8-8-----------------------------|
A|-7-7-7-7-7-6-6-6-6-6-4-4-4-4-4-6-6-6-6-6-6-6-6-----------------------------|
E|-5-5-5-5-5-4-4-4-4-4-------------------------------------------------------|

e|---------------------------------------------------------------------------|
B|---------------------------------------------------------------------------|
G|----------------------6-9-4-6--11-9-11-------------------------------------|
D|----------------------x-x-x-x--x--x-x--------------------------------------|
A|-7-7-7-7-7-6-6-6-6-6--4-7-2-4--9--7-9--------------------------------------|
E|-5-5-5-5-5-4-4-4-4-4-------------------------------------------------------|


e|---------------------------------------------------------------------------|
B|---------------------------------------------------------------------------|
G|---------------------------------------------------------------------------|
D|---------------------6-6-6-6-6-8-8-8-8-8-8-8-8-----------------------------|
A|-7-7-7-7-7-6-6-6-6-6-4-4-4-4-4-6-6-6-6-6-6-6-6-----------------------------|
E|-5-5-5-5-5-4-4-4-4-4-------------------------------------------------------|

e|---------------------------------------------------------------------------|
B|---------------------------------------------------------------------------|
G|----------------------6-6-6-6-8-8-8-8-9-9-9-9-11-11-11-11------------------|
D|----------------------x-x-x-x-x-x-x-x-x-x-x-x-x--x--x--x-------------------|
A|-7-7-7-7-7-6-6-6-6-6--4-4-4-4-6-6-6-6-7-7-7-7-9--9--9--9-------------------|
E|-5-5-5-5-5-4-4-4-4-4-------------------------------------------------------|

Solo:
e|---------------------------------------------------------------------------|
B|----------------------17b-16-17-21-21-21-21-17-14--------------------------|
G|---9~-9~--8-6-8-9\\--------------------------------------------------------|
D|---------------------------------------------------------------------------|
A|---------------------------------------------------------------------------|
E|---------------------------------------------------------------------------|

Intro riff: (play twice)
e|---------------------------------------------------------------------------|
B|---------------------------------------------------------------------------|
G|---------------------------------------------------------------------------|
D|---------------------------------------------------------------------------|
A|-4-4-4-4--4-4-4--4-4-4-7-7-6-6--4-4-4-4--4-4-4--4-4-4-7-7-6-6--------------|
E|-2-2-0-2--2-0-2--2-0-2-5-5-4-4--2-2-0-2--2-0-2--2-0-2-5-5-4-4--------------| 

Verse: 
e|---------------------------x-x-x-x-x---------------------------------------|
B|---------------------------x-x-x-x-x---------------------------------------|
G|---------------------------x-x-x-x-x---------------------------------------|
D|--4-4-4---------4-4-4------------------------------------------------------|
A|--4-4-4---------4-4-2------------------------------------------------------|
E|--2-2-2---------2-2-2------------------------------------------------------|
PM    •             •

Verse: (Play twice)
e|-----------------------------------x-x-x-x-x-------------------------------|
B|-----------------------------------x-x-x-x-x-------------------------------|
G|---------14-14-14-13-13------------x-x-x-x-x-------------------------------|
D|--4-4-4--11-11-11-11-11-----4-4-4------------------------------------------|
A|--4-4-4---------------------4-4-2------------------------------------------|
E|--2-2-2---------------------2-2-2------------------------------------------|
PM    •                         •

Pre chorus: With flanger (If you don't have one, just play the first pre chorus)
e|---------------------------------------------------------------------------|
B|---------------------------------------------------------------------------|
G|-------------------------------11-11--9-14-13--11-11-11--9-14-13-----------|
D|-7------6----------------------11-11-11-11-11--11-11-11-11-11-11-----------|
A|-7------6------------------------------------------------------------------|
E|-5------4------------------------------------------------------------------|

e|---------------------------------------------------------------------------|
B|---------------------------------------------------------------------------|
G|-------------------------------11-11--9-14-13--11-11-11--9-14-13-----------|
D|-7------6----------------------11-11-11-11-11--11-11-11-11-11-11-----------|
A|-7------6------------------------------------------------------------------|
E|-5------4------------------------------------------------------------------|

e|---------------------------------------------------------------------------|
B|---------------------------------------------------------------------------|
G|-------------------------------11-11--9-14-13--11-11-11--9-14-13-----------|
D|-7------6----------------------11-11-11-11-11--11-11-11-11-11-11-----------|
A|-7------6------------------------------------------------------------------|
E|-5------4------------------------------------------------------------------|

e|---------------------------------------------------------------------------|
B|-----------------------------------------------------14\\------------------|
G|-------------------------------11-11--9-11-13-14-16------------------------|
D|-7------6----------------------11-11-11-11-11-11-11------------------------|
A|-7------6------------------------------------------------------------------|
E|-5------4------------------------------------------------------------------|

Bridge..thing: (play 3 times)
e|---------------------------------------------------------------------------|
B|---------------------------------------------------------------------------|
G|------------------------------6------------9-------------------------------|
D|-----7-----------6----------6---6---6----9---9---9-------------------------|
A|---7---7---7---6---6---6--4-------4----7-------7--------------------------|
E|-5-------5---4-------4-----------------------------------------------------|

then..

e|---------------------------------------------------------------------------|
B|---------------------------------------------------------------------------|
G|----------------------------6~--------------------------------------------|
D|-----7------------6---------6~---------6-----------------------------------|
A|---7---7---7----6---6---6---4~---------4-----------------------------------|
E|-5-------5----4-------4----------------------------------------------------|

Last chorus:
e|---------------------------------------------------------------------------|
B|---------------------------------------------------------------------------|
G|---------------------------------------------------------------------------|
D|---------------------6-6-6-6-6-8-8-8-8-8-8-8-8-----------------------------|
A|-7-7-7-7-7-6-6-6-6-6-4-4-4-4-4-6-6-6-6-6-6-6-6-----------------------------|
E|-5-5-5-5-5-4-4-4-4-4-------------------------------------------------------|

 
e|---------------------------------------------------------------------------|
B|---------------------------------------------------------------------------|
G|----------------------6-9-4-6--11-9-11-------------------------------------|
D|----------------------x-x-x-x--x--x-x--------------------------------------|
A|-7-7-7-7-7-6-6-6-6-6--4-7-2-4--9--7-9--------------------------------------|
E|-5-5-5-5-5-4-4-4-4-4-------------------------------------------------------|

e|---------------------------------------------------------------------------|
B|---------------------------------------------------------------------------|
G|---------------------------------------------------------------------------|
D|---------------------6-6-6-6-6-8-8-8-8-8-8-8-8-----------------------------|
A|-7-7-7-7-7-6-6-6-6-6-4-4-4-4-4-6-6-6-6-6-6-6-6-----------------------------|
E|-5-5-5-5-5-4-4-4-4-4-------------------------------------------------------|


e|---------------------------------------------------------------------------|
B|---------------------------------------------------------------------------|
G|----------------------6-6-6-6-8-8-8-8-9-9-9-9-11-11-11-11------------------|
D|----------------------x-x-x-x-x-x-x-x-x-x-x-x-x--x--x--x-------------------|
A|-7-7-7-7-7-6-6-6-6-6--4-4-4-4-6-6-6-6-7-7-7-7-9--9--9--9-------------------|
E|-5-5-5-5-5-4-4-4-4-4-------------------------------------------------------|

e|---------------------------------------------------------------------------|
B|---------------------------------------------------------------------------|
G|---------------------------------------------------------------------------|
D|---------------------6-6-6-6-6-8-8-8-8-8-8-8-8-----------------------------|
A|-7-7-7-7-7-6-6-6-6-6-4-4-4-4-4-6-6-6-6-6-6-6-6-----------------------------|
E|-5-5-5-5-5-4-4-4-4-4-------------------------------------------------------|

e|---------------------------------------------------------------------------|
B|---------------------------------------------------------------------------|
G|----------------------6-9-4-6--11-9-11-------------------------------------|
D|----------------------x-x-x-x--x--x-x--------------------------------------|
A|-7-7-7-7-7-6-6-6-6-6--4-7-2-4--9--7-9--------------------------------------|
E|-5-5-5-5-5-4-4-4-4-4-------------------------------------------------------|


e|---------------------------------------------------------------------------|
B|---------------------------------------------------------------------------|
G|---------------------------------------------------------------------------|
D|---------------------6-6-6-6-6-8-8-8-8-8-8-8-8-----------------------------|
A|-7-7-7-7-7-6-6-6-6-6-4-4-4-4-4-6-6-6-6-6-6-6-6-----------------------------|
E|-5-5-5-5-5-4-4-4-4-4-------------------------------------------------------|

e|---------------------------------------------------------------------------|
B|------------------------------17----16-17----------------------------------|
G|---------------------------------16----------------------------------------|
D|---------------------------------------------------------------------------|
A|-7-7-7-7-7-6-6-6-6-6-------------------------------------------------------|
E|-5-5-5-5-5-4-4-4-4-4-------------------------------------------------------|

e|---------------------------------------------------------------------------|
B|---------------------------------------------------------------------------|
G|---------------------------------------------------------------------------|
D|---------------------6-6-6-6-6-8-8-8-8-8-8-8-8-----------------------------|
A|-7-7-7-7-7-6-6-6-6-6-4-4-4-4-4-6-6-6-6-6-6-6-6-----------------------------|
E|-5-5-5-5-5-4-4-4-4-4-------------------------------------------------------|

e|---------------------------------------------------------------------------|
B|---------------------------------------------------------------------------|
G|----------------------6-9-4-6--11-9-11-------------------------------------|
D|----------------------x-x-x-x--x--x-x--------------------------------------|
A|-7-7-7-7-7-6-6-6-6-6--4-7-2-4--9--7-9--------------------------------------|
E|-5-5-5-5-5-4-4-4-4-4-------------------------------------------------------|

e|---------------------------------------------------------------------------|
B|---------------------------------------------------------------------------|
G|---------------6-6---9-------------------------6-6-6-6-6-8-8-8-8-8---------|
D|----7-7---6----6-6---9-----7-7-7-7-7-6-6-6-6-6-6-6-6-6-6-8-8-8-8-8---------|
A|----7-7---6----4-4---7-----7-7-7-7-7-6-6-6-6-6-4-4-4-4-4-6-6-6-6-6---------|
E|----5-5---4----------------5-5-5-5-5-4-4-4-4-4-----------------------------|


e|---------------------------------------------------------------------------|
B|---------------------------------------------------------------------------|
G|---------------------------------------------------------------------------|
D|---------------------6-6-6-6-6-8-8-8-8-8-8-8-8-----------------------------|
A|-7-7-7-7-7-6-6-6-6-6-4-4-4-4-4-6-6-6-6-6-6-6-6-----------------------------|
E|-5-5-5-5-5-4-4-4-4-4-------------------------------------------------------|

e|---------------------------------------------------------------------------|
B|---------------------------------------------------------------------------|
G|----------------------6-9-4-6--11-9-11-------------------------------------|
D|----------------------x-x-x-x--x--x-x--------------------------------------|
A|-7-7-7-7-7-6-6-6-6-6--4-7-2-4--9--7-9--------------------------------------|
E|-5-5-5-5-5-4-4-4-4-4-------------------------------------------------------|

e|---------------------------------------------------------------------------|
B|---------------------------------------------------------------------------|
G|-14--14--14-14-14--13--13-13-13-14-13-11-11-11-11-9-9-9-9-8-8-8-8-9-9-9-9--|
D|--x---x---x--x--x---x---x--x--x--x--x--x--x--x--x-x-x-x-x-x-x-x-x-x-x-x-x--|
A|-12--12--12-12-12--11--11-11-11-12-11-9---9--9--9-7-7-7-7-6-6-6-6-7-7-7-7--|
E|---------------------------------------------------------------------------|

e|--------------------------------0~-----------------------------------------|
B|--------------------------------0~-----------------------------------------|
G|--9--9--9-9-9-8--8-8-8-8-8-8-8--6~-----------------------------------------|
D|--x--x--x-x-x-x--x-x-x-x-x-x-x--6~-----------------------------------------|
A|--7--7--7-7-7-6--6-6-6-6-6-6-6--4~-----------------------------------------|
E|---------------------------------------------------------------------------|
comments
We did not receive enough feedback on this tab! Please rate:
print report bad tab
1 2 3 4 5
I want to post or [tab]
guest
You may want to rate the tab now too:
select rating
Please do not post tabs as comments. Select "correction" instead!