Oops, an error
Loading. Please wait.

Momo Iro Pure Moto Dekiai Zakura Tab

177 views 1 this week
no commentswrite comment
1 2 3 4 5
excellent!
x 2
add to favorites launch autoscroll
font size
0
reset
Autoscroll
+/-
esc
set tempo
stop
Contributor
Difficulty
intermediate
WARNING: You are trying to view
                                    content from Ultimate-Guitar.com
                                    in an unauthorized application,
                                    which is prohibited.

                                    Please use an official Ultimate
                                    Guitar Tabs application for iPhone,
                                    iPad or Android to access legitimate
                                    chords, guitar, bass, and drum tabs
                                    from Ultimate-Guitar.com database.

                                    Type "ultimate guitar tabs" in Apple
                                    App Store's or Android Market's
                                    search to find the application.
Momo iro pure moto dekiai zakura BY An Cafe
Tabbed by: Watame Yue
Standard Tuning
                                                                 * Pinch
^ = Bend x   = mute note    h = hammer-on    ~ = vibrato Pinch   #=Harmonic    PM... = palm mute

Intro

Guitar 1
e|--*---*-*---*-*-*-*-*----|--*---*-*---*-*-*-*-*----|--*---*-*---*-*-*-*-*----|  
B|--3-*-3-3-*-3-3-3-3-2-*--|--3-*-3-3-*-3-3-3-3-2-*--|--3-*-3-3-*-3-3-3-3-2-*--|
G|----3-----3-----------3--|----3-----3-----------3--|----3-----3-----------3--|
D|-------------------------|-------------------------|-------------------------|
A|-------------------------|-------------------------|-------------------------|
E|-------------------------|-------------------------|-------------------------|

e|--*---*-*---*-*-*-*-*----|
B|--3-*-3-3-*-3-3-3-3-2-*--|
G|----3-----3-----------3--|
D|-------------------------|
A|-------------------------|
E|-------------------------|


Guitar 2
e|-------------------------------|------------------------------|------------------------------|
B|-------------------------------|------------------------------|------------------------------|
G|--------xx-x-x--xx-x-x--x-x-x--|--------xx-x-x--xx-x-x--x-x-x-|--------xx-x-x--xx-x-x--x-x-x-|
D|--5--5--xx-x-x--xx-x-x--x-x-x--|--5--5--xx-x-x--xx-x-x--x-x-x-|--5--5--xx-x-x--xx-x-x--x-x-x-|
A|--5--5--xx-x-x--xx-x-x--x-x-x--|--5--5--xx-x-x--xx-x-x--x-x-x-|--5--5--xx-x-x--xx-x-x--x-x-x-|
E|--3--3--xx-x-x--xx-x-x--x-x-x--|--3--3--xx-x-x--xx-x-x--x-x-x-|--3--3--xx-x-x--xx-x-x--x-x-x-|


e|-------------------------------|------------------------|
B|-------------------------------|------------------------|
G|--------xx-x-x--xx-x-x--x-x-x--|------------------------|
D|--5--5--xx-x-x--xx-x-x--x-x-x--|--/pick slide----4-4-4--|
A|--5--5--xx-x-x--xx-x-x--x-x-x--|-----------------4-4-4--|
E|--3--3--xx-x-x--xx-x-x--x-x-x--|-----------------2-2-2--|



Verse

Guitar 1
e|----------------------|-22-2-------42-2------|----------------------|--22-2-------22-2------|
B|----------------------|-33-3-------33-3--xxx-|-------xxx--------xxx-|--33-3--xxx--33-3--xxx-|
G|-33-3--xxx--33-3--xxx-|-44-4--xxx--44-4--xxx-|-33-3--xxx--33-3--xxx-|--44-4--xxx--44-4--xxx-|
D|-44-4--xxx--44-4--xxx-|-44-4--xxx--44-4--xxx-|-44-4--xxx--44-4--xxx-|--44-4--xxx--44-4--xxx-|
A|-44-4--xxx--44-4--xxx-|-22-2--xxx--22-2--xxx-|-44-4--xxx--44-4--xxx-|--22-2--xxx--22-2--xxx-|
E|-22-2--xxx--22-2--xxx-|-------xxx------------|-22-2--xxx--22-2--xxx-|--------xxx------------|


Guitar 1
e|--*---*-*---*-*-*-*-*----|--*---*-*---*-*-*-*-*----|--*---*-*---*-*-*-*-*----|
B|--3-*-3-3-*-3-3-3-3-2-*--|--3-*-3-3-*-3-3-3-3-2-*--|--3-*-3-3-*-3-3-3-3-2-*--|
G|----3-----3-----------3--|----3-----3-----------3--|----3-----3-----------3--|
D|-------------------------|-------------------------|-------------------------|
A|-------------------------|-------------------------|-------------------------|
E|-------------------------|-------------------------|-------------------------|

e|--*---*-*---*-*-*-*-*----|
B|--3-*-3-3-*-3-3-3-3-2-*--|
G|----3-----3-----------3--|
D|-------------------------|
A|-------------------------|
E|-------------------------|


Guitar 2
e|-------------------------------|------------------------------|------------------------------|
B|-------------------------------|------------------------------|------------------------------|
G|--------xx-x-x--xx-x-x--x-x-x--|--------xx-x-x--xx-x-x--x-x-x-|--------xx-x-x--xx-x-x--x-x-x-|
D|--5--5--xx-x-x--xx-x-x--x-x-x--|--5--5--xx-x-x--xx-x-x--x-x-x-|--5--5--xx-x-x--xx-x-x--x-x-x-|
A|--5--5--xx-x-x--xx-x-x--x-x-x--|--5--5--xx-x-x--xx-x-x--x-x-x-|--5--5--xx-x-x--xx-x-x--x-x-x-|
E|--3--3--xx-x-x--xx-x-x--x-x-x--|--3--3--xx-x-x--xx-x-x--x-x-x-|--3--3--xx-x-x--xx-x-x--x-x-x-|


e|-------------------------------|------------------------|
B|-------------------------------|------------------------|
G|--------xx-x-x--xx-x-x--x-x-x--|------------------------|
D|--5--5--xx-x-x--xx-x-x--x-x-x--|-----------------4-4-4--|
A|--5--5--xx-x-x--xx-x-x--x-x-x--|-----------------4-4-4--|
E|--3--3--xx-x-x--xx-x-x--x-x-x--|-----------------2-2-2--|


Guitar 1
e|----------------------|-22-2-------42-2------|----------------------|--22-2-------22-2------|
B|----------------------|-33-3-------33-3--xxx-|-------xxx--------xxx-|--33-3--xxx--33-3--xxx-|
G|-33-3--xxx--33-3--xxx-|-44-4--xxx--44-4--xxx-|-33-3--xxx--33-3--xxx-|--44-4--xxx--44-4--xxx-|
D|-44-4--xxx--44-4--xxx-|-44-4--xxx--44-4--xxx-|-44-4--xxx--44-4--xxx-|--44-4--xxx--44-4--xxx-|
A|-44-4--xxx--44-4--xxx-|-22-2--xxx--22-2--xxx-|-44-4--xxx--44-4--xxx-|--22-2--xxx--22-2--xxx-|
E|-22-2--xxx--22-2--xxx-|-------xxx------------|-22-2--xxx--22-2--xxx-|--------xxx------------|
 



PreChorus

Guitar 1
e|-----------------------|-----------------------|-----------------------|
B|-----------------------|-----------------------|-----------------------|
G|-----------------------|-----------------------|-----------------------|
D|-------2b-0--2b-0--2b--|-------2b-0--2b-0--2b--|-------2b-0--2b-0--2b--|
A|--2-22-----2-----2-----|--2-22-----2-----2-----|--2-22-----2-----2-----|
E|--0-00-----0-----0-----|--0-00-----0-----0-----|--0-00-----0-----0-----|
PM......     .     .        ....     .     .        ....     .     .

e|-----------------------|
B|-----------------------|
G|-----------------------|
D|-------2b-0--2b-0--2b--|
A|--2-22-----2-----2-----|
E|--0-00-----0-----0-----|
PM......     .     .



Chorus

Guitar 1
e|---------------------------------------------|-----------------------------------------|
B|---------------------------------------------|-----------------------------------------|
G|-/pick ---1010xx-12-121212xx-1515xx-9-999xx--|--1010xx-12-121212x-1515x15x15x15-1515---|
D|-/slide---1010xx-12-121212xx-1515xx-9-999xx--|--1010xx-12-121212x-1515x15x15x15-1515---|
A|----------8-8-xx-10-101010xx-1313xx-7-777xx--|--8-8-xx-10-101010x-1313x13x13x13-1313---|
E|---------------------------------------------|-----------------------------------------|

Guitar 2
e|-----------------------------------|--------------------------------|
B|-----------------------------------|--------------------------------|
G|-----------------------------------|--------------------------------|
D|--33/--55--5-5-5--1010/--22--2-2-2-|--33/--55-555--10--1010-101010--|
A|--33/--55--5-5-5--1010/--22--2-2-2-|--33/--55-555--10--1010-101010--|
E|--11/--33--3-3-3--8-8-/--00--0-0-0-|--11/--33-333--8---8-8---8-8-8--|


Guitar 1
e|------------------------------------|-----------------------------------------|
B|------------------------------------|-----------------------------------------|
G|-1010xx-12-121212xx-1515xx-9-999xx--|--1010xx-12-121212x-1515x15x15x15-1515---|
D|-1010xx-12-121212xx-1515xx-9-999xx--|--1010xx-12-121212x-1515x15x15x15-1515---|
A|-8-8-xx-10-101010xx-1313xx-7-777xx--|--8-8-xx-10-101010x-1313x13x13x13-1313---|
E|------------------------------------|-----------------------------------------|

Guitar 2
e|-----------------------------------|--------------------------------|
B|-----------------------------------|--------------------------------|
G|-----------------------------------|--------------------------------|
D|--33/--55--5-5-5--1010/--22--2-2-2-|--33/--55-555--10--1010-101010--|
A|--33/--55--5-5-5--1010/--22--2-2-2-|--33/--55-555--10--1010-101010--|
E|--11/--33--3-3-3--8-8-/--00--0-0-0-|--11/--33-333--8---8-8---8-8-8--|


Guitar 1
e|------------------------------------|-----------------------------------------|
B|------------------------------------|-----------------------------------------|
G|-1010xx-12-121212xx-1515xx-9-999xx--|--1010xx-12-121212x-1515x15x15x15-1515---|
D|-1010xx-12-121212xx-1515xx-9-999xx--|--1010xx-12-121212x-1515x15x15x15-1515---|
A|-8-8-xx-10-101010xx-1313xx-7-777xx--|--8-8-xx-10-101010x-1313x13x13x13-1313---|
E|------------------------------------|-----------------------------------------|

Guitar 2
e|-----------------------------------|--------------------------------|
B|-----------------------------------|--------------------------------|
G|-----------------------------------|--------------------------------|
D|--33/--55--5-5-5--1010/--22--2-2-2-|--33/--55-555--10--1010-101010--|
A|--33/--55--5-5-5--1010/--22--2-2-2-|--33/--55-555--10--1010-101010--|
E|--11/--33--3-3-3--8-8-/--00--0-0-0-|--11/--33-333--8---8-8---8-8-8--|


Guitar 1
e|------------------------------------|-------------------------------------------------|
B|------------------------------------|-------------------------------------------------|
G|--1010xx-12-1212xx-1515xx--9-999xx--|--1010xx-12-121212x-1515x15x15x15-1515-15151415--|
D|--1010xx-10-1212xx-1515xx--9-999xx--|--1010xx-12-121212x-1515x15x15x15-1515-15151415--|
A|--8-8-xx-10-1010xx-1313xx--7-777xx--|--8-8-xx-10-101010x-1313x13x13x13-1313-13131213--|
E|------------------------------------|-------------------------------------------------|

Guitar 2
e|-----------------------------------|-------------------------------------------|
B|-----------------------------------|-------------------------------------------|
G|-----------------------------------|-------------------------------------------|
D|--33/--55--5-5-5--1010/--22--2-2-2-|--33/--55-555--10--1010-101010-1010910-----|
A|--33/--55--5-5-5--1010/--22--2-2-2-|--33/--55-555--10--1010-101010-1010910-----|
E|--11/--33--3-3-3--8-8-/--00--0-0-0-|--11/--33-333--8---8-8---8-8-8-8-8-78------|


Guitar 1
e|--------------------|--------------------|--------------------|------------|
B|--------------------|--------------------|--------------------|------------|
G|--1010101010101010--|--1212121212121212--|--1515151515511515--|--99999999--|
D|--1010101010101010--|--1212121212121212--|--1515151515151515--|--99999999--|
A|--8-8-8-8-8-8-8-8---|--1010101010101010--|--1313131313131313--|--77777777--|
E|--------------------|--------------------|--------------------|------------|

e|--------------------|--------------------|------------------------------------|
B|--------------------|--------------------|------------------------------------|
G|--1010101010101010--|--1212121212121212--|--15151515155115151515151515511515--|
D|--1010101010101010--|--1212121212121212--|--15151515151515151515151515151515--|
A|--8-8-8-8-8-8-8-8---|--1010101010101010--|--13131313131313131313131313131313--|
E|--------------------|--------------------|------------------------------------|


Guitar 2
e|-----------|------------|-------------------|------------|
B|-----------|------------|-------------------|------------|
G|-----------|------------|-------------------|------------|
D|-33333333--|--55555555--|--1010101010101010-|--22222222--|
A|-33333333--|--55555555--|--1010101010101010-|--22222222--|
E|-11111111--|--33333333--|--8-8-8-8-8-8-8-8--|--00000000--|

e|-----------|------------|------------------------------------|
B|-----------|------------|------------------------------------|
G|-----------|------------|------------------------------------|
D|-33333333--|--55555555--|--10101010101010101010101010101010--|
A|-33333333--|--55555555--|--10101010101010101010101010101010--|
E|-11111111--|--33333333--|--8-8-8-8-8-8-8-8-8-8-8-8-8-8-8-8---|


Guitar 1
e|--------------------|--------------------|--------------------|------------|
B|--------------------|--------------------|--------------------|------------|
G|--1010101010101010--|--1212121212121212--|--1515151515511515--|--99999999--|
D|--1010101010101010--|--1212121212121212--|--1515151515151515--|--99999999--|
A|--8-8-8-8-8-8-8-8---|--1010101010101010--|--1313131313131313--|--77777777--|
E|--------------------|--------------------|--------------------|------------|

e|--------------------|--------------------|------------------------------------|
B|--------------------|--------------------|------------------------------------|
G|--1010101010101010--|--1212121212121212--|--15151515155115151515151515511515--|
D|--1010101010101010--|--1212121212121212--|--15151515151515151515151515151515--|
A|--8-8-8-8-8-8-8-8---|--1010101010101010--|--13131313131313131313131313131313--|
E|--------------------|--------------------|------------------------------------|


Guitar 2
e|-----------|------------|-------------------|------------|
B|-----------|------------|-------------------|------------|
G|-----------|------------|-------------------|------------|
D|-33333333--|--55555555--|--1010101010101010-|--22222222--|
A|-33333333--|--55555555--|--1010101010101010-|--22222222--|
E|-11111111--|--33333333--|--8-8-8-8-8-8-8-8--|--00000000--|

e|-----------|------------|------------------------------------|
B|-----------|------------|------------------------------------|
G|-----------|------------|------------------------------------|
D|-33333333--|--55555555--|--10101010101010101010101010101010--|
A|-33333333--|--55555555--|--10101010101010101010101010101010--|
E|-11111111--|--33333333--|--8-8-8-8-8-8-8-8-8-8-8-8-8-8-8-8---|


Guitar 1
e|-------------|-------------|-------------|-------------|------------|
B|-------------|-------------|-------------|-------------|------------|
G|-------------|-------------|-------------|-------------|------------|
D|----5---7/5--|----5---7/5--|----5---7/5--|----5---7/5--|----5---/7--|
A|----5---7/5--|----5---7/5--|----5---7/5--|----5---7/5--|----5---/7--|
E|--003-005/3--|--003-005/3--|--003-005/3--|--003-005/3--|--003-00/5--|
PM ...  ..        ..  ..        ..  ..        ..  ..        ..  ..

e|-------------|-------------|-------------|
B|-------------|-------------|-------------|
G|-------------|-------------|-------------|
D|----5---7/5--|----5---7/5--|----5---7/5--|
A|----5---7/5--|----5---7/5--|----5---7/5--|
E|--003-005/3--|--003-005/3--|--003-005/3--|
PM ...  ..        ..  ..        ..  .. 



Solo
Guitar 1
e|--/13-1210------------10---------|--/13-1210------------10----------|
B|----------13-131213-13--13-1213--|----------13-131213-13--13~~~~~---|
G|---------------------------------|----------------------------------|
D|---------------------------------|----------------------------------|
A|---------------------------------|----------------------------------|
E|---------------------------------|----------------------------------|

e|--/13-1210------------10---------|--/13-1210------------10-----10----------|
B|----------13-131213-13--13-1213--|----------13-131213-13--13-13---13~~~~~--|
G|---------------------------------|-----------------------------------------|
D|---------------------------------|-----------------------------------------|
A|---------------------------------|-----------------------------------------|
E|---------------------------------|-----------------------------------------|

Guitar 2
 

e|-----------------------------------|--------------------------------|
B|-----------------------------------|--------------------------------|
G|-----------------------------------|--------------------------------|
D|--33/--55--5-5-5--1010/--22--2-2-2-|--33/--55-555--10--1010-101010--|
A|--33/--55--5-5-5--1010/--22--2-2-2-|--33/--55-555--10--1010-101010--|
E|--11/--33--3-3-3--8-8-/--00--0-0-0-|--11/--33-333--8---8-8---8-8-8--|

e|-----------------------------------|------------------------------------|
B|-----------------------------------|------------------------------------|
G|-----------------------------------|-------------------------------------|
D|--33/--55--5-5-5--1010/--22--2-2-2-|--33/--55-555--10--1010-101010/--2---|
A|--33/--55--5-5-5--1010/--22--2-2-2-|--33/--55-555--10--1010-101010/--2---|
E|--11/--33--3-3-3--8-8-/--00--0-0-0-|--11/--33-333--8---8-8---8-8-8/--0---|




Verse

Guuitar 1
e|----------------------|-22-2-------42-2------|----------------------|--22-2-------22-2------|
B|----------------------|-33-3-------33-3--xxx-|----------------------|--33-3-------33-3--xxx-|
G|-33-3--xxx--33-3--xxx-|-44-4--xxx--44-4--xxx-|-33-3--xxx--33-3--xxx-|--44-4--xxx--44-4--xxx-|
D|-44-4--xxx--44-4--xxx-|-44-4--xxx--44-4--xxx-|-44-4--xxx--44-4--xxx-|--44-4--xxx--44-4--xxx-|
A|-44-4--xxx--44-4--xxx-|-22-2--xxx--22-2--xxx-|-44-4--xxx--44-4--xxx-|--22-2--xxx--22-2--xxx-|
E|-22-2--xxx--22-2--xxx-|-------xxx------------|-22-2--xxx--22-2--xxx-|--------xxx------------|



Chorus

Guitar 1
e|---------------------------------------------|-----------------------------------------|
B|---------------------------------------------|-----------------------------------------|
G|-/pick ---1010xx-12-121212xx-1515xx-9-999xx--|--1010xx-12-121212x-1515x15x15x15-1515---|
D|-/slide---1010xx-12-121212xx-1515xx-9-999xx--|--1010xx-12-121212x-1515x15x15x15-1515---|
A|----------8-8-xx-10-101010xx-1313xx-7-777xx--|--8-8-xx-10-101010x-1313x13x13x13-1313---|
E|---------------------------------------------|-----------------------------------------|

Guitar 2
e|-----------------------------------|--------------------------------|
B|-----------------------------------|--------------------------------|
G|-----------------------------------|--------------------------------|
D|--33/--55--5-5-5--1010/--22--2-2-2-|--33/--55-555--10--1010-101010--|
A|--33/--55--5-5-5--1010/--22--2-2-2-|--33/--55-555--10--1010-101010--|
E|--11/--33--3-3-3--8-8-/--00--0-0-0-|--11/--33-333--8---8-8---8-8-8--|


Guitar 1
e|------------------------------------|-----------------------------------------|
B|------------------------------------|-----------------------------------------|
G|-1010xx-12-121212xx-1515xx-9-999xx--|--1010xx-12-121212x-1515x15x15x15-1515---|
D|-1010xx-12-121212xx-1515xx-9-999xx--|--1010xx-12-121212x-1515x15x15x15-1515---|
A|-8-8-xx-10-101010xx-1313xx-7-777xx--|--8-8-xx-10-101010x-1313x13x13x13-1313---|
E|------------------------------------|-----------------------------------------|

Guitar 2
e|-----------------------------------|--------------------------------|
B|-----------------------------------|--------------------------------|
G|-----------------------------------|--------------------------------|
D|--33/--55--5-5-5--1010/--22--2-2-2-|--33/--55-555--10--1010-101010--|
A|--33/--55--5-5-5--1010/--22--2-2-2-|--33/--55-555--10--1010-101010--|
E|--11/--33--3-3-3--8-8-/--00--0-0-0-|--11/--33-333--8---8-8---8-8-8--|


Guitar 1
e|------------------------------------|-----------------------------------------|
B|------------------------------------|-----------------------------------------|
G|-1010xx-12-121212xx-1515xx-9-999xx--|--1010xx-12-121212x-1515x15x15x15-1515---|
D|-1010xx-12-121212xx-1515xx-9-999xx--|--1010xx-12-121212x-1515x15x15x15-1515---|
A|-8-8-xx-10-101010xx-1313xx-7-777xx--|--8-8-xx-10-101010x-1313x13x13x13-1313---|
E|------------------------------------|-----------------------------------------|

Guitar 2
e|-----------------------------------|--------------------------------|
B|-----------------------------------|--------------------------------|
G|-----------------------------------|--------------------------------|
D|--33/--55--5-5-5--1010/--22--2-2-2-|--33/--55-555--10--1010-101010--|
A|--33/--55--5-5-5--1010/--22--2-2-2-|--33/--55-555--10--1010-101010--|
E|--11/--33--3-3-3--8-8-/--00--0-0-0-|--11/--33-333--8---8-8---8-8-8--|


Guitar 1
e|------------------------------------|-------------------------------------------------|
B|------------------------------------|-------------------------------------------------|
G|--1010xx-12-1212xx-1515xx--9-999xx--|--1010xx-12-121212x-1515x15x15x15-1515-15151415--|
D|--1010xx-10-1212xx-1515xx--9-999xx--|--1010xx-12-121212x-1515x15x15x15-1515-15151415--|
A|--8-8-xx-10-1010xx-1313xx--7-777xx--|--8-8-xx-10-101010x-1313x13x13x13-1313-13131213--|
E|------------------------------------|-------------------------------------------------|

Guitar 2
e|-----------------------------------|-------------------------------------------|
B|-----------------------------------|-------------------------------------------|
G|-----------------------------------|-------------------------------------------|
D|--33/--55--5-5-5--1010/--22--2-2-2-|--33/--55-555--10--1010-101010-1010910-----|
A|--33/--55--5-5-5--1010/--22--2-2-2-|--33/--55-555--10--1010-101010-1010910-----|
E|--11/--33--3-3-3--8-8-/--00--0-0-0-|--11/--33-333--8---8-8---8-8-8-8-8-78------|

Guitar 1
e|---------------------------------------------|-----------------------------------------|
B|---------------------------------------------|-----------------------------------------|
G|-/pick ---1010xx-12-121212xx-1515xx-9-999xx--|--1010xx-12-121212x-1515x15x15x15-1515---|
D|-/slide---1010xx-12-121212xx-1515xx-9-999xx--|--1010xx-12-121212x-1515x15x15x15-1515---|
A|----------8-8-xx-10-101010xx-1313xx-7-777xx--|--8-8-xx-10-101010x-1313x13x13x13-1313---|
E|---------------------------------------------|-----------------------------------------|

Guitar 2
e|-----------------------------------|--------------------------------|
B|-----------------------------------|--------------------------------|
G|-----------------------------------|--------------------------------|
D|--33/--55--5-5-5--1010/--22--2-2-2-|--33/--55-555--10--1010-101010--|
A|--33/--55--5-5-5--1010/--22--2-2-2-|--33/--55-555--10--1010-101010--|
E|--11/--33--3-3-3--8-8-/--00--0-0-0-|--11/--33-333--8---8-8---8-8-8--|


Guitar 1
e|------------------------------------|-----------------------------------------|
B|------------------------------------|-----------------------------------------|
G|-1010xx-12-121212xx-1515xx-9-999xx--|--1010xx-12-121212x-1515x15x15x15-1515---|
D|-1010xx-12-121212xx-1515xx-9-999xx--|--1010xx-12-121212x-1515x15x15x15-1515---|
A|-8-8-xx-10-101010xx-1313xx-7-777xx--|--8-8-xx-10-101010x-1313x13x13x13-1313---|
E|------------------------------------|-----------------------------------------|

Guitar 2
e|-----------------------------------|--------------------------------|
B|-----------------------------------|--------------------------------|
G|-----------------------------------|--------------------------------|
D|--33/--55--5-5-5--1010/--22--2-2-2-|--33/--55-555--10--1010-101010--|
A|--33/--55--5-5-5--1010/--22--2-2-2-|--33/--55-555--10--1010-101010--|
E|--11/--33--3-3-3--8-8-/--00--0-0-0-|--11/--33-333--8---8-8---8-8-8--|


Guitar 1
e|------------------------------------|-----------------------------------------|
B|------------------------------------|-----------------------------------------|
G|-1010xx-12-121212xx-1515xx-9-999xx--|--1010xx-12-121212x-1515x15x15x15-1515---|
D|-1010xx-12-121212xx-1515xx-9-999xx--|--1010xx-12-121212x-1515x15x15x15-1515---|
A|-8-8-xx-10-101010xx-1313xx-7-777xx--|--8-8-xx-10-101010x-1313x13x13x13-1313---|
E|------------------------------------|-----------------------------------------|

Guitar 2
e|-----------------------------------|--------------------------------|
B|-----------------------------------|--------------------------------|
G|-----------------------------------|--------------------------------|
D|--33/--55--5-5-5--1010/--22--2-2-2-|--33/--55-555--10--1010-101010--|
A|--33/--55--5-5-5--1010/--22--2-2-2-|--33/--55-555--10--1010-101010--|
E|--11/--33--3-3-3--8-8-/--00--0-0-0-|--11/--33-333--8---8-8---8-8-8--|


Guitar 1
e|------------------------------------|-------------------------------------------------|
B|------------------------------------|-------------------------------------------------|
G|--1010xx-12-1212xx-1515xx--9-999xx--|--1010xx-12-121212x-1515x15x15x15-1515-15151415--|
D|--1010xx-10-1212xx-1515xx--9-999xx--|--1010xx-12-121212x-1515x15x15x15-1515-15151415--|
A|--8-8-xx-10-1010xx-1313xx--7-777xx--|--8-8-xx-10-101010x-1313x13x13x13-1313-13131213--|
E|------------------------------------|-------------------------------------------------|


Guitar 2
e|-----------------------------------|-------------------------------------------|
B|-----------------------------------|-------------------------------------------|
G|-----------------------------------|-------------------------------------------|
D|--33/--55--5-5-5--1010/--22--2-2-2-|--33/--55-555--10--1010-101010-1010910-----|
A|--33/--55--5-5-5--1010/--22--2-2-2-|--33/--55-555--10--1010-101010-1010910-----|
E|--11/--33--3-3-3--8-8-/--00--0-0-0-|--11/--33-333--8---8-8---8-8-8-8-8-78------|


Guitar 1
e|-------------|-------------|-------------|-------------|------------|
B|-------------|-------------|-------------|-------------|------------|
G|-------------|-------------|-------------|-------------|------------|
D|----5---7/5--|----5---7/5--|----5---7/5--|----5---7/5--|----5---/7--|
A|----5---7/5--|----5---7/5--|----5---7/5--|----5---7/5--|----5---/7--|
E|--003-005/3--|--003-005/3--|--003-005/3--|--003-005/3--|--003-00/5--|
PM ...  ..        ..  ..        ..  ..        ..  ..        ..  ..

e|-------------|-------------|-------------|-------------|------------|
B|-------------|-------------|-------------|-------------|------------|
G|-------------|-------------|-------------|-------------|------------|
D|----5---7/5--|----5---7/5--|----5---7/5--|----5---7/5--|----5---/7--|
A|----5---7/5--|----5---7/5--|----5---7/5--|----5---7/5--|----5---/7--|
E|--003-005/3--|--003-005/3--|--003-005/3--|--003-005/3--|--003-00/5--|
PM ...  ..        ..  ..        ..  ..        ..  ..        ..  ..

e|-------------|-------------|-------------|-------------|------------|
B|-------------|-------------|-------------|-------------|------------|
G|-------------|-------------|-------------|-------------|------------|
D|----5---7/5--|----5---7/5--|----5---7/5--|----5---7/5--|----5---/7--|
A|----5---7/5--|----5---7/5--|----5---7/5--|----5---7/5--|----5---/7--|
E|--003-005/3--|--003-005/3--|--003-005/3--|--003-005/3--|--003-00/5--|
PM ...  ..        ..  ..        ..  ..        ..  ..        ..  ..

e|-------------|-----|
B|-------------|-----|
G|-------------|-----|
D|----5---7/5--|--2--|
A|----5---7/5--|--2--|
E|--003-005/3--|--0--|
PM ...  ..  
comments
We did not receive enough feedback on this tab! Please rate:
1 2 3 4 5
I want to post or [tab]
guest
You may want to rate the tab now too:
select rating
Please do not post tabs as comments. Select "correction" instead!