Oops, an error
Loading. Please wait.

The Hero Without A Name Tab

ver2
ver2

Whole song

More versions @911Tabs.com
2,445 views 3 this week
no commentswrite comment
1 2 3 4 5
accurate
x 1
Autoscroll
+/-
esc
set tempo
stop
Contributor
Hey! There's an official Ultimate Guitar app which is ideal
for learning songs when you're away from computer. Get the app
WARNING: You are trying to view
                                    content from Ultimate-Guitar.com
                                    in an unauthorized application,
                                    which is prohibited.

                                    Please use an official Ultimate
                                    Guitar Tabs application for iPhone,
                                    iPad or Android to access legitimate
                                    chords, guitar, bass, and drum tabs
                                    from Ultimate-Guitar.com database.

                                    Type "ultimate guitar tabs" in Apple
                                    App Store's or Android Market's
                                    search to find the application.
e-------------------------------------------------|
b-------------------------------------------------|
g---------7-------9-s11-9-------7-------9-7-------|
d---9-7-9-7-9-7-9-9-s11-9-9-7-9-7-9-7-9-9-7-7-8-9-|
a---9-7-9---9-7-9---------9-7-9---9-7-9-----7-8-9-|
e-------------------------------------------------|


1-------------------------------------|
2-------------------------------------|
3---------7-------9-s11-9-------7-----|
4---9-7-9-7-9-7-9-9-s11-9-9-7-9-7-9-7-|
5---9-7-9---9-7-9---------9-7-9---9-7-|
6-------------------------------------|

1--------------------------------------------------|
2--------------------------------------------------|
3-7-7-7-6------------------------------7-7-7-6-6-6-|
4-7-7-7-6------9-9-9-9-5-5-5-5-7-7-7-7-7-7-7-6-6-6-|
5-5-5-5-4------9-9-9-9-5-5-5-5-7-7-7-7-5-5-5-4-4-4-|
6--------------7-7-7-7-3-3-3-3-5-5-5-5-------------|

1-----------------------------------------|
2-----------------------------------------|
3-----------------------------7-7-7-6-6-6-|
4-----9-9-9-9-5-5-5-5-7-7-7-7-7-7-7-6-6-6-|
5-----9-9-9-9-5-5-5-5-7-7-7-7-5-5-5-4-4-4-|
6-----7-7-7-7-3-3-3-3-5-5-5-5-------------|


1-------------------------------------------------|
2-------------------------------------------------|
3---------7-------9-s11-9-------7-------9-7-------|
4---9-7-9-7-9-7-9-9-s11-9-9-7-9-7-9-7-9-9-7-7-8-9-|
5---9-7-9---9-7-9---------9-7-9---9-7-9-----7-8-9-|
6-------------------------------------------------|


1-----------------------------------------------|
2-----------------------------------------------|
3---------7-------9-s11-9-------7--------9-9-7--|
4---9-7-9-7-9-7-9-9-s11-9-9-7-9-7--9-7-9-9-9-7-9|
5---9-7-9---9-7-9---------9-7-9----9-7-9-------9|
6-----------------------------------------------|

1------------------------------------------------|
2------------------------------------------------|
3------------------------------------------------|
4---9~-------------------------------------------|
5---9~-------------------------------------------|
6---7~-------------------------------------------|

1--------------------------------------------------|
2--------------------------------------------------|
3--------------------------------------------------|
4---7---9~-----------------------------------------|
5---7-/-9~-----------------------------------------|
6---5---7~-----------------------------------------|

1---------------------------------------------------|
2---------------------------------------------------|
3---------------------------------------------------|
4---5-5-5-5-5-5-5-5-7-7-7-7-7-7-7-7-4-4-4-4-4-4-4-4-|
5---5-5-5-5-5-5-5-5-7-7-7-7-7-7-7-7-4-4-4-4-4-4-4-4-|
6---3-3-3-3-3-3-3-3-5-5-5-5-5-5-5-5-2-2-2-2-2-2-2-2-|

1------------------------------------------------|
2------------------------------------------------|
3--4-4-4-4-4-4-4-4-------------------------------|
4--4-4-4-4-4-4-4-4-5~--7~--4~--------------------|
5--2-2-2-2-2-2-2-2-5~--7~--4~--------------------|
6------------------3~--5~--2~--------------------|

1------------------------------------------------|
2------------------------------------------------|
3--4---------------------------------------------|
4--4---------------------------------------------|
5--2---------------------------------------------|
6------------------------------------------------|

1------------------------------------------------|
2------------------------------------------------|
3------------------------------------------------|
4--7---9-----------------------------------------|
5--7-/-9-----------------------------------------|
6--5---7-----------------------------------------|

1--------------------------------------------------|
2--------------------------------------------------|
3--------------------------------------------------|
4--5-5-5-5-5-5-5-5-5-5-5-5-5-5-5-5-4-4-4-4-4-4-4-4-|
5--5-5-5-5-5-5-5-5-5-5-5-5-5-5-5-5-4-4-4-4-4-4-4-4-|
6--3-3-3-3-3-3-3-3-3-3-3-3-3-3-3-3-2-2-2-2-2-2-2-2-|

1------------------------------------------------|
2------------------------------------------------|
3-4-4-4-4-4-4-4-4--------------------------------|
4-4-4-4-4-4-4-4-4--------------------------------|
5-2-2-2-2-2-2-2-2--------------------------------|
6-----------------3~-5~-6~-----------------------|

1-----------------------------------------|
2-----------------------------------------|
3-----------------------------7-7-7-6-6-6-|
4-----9-9-9-9-5-5-5-5-7-7-7-7-7-7-7-6-6-6-|
5-----9-9-9-9-5-5-5-5-7-7-7-7-5-5-5-4-4-4-|
6-----7-7-7-7-3-3-3-3-5-5-5-5-------------|

1-----------------------------------------|
2-----------------------------------------|
3-----------------------------7-7-7-6-6-6-|
4-----9-9-9-9-5-5-5-5-7-7-7-7-7-7-7-6-6-6-|
5-----9-9-9-9-5-5-5-5-7-7-7-7-5-5-5-4-4-4-|
6-----7-7-7-7-3-3-3-3-5-5-5-5-------------|

1-----------------------------------------|
2-----------------------------------------|
3----------------------7-7----------------|
4-----9-9---5-5---7-7--7-7----------------|
5-----9-9---5-5---7-7--5-5----------------|
6-----7-7---3-3---5-5---------------------|

1-----------------------------------------|
2-----------------------------------------|
3----------------------7------------------|
4-----9-9---5-5---7-7--7------------------|
5-----9-9---5-5---7-7--5------------------|
6-----7-7---3-3---5-5---------------------|

1-----------------------------------------|
2-----------------------------------------|
3----------------------7-7----------------|
4-----9-9---5-5---7-7--7-7----------------|
5-----9-9---5-5---7-7--5-5----------------|
6-----7-7---3-3---5-5---------------------|

1-----------------------------------------|
2-----------------------------------------|
3-----------------------------------------|
4-----5-5---7-7--9------------------------|
5-----5-5---7-7--9------------------------|
6-----3-3---5-5--7------------------------|


1-------------------------------------------------|
2-------------------------------------------------|
3---------7-------9-s11-9-------7-------9-7-------|
4---9-7-9-7-9-7-9-9-s11-9-9-7-9-7-9-7-9-9-7-7-8-9-|
5---9-7-9---9-7-9---------9-7-9---9-7-9-----7-8-9-|
6-------------------------------------------------|

1--------------------------------------------|
2--------------------------------------------|
3---------7-------9-s11-9-------7------------|
4---9-7-9-7-9-7-9-9-s11-9-9-7-9-7-9-7-9-7-5-4|
5---9-7-9---9-7-9---------9-7-9---9-7-9-7-5-4|
6-------------------------------------7-5-3-2|

1------------------------------------------------|
2------------------------------------------------|
3------------------------------------------------|
4---9~-------------------------------------------|
5---9~-------------------------------------------|
6---7~-------------------------------------------|

1-------------------------------------------------------------------|
2-------------------------------------------------------------------|
3-----7---7-7-9-7---7---7-7--------7---7-7-9-7-9-/-11-9-7-9-7-9-7-9-|
4---9-7-9-7-7-9-7-9-7-9-7-7-7-9--9-7-9-7-7-9-7-9-/-11-9-7-9-7-9-7-9-|
5---9---9---------9---9-----7-9--9---9------------------------------|
6-------------------------------------------------------------------|

1--------------------------------------------------|
2--------------------------------------------------|
3--------------------------------------------------|
4--5-5-5-5-5-5-5-5-5-5-5-5-5-5-5-5-4-4-4-4-4-4-4-4-|
5--5-5-5-5-5-5-5-5-5-5-5-5-5-5-5-5-4-4-4-4-4-4-4-4-|
6--3-3-3-3-3-3-3-3-3-3-3-3-3-3-3-3-2-2-2-2-2-2-2-2-|

1------------------------------------------------|
2------------------------------------------------|
3-4-4-4-4-4-4-4-4--------------------------------|
4-4-4-4-4-4-4-4-4-5~-7~-8~-----------------------|
5-2-2-2-2-2-2-2-2-5~-7~-8~-----------------------|
6-----------------3~-5~-6~-----------------------|

1-----------------------------------------|
2-----------------------------------------|
3-----------------------------7-7-7-6-6-6-|
4-----9-9-9-9-5-5-5-5-7-7-7-7-7-7-7-6-6-6-|
5-----9-9-9-9-5-5-5-5-7-7-7-7-5-5-5-4-4-4-|
6-----7-7-7-7-3-3-3-3-5-5-5-5-------------|

1-----------------------------------------|
2-----------------------------------------|
3-----------------------------7-7-7-6-6-6-|
4-----9-9-9-9-5-5-5-5-7-7-7-7-7-7-7-6-6-6-|
5-----9-9-9-9-5-5-5-5-7-7-7-7-5-5-5-4-4-4-|
6-----7-7-7-7-3-3-3-3-5-5-5-5-------------|

1-----------------------------------------|
2-----------------------------------------|
3----------------------7-7----------------|
4-----9-9---5-5---7-7--7-7----------------|
5-----9-9---5-5---7-7--5-5----------------|
6-----7-7---3-3---5-5---------------------|

1-----------------------------------------|
2-----------------------------------------|
3----------------------7------------------|
4-----9-9---5-5---7-7--7------------------|
5-----9-9---5-5---7-7--5------------------|
6-----7-7---3-3---5-5---------------------|

1-----------------------------------------|
2-----------------------------------------|
3----------------------7-7----------------|
4-----9-9---5-5---7-7--7-7----------------|
5-----9-9---5-5---7-7--5-5----------------|
6-----7-7---3-3---5-5---------------------|

1-----------------------------------------|
2-----------------------------------------|
3-----------------------------------------|
4-----5-5---7-7--9------------------------|
5-----5-5---7-7--9------------------------|
6-----3-3---5-5--7------------------------|

1---------------------------------------------------------|
2--7~--5-/-7-5---5---------7-/-10-8-------------7-9-7-9---|
3--------------7---7-7-6-7----------11-7----7-9-7-9-7-9---|
4-----------------------------------------9-7-9-----------|
5-----------------------------------------9---------------|
6---------------------------------------------------------|

1---------------------------------------------9----11----12----11----9----11----12----14~|
2--------------------------------------7-/-10---10----10----10----10---10----10----------|
3-11-11-9-9-7-7-9-9-7-7-6-6-7-6-7-6------------------------------------------------------|
4-----------------------------------7----------------------------------------------------|
5-9--9--7-7-5-5-7-7-5-5-4-4-5-4-5-4------------------------------------------------------|
6-----------------------------------5----------------------------------------------------|

1-----------------------------------------|
2-----------------------------------------|
3-----------------------------------------|
4-----9-9-9-9-5-5-5-5-7-7-7-7-------------|
5-----9-9-9-9-5-5-5-5-7-7-7-7-------------|
6-----7-7-7-7-3-3-3-3-5-5-5-5-------------|

1-----------------------------------------|
2-----------------------------------------|
3-----------------------------7-7-7-6-6-6-|
4-----9-9-9-9-5-5-5-5-7-7-7-7-7-7-7-6-6-6-|
5-----9-9-9-9-5-5-5-5-7-7-7-7-5-5-5-4-4-4-|
6-----7-7-7-7-3-3-3-3-5-5-5-5-------------|

1-----------------------------------------|
2-----------------------------------------|
3-----------------------------7-7-7-6-6-6-|
4-----9-9-9-9-5-5-5-5-7-7-7-7-7-7-7-6-6-6-|
5-----9-9-9-9-5-5-5-5-7-7-7-7-5-5-5-4-4-4-|
6-----7-7-7-7-3-3-3-3-5-5-5-5-------------|

1-----------------------------------------|
2-----------------------------------------|
3----------------------7-7----------------|
4-----9-9---5-5---7-7--7-7----------------|
5-----9-9---5-5---7-7--5-5----------------|
6-----7-7---3-3---5-5---------------------|

1-----------------------------------------|
2-----------------------------------------|
3----------------------7------------------|
4-----9-9---5-5---7-7--7------------------|
5-----9-9---5-5---7-7--5------------------|
6-----7-7---3-3---5-5---------------------|

1-----------------------------------------|
2-----------------------------------------|
3----------------------7-7----------------|
4-----9-9---5-5---7-7--7-7----------------|
5-----9-9---5-5---7-7--5-5----------------|
6-----7-7---3-3---5-5---------------------|

1-----------------------------------------|
2-----------------------------------------|
3-----------------------------------------|
4-----5-5---7-7--9------------------------|
5-----5-5---7-7--9------------------------|
6-----3-3---5-5--7------------------------|

e-------------------------------------------------|
b-------------------------------------------------|
g---------7-------9-s11-9-------7-------9-7-------|
d---9-7-9-7-9-7-9-9-s11-9-9-7-9-7-9-7-9-9-7-7-8-9-|
a---9-7-9---9-7-9---------9-7-9---9-7-9-----7-8-9-|
e-------------------------------------------------|


1------------------------------------------------|
2------------------------------------------------|
3---------7-------9-s11-9-/-11-9-7---7-----------|
4---9-7-9-7-9-7-9-9-s11-9-/-11-9-7-9-7-9-7-9-----|
5---9-7-9---9-7-9------------------9---9-7-9-----|
6------------------------------------------------|


1-------------------------------------|
2-------------------------------------|
3---------7-------9-9-----------------|
4---9-7-9-7-9-7-9-9-9-7-8-9-----------|
5---9-7-9---9-7-9-----7-8-9-----------|
6-------------------------------------|

comments
We did not receive enough feedback on this tab! Please rate:
print report bad tab
1 2 3 4 5
I want to post or [tab]
guest
You may want to rate the tab now too:
select rating
Please do not post tabs as comments. Select "correction" instead!