Oops, an error
Loading. Please wait.

Collide Tab

ver1
ver1

Intro

Whole song

Interactive

More versions @911Tabs.com
8,560 views 3 this week
11 commentsread comments
1 2 3 4 5
accurate
x 11
Autoscroll
+/-
esc
set tempo
stop
Contributor
Difficulty
Tuning
novice
D A D G B E
Hey! There's an official Ultimate Guitar app which is ideal
for learning songs when you're away from computer. Get the app
WARNING: You are trying to view
                                    content from Ultimate-Guitar.com
                                    in an unauthorized application,
                                    which is prohibited.

                                    Please use an official Ultimate
                                    Guitar Tabs application for iPhone,
                                    iPad or Android to access legitimate
                                    chords, guitar, bass, and drum tabs
                                    from Ultimate-Guitar.com database.

                                    Type "ultimate guitar tabs" in Apple
                                    App Store's or Android Market's
                                    search to find the application.
-------------------------------------------------------------------------------
                             Collide - Anarchy Club
-------------------------------------------------------------------------------
Tabbed by:Dave291
Email:Guitarpunk291@yahoo.com

Tuning: Drop D

-thanks to Dark Raven X for the acoustic solo parts

Intro 
E|---------------------------------------------------------------------------|
B|---------------------------------------------------------------------------|
G|---------------------------------------------------------------------------|
D|--2-00-22-0-2-0-2----------2-00-22-0-2-0-2---------------------------------|
A|--2-00-22-0-2-0-2----------2-00-22-0-2-0-2---------------------------------|
D|--2-00-22-0-2-0-2----------2-00-22-0-2-0-2---------------------------------|
                      

E|---------------------------------------------------------------------------|
B|---------------------------------------------------------------------------|
G|---------------------------------------------------------------------------|
D|-2-00-22-0-2-0-2-0-2-0-2-00-22-0-2-0-2-0-2-0-------------------------------|
A|-2-00-22-0-2-0-2-0-2-0-2-00-22-0-2-0-2-0-2-0-------------------------------|
D|-2-00-22-0-2-0-2-0-2-0-2-00-22-0-2-0-2-0-2-0-------------------------------|

Verse 1 
E|---------------------------------------------------------------------------|
B|---------------------------------------------------------------------------|
G|---------------------------------------------------------------------------|
D|-2-00-22-0-2-0-2-0-2-0-2-00-22-0-2-0-2-0-2-0-------------------------------|
A|-2-00-22-0-2-0-2-0-2-0-2-00-22-0-2-0-2-0-2-0-------------------------------|
D|-2-00-22-0-2-0-2-0-2-0-2-00-22-0-2-0-2-0-2-0-------------------------------|
   * ** ** * * * * * * * * ** ** * * * * * * *

E|---------------------------------------------------------------------------|
B|---------------------------------------------------------------------------|
G|---------------------------------------------------------------------------|
D|-3-00-33-0-3-0-3-0-3-0-3-00-33-0-3-0-5-0-3-0-------------------------------|
A|-3-00-33-0-3-0-3-0-3-0-3-00-33-0-3-0-5-0-3-0-------------------------------|
D|-3-00-33-0-3-0-3-0-3-0-3-00-33-0-3-0-5-0-3-0-------------------------------|
     
E|---------------------------------------------------------------------------|
B|---------------------------------------------------------------------------|
G|---------------------------------------------------------------------------|
D|-2-00-22-0-2-0-2-0-2-0-2-00-22-0-2-0-2-0-2-0-------------------------------|
A|-2-00-22-0-2-0-2-0-2-0-2-00-22-0-2-0-2-0-2-0-------------------------------|
D|-2-00-22-0-2-0-2-0-2-0-2-00-22-0-2-0-2-0-2-0-------------------------------|
   * ** ** * * * * * * * * ** ** * * * * * * *

E|---------------------------------------------------------------------------|
B|---------------------------------------------------------------------------|
G|---------------------------------------------------------------------------|
D|-3-00-33-0-3-0-3-0-3-0-3-00-33-0-3-0-5-0-3-0-------------------------------|
A|-3-00-33-0-3-0-3-0-3-0-3-00-33-0-3-0-5-0-3-0-------------------------------|
D|-3-00-33-0-3-0-3-0-3-0-3-00-33-0-3-0-5-0-3-0-------------------------------|
     






Chorus 1
e|---------------------------------------------------------------------------|
B|---------------------------------------------------------------------------|
G|---------------------------------------------------------------------------|
D|--7-5-7-8-7-5-3-3--5-5-0 5-0--7-5-7-8-7-5-3-3--5-5-0-5-0-------------------|
A|--7-5-7-8-7-5-3-3--5-5-0-5-0--7-5-7-8-7-5-3-3--5-5-0-5-0-------------------|
D|--7-5-7-8-7-5-3-3--5-5-0-5-0--7-5-7-8-7-5-3-3--5-5-0-5-0-------------------|

e|---------------------------------------------------------------------------|
B|---------------------------------------------------------------------------|
G|---------------------------------------------------------------------------|
D|--7-5-7-8-7-5-3-3--5-5-0 5-3--7-5-7-8-7-5-3-3--5-5-0-----------------------|
A|--7-5-7-8-7-5-3-3--5-5-0-5-3--7-5-7-8-7-5-3-3--5-5-0-----------------------|
D|--7-5-7-8-7-5-3-3--5-5-0-5-3--7-5-7-8-7-5-3-3--5-5-0-----------------------|

Guitar fill x2 [is something like this]

e|--12-13p12--12h13p12-12h13h15p13p12-13-------------------------------------|
B|---------------------------------------------------------------------------|
G|---------------------------------------------------------------------------|
D|---------------------------------------------------------------------------|
A|---------------------------------------------------------------------------|
D|---------------------------------------------------------------------------|

Verse 2
E|---------------------------------------------------------------------------|
B|---------------------------------------------------------------------------|
G|---------------------------------------------------------------------------|
D|-2-00-22-0-2-0-2-0-2-0-2-00-22-0-2-0-2-0-2-0-------------------------------|
A|-2-00-22-0-2-0-2-0-2-0-2-00-22-0-2-0-2-0-2-0-------------------------------|
D|-2-00-22-0-2-0-2-0-2-0-2-00-22-0-2-0-2-0-2-0-------------------------------|
   * ** ** * * * * * * * * ** ** * * * * * * *

E|---------------------------------------------------------------------------|
B|---------------------------------------------------------------------------|
G|---------------------------------------------------------------------------|
D|-3-00-33-0-3-0-3-0-3-0-3-00-33-0-3-0-5-0-3-0-------------------------------|
A|-3-00-33-0-3-0-3-0-3-0-3-00-33-0-3-0-5-0-3-0-------------------------------|
D|-3-00-33-0-3-0-3-0-3-0-3-00-33-0-3-0-5-0-3-0-------------------------------|
     
E|---------------------------------------------------------------------------|
B|---------------------------------------------------------------------------|
G|---------------------------------------------------------------------------|
D|-2-00-22-0-2-0-2-0-2-0-2-00-22-0-2-0-2-0-2-0-------------------------------|
A|-2-00-22-0-2-0-2-0-2-0-2-00-22-0-2-0-2-0-2-0-------------------------------|
D|-2-00-22-0-2-0-2-0-2-0-2-00-22-0-2-0-2-0-2-0-------------------------------|
   * ** ** * * * * * * * * ** ** * * * * * * *

E|---------------------------------------------------------------------------|
B|---------------------------------------------------------------------------|
G|---------------------------------------------------------------------------|
D|-3-00-33-0-3-0-3-0-3-0-3-00-33-0-3-0-5-0-3-0-------------------------------|
A|-3-00-33-0-3-0-3-0-3-0-3-00-33-0-3-0-5-0-3-0-------------------------------|
D|-3-00-33-0-3-0-3-0-3-0-3-00-33-0-3-0-5-0-3-0-------------------------------|

Chorus 2
e|---------------------------------------------------------------------------|
B|---------------------------------------------------------------------------|
G|---------------------------------------------------------------------------|
D|--7-5-7-8-7-5-3-3--5-5-0 5-0--7-5-7-8-7-5-3-3--5-5-0-5-0-------------------|
A|--7-5-7-8-7-5-3-3--5-5-0-5-0--7-5-7-8-7-5-3-3--5-5-0-5-0-------------------|
D|--7-5-7-8-7-5-3-3--5-5-0-5-0--7-5-7-8-7-5-3-3--5-5-0-5-0-------------------|


e|---------------------------------------------------------------------------|
B|---------------------------------------------------------------------------|
G|---------------------------------------------------------------------------|
D|--7-5-7-8-7-5-3-3--5-5-0 5-3--7-5-7-8-7-5-3-3--5-5-0-----------------------|
A|--7-5-7-8-7-5-3-3--5-5-0-5-3--7-5-7-8-7-5-3-3--5-5-0-----------------------|
D|--7-5-7-8-7-5-3-3--5-5-0-5-3--7-5-7-8-7-5-3-3--5-5-0-----------------------|

Acoustic solo 
e|---------------------------------------------------------------------------|
B|---------------------------------------------------------------------------|
G|-------0----------0--------0---------0------0------------------------------|
D|-----7---------10--------5---------5------5---5-3--------------------------|
A|---5---------8---------3---------2----2/3----------------------------------|
D|---------------------------------------------------------------------------|

e|---------------------------------------------------------------------------|
B|---------------------------------------------------------------------------|
G|-------0----------0--------0---------0------0------------------------------|
D|-----7---------10--------5---------5------5---5-3--------------------------|
A|---5---------8---------3---------2----2/3----------------------------------|
D|---------------------------------------------------------------------------|

E|---------------------------------------------------------------------------|
B|---------------------------------------------------------------------------|
G|--------0-----0----------0------0----------0-----0---------0-------0-------|
D|------7-----7-----7---10-----10-----10---5-----5-----5---5-------5---5-3---|
A|----5-----5-----5---8------8------8----3-----3-----3---2-----2/3-----------|
D|---------------------------------------------------------------------------|

E|---------------------------------------------------------------------------|
B|---------------------------------------------------------------------------|
G|--------0-----0----------0------0----------0-----0---------0-------0-------|
D|------7-----7-----7---10-----10-----10---5-----5-----5---5-------5---5-3---|
A|----5-----5-----5---8------8------8----3-----3-----3---2-----2/3-----------|
D|---------------------------------------------------------------------------|

e|---------------------------------------------------------------------------|
B|---------------------------------------------------------------------------|
G|-----------[electric solo starts here]-------------------------------------|
D|--3-5----------------------------------------------------------------------|
A|--3-5----------------------------------------------------------------------|
D|--3-5----------------------------------------------------------------------|

Electric Solo
e|--17-17~--15-17-17-15-17-17-17--22-20-17-----------------------------------|
B|-----------------------------------------15b-15-13-13--17------------------|
G|---------------------------------------------------------------------------|
D|---------------------------------------------------------------------------|
A|---------------------------------------------------------------------------|
D|---------------------------------------------------------------------------|

e|---------------------------------------------------------------------------|
B|--13h15p13h15p13h17p13---10h13--17-17-17-17-17-17-17p13---15b--------------|
G|---------------------------------------------------------------------------|
D|---------------------------------------------------------------------------|
A|---------------------------------------------------------------------------|
D|---------------------------------------------------------------------------|

e|-----------10p8-----------------22b----------------------------------------|
B|---13-10-8-------10--13-10-13----------------------------------------------|
G|---------------------------------------------------------------------------|
D|---------------------------------------------------------------------------|
A|---------------------------------------------------------------------------|
D|---------------------------------------------------------------------------| 
Verse 3
E|---------------------------------------------------------------------------|
B|---------------------------------------------------------------------------|
G|---------------------------------------------------------------------------|
D|-2-00-22-0-2-0-2-0-2-0-2-00-22-0-2-0-2-0-2-0-------------------------------|
A|-2-00-22-0-2-0-2-0-2-0-2-00-22-0-2-0-2-0-2-0-------------------------------|
D|-2-00-22-0-2-0-2-0-2-0-2-00-22-0-2-0-2-0-2-0-------------------------------|
   * ** ** * * * * * * * * ** ** * * * * * * *

E|---------------------------------------------------------------------------|
B|---------------------------------------------------------------------------|
G|---------------------------------------------------------------------------|
D|-3-00-33-0-3-0-3-0-3-0-3-00-33-0-3-0-5-0-3-0-------------------------------|
A|-3-00-33-0-3-0-3-0-3-0-3-00-33-0-3-0-5-0-3-0-------------------------------|
D|-3-00-33-0-3-0-3-0-3-0-3-00-33-0-3-0-5-0-3-0-------------------------------|
     
E|---------------------------------------------------------------------------|
B|---------------------------------------------------------------------------|
G|---------------------------------------------------------------------------|
D|-2-00-22-0-2-0-2-0-2-0-2-00-22-0-2-0-2-0-2-0-------------------------------|
A|-2-00-22-0-2-0-2-0-2-0-2-00-22-0-2-0-2-0-2-0-------------------------------|
D|-2-00-22-0-2-0-2-0-2-0-2-00-22-0-2-0-2-0-2-0-------------------------------|
   * ** ** * * * * * * * * ** ** * * * * * * *

E|---------------------------------------------------------------------------|
B|---------------------------------------------------------------------------|
G|---------------------------------------------------------------------------|
D|-3-00-33-0-3-0-3-0-3-0-3-00-33-0-3-0-5-0-3-0-------------------------------|
A|-3-00-33-0-3-0-3-0-3-0-3-00-33-0-3-0-5-0-3-0-------------------------------|
D|-3-00-33-0-3-0-3-0-3-0-3-00-33-0-3-0-5-0-3-0-------------------------------|

Chorus 3
e|---------------------------------------------------------------------------|
B|---------------------------------------------------------------------------|
G|---------------------------------------------------------------------------|
D|--7-5-7-8-7-5-3-3--5-5-0 5-0--7-5-7-8-7-5-3-3--5-5-0-5-0-------------------|
A|--7-5-7-8-7-5-3-3--5-5-0-5-0--7-5-7-8-7-5-3-3--5-5-0-5-0-------------------|
D|--7-5-7-8-7-5-3-3--5-5-0-5-0--7-5-7-8-7-5-3-3--5-5-0-5-0-------------------|


e|---------------------------------------------------------------------------|
B|---------------------------------------------------------------------------|
G|---------------------------------------------------------------------------|
D|--7-5-7-8-7-5-3-3--5-5-0 5-3--7-5-7-8-7-5-3-3--5-5-0-----------------------|
A|--7-5-7-8-7-5-3-3--5-5-0-5-3--7-5-7-8-7-5-3-3--5-5-0-----------------------|
D|--7-5-7-8-7-5-3-3--5-5-0-5-3--7-5-7-8-7-5-3-3--5-5-0-----------------------|

[I haven’t figured out the part for guitar yet]

[this part is played under the lead guitar]
e|---------------------------------------------------------------------------|
B|---------------------------------------------------------------------------|
G|---------------------------------------------------------------------------|
D|--7-5-7-8-7-5-3-3--5-5-0 5-0--7-5-7-8-7-5-3-3--5-5-0-5-0-------------------|
A|--7-5-7-8-7-5-3-3--5-5-0-5-0--7-5-7-8-7-5-3-3--5-5-0-5-0-------------------|
D|--7-5-7-8-7-5-3-3--5-5-0-5-0--7-5-7-8-7-5-3-3--5-5-0-5-0-------------------|


e|---------------------------------------------------------------------------|
B|---------------------------------------------------------------------------|
G|---------------------------------------------------------------------------|
D|--7-5-7-8-7-5-3-3--5-5-0 5-3--7-5-7-8-7-5-3-3--5-5-0-----------------------|
A|--7-5-7-8-7-5-3-3--5-5-0-5-3--7-5-7-8-7-5-3-3--5-5-0-----------------------|
D|--7-5-7-8-7-5-3-3--5-5-0-5-3--7-5-7-8-7-5-3-3--5-5-0-----------------------|

Outro
E|---------------------------------------------------------------------------|
B|---------------------------------------------------------------------------|
G|---------------------------------------------------------------------------|
D|--2-00-22-0-2-0-2----------2-00-22-0-2-0-2---------------------------------|
A|--2-00-22-0-2-0-2----------2-00-22-0-2-0-2---------------------------------|
D|--2-00-22-0-2-0-2----------2-00-22-0-2-0-2---------------------------------|


| *  palm mute
| /  slide up
| \  slide down
| h  hammer-on
| p  pull-off
| ~  vibrato
| +  harmonic
| x  Mute note
===============================================================================
comments
print report bad tab
11 comments total. Showing first comments. show 1 bad comment
+2 reply
Dark Raven X wrote on August 24 2007, 12:02 pm

Nice one man, very cool indeed. Now for the rest of the bonus tracks. I'm looking at Drink Up. :3

+2 reply
Mr Lordi wrote on August 25 2007, 08:28 pm

hey can u tell me about what tempo its at. very nice tab btw

I want to post or [tab]
guest
You may want to rate the tab now too:
select rating
Please do not post tabs as comments. Select "correction" instead!