Oops, an error
Loading. Please wait.

Beloved Bass Tab

411 views 1 this week
no commentswrite comment
1 2 3 4 5
please rate
Autoscroll
+/-
esc
set tempo
stop
Contributor
Hey! There's an official Ultimate Guitar app which is ideal
for learning songs when you're away from computer. Get the app
WARNING: You are trying to view
                                    content from Ultimate-Guitar.com
                                    in an unauthorized application,
                                    which is prohibited.

                                    Please use an official Ultimate
                                    Guitar Tabs application for iPhone,
                                    iPad or Android to access legitimate
                                    chords, guitar, bass, and drum tabs
                                    from Ultimate-Guitar.com database.

                                    Type "ultimate guitar tabs" in Apple
                                    App Store's or Android Market's
                                    search to find the application.
G||-------------------|------------------|------------------|------------------|
D||-------------------|------------------|------------------|------------------|
A||-------------------|------------------|------------------|------------------|
E||----0--------------|------------------|------------------|------------------|


                                                                             
-------------------|------------------|------------------|------------------|
-------------------|------------------|------------------|------------------|
-------------------|------------------|------------------|------------------|
----0--------------|------------------|------------------|------------------|


                                                                             
-------------------|------------------|------------------|------------------|
-------------------|------------------|------------------|------------------|
-------------------|------------------|------------------|------------------|
----0--------------|------------------|------------------|------------------|


                                                                             
-------------------|------------------|------------------|------------------|
-------------------|------------------|------------------|------------------|
-------------------|------------------|------------------|------------------|
----0--------------|------------------|------------------|------------------|


                                                                           
------------------------|-----------------------|-------------------------|
------------------------|-----------------------|--0h-2-------------------|
------------------------|-----------------------|----------------------0--|
--0--0----0----0--0--0--|----0--0--0----0--0----|--------0--0----0--0-----|


                                                                            
--------------------------|------------------------|-----------------------|
--------------------------|------------------------|-----------------------|
----5--3--0--3/5-3--0--3--|------------------------|-----------------------|
--------------------------|--0--0----0----0--0--0--|----0--0--0----0--0----|


                                                                           
--------------------------|----------------------|------------------------|
--0h-2--------------------|----------------------|------------------------|
----------------------0/5-|----5--5--0--0--------|------------------------|
--------0--0----0--0------|----------------------|--0--0----0----0--0--0--|


                                                                             
-----------------------|-------------------------|--------------------------|
-----------------------|--0h-2-------------------|--------------------------|
-----------------------|----------------------0--|----5--3--0--3/5-3--0--3--|
----0--0--0----0--0----|--------0--0----0--0-----|--------------------------|


                                                                            
------------------------|-----------------------|--------------------------|
------------------------|-----------------------|--0h-2--------------------|
------------------------|-----------------------|----------------------0/5-|
--0--0----0----0--0--0--|----0--0--0----0--0----|--------0--0----0--0------|


                                                                            
----------------------|-------------------------|--------------------------|
----------------------|-------------------------|--------------------------|
----5--5--0--0--------|-------------------------|--------------------------|
----------------------|--0---0-0--0---0-0--2----|----2---2-2--2-2-2-2/3----|


                                                                                
--------------------------|--------------------------|-------------------------|
--------------------------|--------------------------|-------------------------|
--------------------------|--------------------------|-------------------------|
----3---3-3--3-3-3-3/5----|--5---5-5--3---3-3--3--2--|--0---0-0--0---0-0--2----|


                                                      
--------------------------|--------------------------|
--------------------------|--------------------------|
--------------------------|--------------------------|
----2---2-2--2-2-2-2/3----|----3---3-3--3-3-3-3/5----|


                                                                                
--------------------------|-------------------------|--------------------------|
--------------------------|-------------------------|--------------------------|
--------------------------|-------------------------|--------------------------|
--5---5-5--3---3-3--3--2--|--0---0-0--0---0-0--2----|----2---2-2--2-2-2-2/3----|


                                                                                
--------------------------|--------------------------|-------------------------|
--------------------------|--------------------------|-------------------------|
--------------------------|--------------------------|-------------------------|
----3---3-3--3-3-3-3/5----|--5---5-5--3---3-3--3--2--|--0---0-0--0---0-0--2----|


                                                      
--------------------------|--------------------------|
--------------------------|--------------------------|
--------------------------|--------------------------|
----2---2-2--2-2-2-2/3----|----3---3-3--3-3-3-3/5----|


                                                                               
-----------------------------|------------------------|-----------------------|
-----------------------------|------------------------|-----------------------|
-----------------------------|------------------------|-----------------------|
--5/10--10-10--10--7/--------|--0--0----0----0--0--0--|----0--0--0----0--0----|


                                                                              
-------------------------|--------------------------|------------------------|
--0h-2-------------------|--------------------------|------------------------|
----------------------0--|----5--3--0--3/5-3--0--3--|------------------------|
--------0--0----0--0-----|--------------------------|--0--0----0----0--0--0--|


                                                                          
-----------------------|--------------------------|----------------------|
-----------------------|--0h-2--------------------|----------------------|
-----------------------|----------------------0/5-|----5--5--0--0--------|
----0--0--0----0--0----|--------0--0----0--0------|----------------------|


                                                                           
------------------------|-----------------------|-------------------------|
------------------------|-----------------------|--0h-2-------------------|
------------------------|-----------------------|----------------------0--|
--0--0----0----0--0--0--|----0--0--0----0--0----|--------0--0----0--0-----|


                                                                            
--------------------------|------------------------|-----------------------|
--------------------------|------------------------|-----------------------|
----5--3--0--3/5-3--0--3--|------------------------|-----------------------|
--------------------------|--0--0----0----0--0--0--|----0--0--0----0--0----|


                                                                          
--------------------------|----------------------|-----------------------|
--0h-2--------------------|----------------------|-----------------------|
----------------------0/5-|----5--5--0--0--------|-----------------------|
--------0--0----0--0------|----------------------|--0----0--0----0--0----|


                                                                          
------------------------|------------------------|-----------------------|
------------------------|------------------------|-----------------------|
------------------------|------------------------|-----------------------|
--0----0--0----0--0--0--|--0----0--0----0--0--0--|--3----3--3----3--3----|


                                                                       
--------------------|----|----|----|----|----|----|-------------------|
--------------------|----|----|----|----|----|----|-------------------|
--------------------|----|----|----|----|----|----|-------------------|
--0--0--------------|----|----|----|----|----|----|----------------3--|


                                                                       
--------------------|----|----|----|----|----|----|-------------------|
--------------------|----|----|----|----|----|----|-------------------|
--------------------|----|----|----|----|----|----|-------------------|
--2--0--------------|----|----|----|----|----|----|----------------3--|


                                                                             
--------------------|----|----|-------------------|--------------------|----|
--------------------|----|----|-------------------|--------------------|----|
--------------------|----|----|-------------------|--------------------|----|
--2--0--------------|----|----|----------------3--|--2--0--------------|----|


                                                                        
----|----|-------------------|---------------------|-------------------|
----|----|-------------------|---------------------|-------------------|
----|----|-------------------|--5----5----5/-------|--0----------------|
----|----|--0----------------|---------------------|-------------------|


                                                                  
----------------------|--------------------|---------------------|
----------------------|--------------------|---------------------|
--3-------3-3------3--|-----------------2/-|--5----5----5/-------|
----------------------|--0-----------------|---------------------|


                                                               
--------------------|--------------------|--------------------|
--------------------|--------------------|--------------------|
--0--------------1/-|--3--------3--------|--------------------|
--------------------|--------------------|--0--------------0--|


                                                                           
------------------------|--------------------------|----------------------|
------------------------|--------------------------|----------------------|
------------------------|--------------------------|----------------------|
--0--0--0----5/8-----0--|--0--0--0----8/10-----10--|---10--8--8-----------|


                                                                          
---------------------|------------------------|--------------------------|
---------------------|------------------------|--------------------------|
---------------------|------------------------|--------------------------|
--0--------0------0--|--0--0--0----5/8-----0--|--0--0--0----8/10-----10--|


                                                                 
----------------------|-------------------|---------------------|
----------------------|-------------------|---------------------|
----------------------|-------------------|--5----5----5/-------|
---10--8--8-----------|--0----------------|---------------------|


                                                               
--------------------|---------------------|-------------------|
--------------------|---------------------|-------------------|
--0--------------2h-|--3-------3-------3--|-------------------|
--------------------|---------------------|--0----------------|


                                                               
---------------------|-------------------|--------------------|
---------------------|-------------------|--------------------|
--5----5----5/-------|--0----------------|--3--------3--------|
---------------------|-------------------|--------------------|


                                                                
---------------------|---------------------|-------------------|
---------------------|---------------------|-------------------|
------------------2/-|--5----5----5/-------|--0----------------|
--0--------0---------|---------------------|-------------------|


                                                                 
----------------------|-------------------|---------------------|
----------------------|-------------------|---------------------|
--3-------3-3------3--|-------------------|--5----5----5/-------|
----------------------|--0----------------|---------------------|


                                                                   
-------------------|---------------------|------------------------|
-------------------|---------------------|------------------------|
--0----------------|--3--------3------3--|------------------------|
-------------------|---------------------|--0--0--0--0----0--2----|


                                                                           
-----------------------|-----------------------|--------------------------|
-----------------------|-----------------------|--------------------------|
-----------------------|-----------------------|--------------------------|
----2--2----2--2--3----|----3--3----3--3--5----|--5---5-5--3---3-3--3--2--|


                                                                         
------------------------|-----------------------|-----------------------|
------------------------|-----------------------|-----------------------|
------------------------|-----------------------|-----------------------|
--0--0--0--0----0--2----|----2--2----2--2--3----|----3--3----3--3--5----|


                                                                                
--------------------------|-------------------------|--------------------------|
--------------------------|-------------------------|--------------------------|
--------------------------|-------------------------|--------------------------|
--5---5-5--3---3-3--3--2--|--0---0-0--0---0-0--2----|----2---2-2--2-2-2-2/3----|


                                                                                
--------------------------|--------------------------|-------------------------|
--------------------------|--------------------------|-------------------------|
--------------------------|--------------------------|-------------------------|
----3---3-3--3-3-3-3/5----|--5---5-5--3---3-3--3--2--|--0---0-0--0---0-0--2----|


                                                      
--------------------------|--------------------------|
--------------------------|--------------------------|
--------------------------|--------------------------|
----2---2-2--2-2-2-2/3----|----3---3-3--3-3-3-3/5----|


                                                                               
-----------------------------|------------------------|-----------------------|
-----------------------------|------------------------|-----------------------|
-----------------------------|------------------------|-----------------------|
--5/10--10-10--10--7/--------|--0--0----0----0--0--0--|----0--0--0----0--0----|


                                                                              
-------------------------|--------------------------|------------------------|
--0h-2-------------------|--------------------------|------------------------|
----------------------0--|----5--3--0--3/5-3--0--3--|------------------------|
--------0--0----0--0-----|--------------------------|--0--0----0----0--0--0--|


                                                                             
-----------------------|-------------------------|--------------------------|
-----------------------|--0h-2-------------------|--------------------------|
-----------------------|----------------------0--|----5--3--0--3/5-3--0--3--|
----0--0--0----0--0----|--------0--0----0--0-----|--------------------------|


                                                                           
------------------------|-----------------------|-------------------------|
------------------------|-----------------------|--0h-2-------------------|
------------------------|-----------------------|----------------------0--|
--0--0----0----0--0--0--|----0--0--0----0--0----|--------0--0----0--0-----|


                                                                            
--------------------------|------------------------|-----------------------|
--------------------------|------------------------|-----------------------|
----5--3--0--3/5-3--0--3--|------------------------|-----------------------|
--------------------------|--0--0----0----0--0--0--|----0--0--0----0--0----|


                                                                               
-------------------------|--------------------------|-------------------------|
--0h-2-------------------|--------------------------|-------------------------|
----------------------0--|----5--3--0--3/5-3--0--3--|-------------------------|
--------0--0----0--0-----|--------------------------|--0---0-0--0---0-0--2----|


                                                      
--------------------------|--------------------------|
--------------------------|--------------------------|
--------------------------|--------------------------|
----2---2-2--2-2-2-2/3----|----3---3-3--3-3-3-3/5----|


                                                                                
--------------------------|-------------------------|--------------------------|
--------------------------|-------------------------|--------------------------|
--------------------------|-------------------------|--------------------------|
--5---5-5--3---3-3--3--2--|--0---0-0--0---0-0--2----|----2---2-2--2-2-2-2/3----|


                                                            
--------------------------|--------------------------|----||
--------------------------|--------------------------|----||
--------------------------|--------------------------|----||
----3---3-3--3-3-3-3/5----|--5---5-5--3---3-3--3--2--|----||
comments
We did not receive enough feedback on this tab! Please rate:
print report bad tab
1 2 3 4 5
I want to post or [tab]
guest
You may want to rate the tab now too:
select rating
Please do not post tabs as comments. Select "correction" instead!