Oops, an error
Loading. Please wait.

Crestfallen Tab

ver2
ver2

Whole song

Interactive

More versions @911Tabs.com
490 views 3 this week
no commentswrite comment
1 2 3 4 5
worth learning
x 2
Autoscroll
+/-
esc
set tempo
stop
Contributor
Hey! There's an official Ultimate Guitar app which is ideal
for learning songs when you're away from computer. Get the app
WARNING: You are trying to view
                                    content from Ultimate-Guitar.com
                                    in an unauthorized application,
                                    which is prohibited.

                                    Please use an official Ultimate
                                    Guitar Tabs application for iPhone,
                                    iPad or Android to access legitimate
                                    chords, guitar, bass, and drum tabs
                                    from Ultimate-Guitar.com database.

                                    Type "ultimate guitar tabs" in Apple
                                    App Store's or Android Market's
                                    search to find the application.
================================================================================
                                A N A T H E M A

                                       -

                              C R E S T F A L L E N
================================================================================


                               THE CRESTFALLEN [EP]
                         (c)  Peaceville Records (1992)
                             http://www.anathema.ws/


                       Standard Tuning [7-String Guitars]
                                  B E A D G B E

                                  Tempo = 65 BPM
                              Time Signature = 4/4



                          -----------------------------
                                 Transcribed by

                                 PADDY MCMULLAN
                           stinkypoohpants@yahoo.co.uk

                                   Version 1.0
                                 18th April 2009
                             -----------------------

                             Tablature Symbols Used:


 P.M...    -  Palm Mute
 p         -  Pull-Off
 h         -  Hammer-On
 (/)       -  Legato Slide (Blank space indicates length of slide)
 \         -  Slide Down to/Down From (Blank space indicates length of slide)
 /         -  Slide Up To/Up From (Blank space indicates length of slide)
 ( )       -  Ghost Note/Tied Note/Implied Note
 REST      -  Rest and sustain rest for duration of blank space
 |_3_|     -  Triplet Notes
 |___[1]   -  Ending 1/2/3 etc.
 9b10r9    -  Bend note to the indicated pitch, then release
 3~~       -  Vibrato



================================================================================
Rest for 16 bars
================================================================================

================================================================================
Intro 1.1: Guitar 1 with Heavy Distortion (Play once) [ Tempo = 72 BPM ]
================================================================================


  1                       2                         3
||-----------------------|-------------------------|----------------------|
||-----------------------|-------------------------|----------------------|
||-----------------------|-------------------------|----------------------|
||-----------------------|-------------------------|----------------------|
||--5--(5/7)--7----------|-(7)--7--7--7----7----7--|--(7\5)--5------------|
||-----------------------|-------------------------|----------------------|
||-----------------------|-------------------------|----------------------|

 4                          5                      6
|--------------------------|----------------------|---------------------|
|--------------------------|----------------------|---------------------|
|--------------------------|----------------------|---------------------|
|--------------------------|----------------------|---------------------|
|-(5)--5--5--5----5----5h7-|--(5\3)--3------------|-(3)-------3------2--|
|--------------------------|----------------------|---------------------|
|--------------------------|----------------------|---------------------|

 7                      8                        9
|----------------------|------------------------|----------------------|
|----------------------|------------------------|----------------------|
|----------------------|------------------------|----------------------|
|----------------------|------------------------|----------------------|
|--(3/5)--5------------|-(5)-5--5--5----5----5--|--(5\3)--3------------|
|----------------------|------------------------|----------------------|
|----------------------|------------------------|----------------------|

 10                    11                     12                |_3_|
|---------------------|----------------------|-------------------------|
|---------------------|----------------------|-------------------------|
|---------------------|----------------------|-------------------------|
|---------------------|----------------------|-------------------------|
|-(3)-------3------3--|--(3\2)--2------------|-(2)-------2-----(2h3p2)-|
|---------------------|----------------------|-------------------------|
|---------------------|----------------------|-------------------------|

 13                    14                    15
|---------------------|---------------------|------------------------|
|---------------------|---------------------|------------------------|
|---------------------|---------------------|------------------------|
|---------------------|---------------------|------------------------|
|--2--0--0------------|-(0)-------0---------|------------------------|
|---------------------|------------------3--|--(5/6)-7--7------------|
|---------------------|------------------1--|--(3/4)-5--5------------|
                                        P.M
 16
|-------------||
|-------------||
|-------------||
|-------------||
|-------------||
|--(7)--------||
|--(5)--------||



================================================================================
Intro 1.2: Guitar 2 with Heavy Distortion (Play once)
================================================================================


  1                         2
||-------------------------|-----------------------------------|
||-------------------------|-----------------------------------|
||-------------------------|-----------------------------------|
||-------------------------|-----------------------------------|
||--9--(9/10)--10----------|-(10)--9h10--10--10--10------10h12-|
||-------------------------|-----------------------------------|
||-------------------------|-----------------------------------|

 3                         4                            5
|-------------------------|----------------------------|-----------------------|
|-------------------------|----------------------------|-----------------------|
|-------------------------|----------------------------|-----------------------|
|-------------------------|----------------------------|-----------------------|
|--10--(10\9)--9----------|-(9)-9--9--9--9------9h 10p | 9--(9\7)--7-----------|
|-------------------------|----------------------------|-----------------------|
|-------------------------|----------------------------|-----------------------|

 6                     7                       8
|---------------------|-----------------------|----------------------------|
|---------------------|-----------------------|----------------------------|
|---------------------|-----------------------|----------------------------|
|---------------------|-----------------------|----------------------------|
|-(7)-------7------5--|--7--(7/9)--9----------|-(9)-9--9--9--9------9b10r9-|
|---------------------|-----------------------|----------------------------|
|---------------------|-----------------------|----------------------------|

 9                       10                      11
|-----------------------|-----------------------|-----------------------|
|-----------------------|-----------------------|-----------------------|
|-----------------------|-----------------------|-----------------------|
|-----------------------|-----------------------|-----------------------|
|-(9)-(9\7)--7----------|-(7)------(5/7)-----5--|--7--(7/9)--9----------|
|-----------------------|-----------------------|-----------------------|
|-----------------------|-----------------------|-----------------------|

 12                         13                      14
|--------------------------|-----------------------|---------------------|
|--------------------------|-----------------------|---------------------|
|--------------------------|-----------------------|---------------------|
|--------------------------|-----------------------|---------------------|
|-(9)-9--9--9--9------9h10-|--9--(9\7)--7----------|-(7)-------7------7--|
|--------------------------|-----------------------|---------------------|
|--------------------------|-----------------------|---------------------|

 15                        16
|-------------------------|-------------------||
|-------------------------|-------------------||
|-------------------------|-------------------||
|-------------------------|-------------------||
|-(7/9)--10--10-----------|--(10)-------------||
|-------------------------|-------------------||
|-------------------------|-------------------||



================================================================================
Intro 1.3: Guitar 3 with Heavy Distortion (Play once)
================================================================================


  1                       2                          3
||-----------------------|--------------------------|----------------------|
||-----------------------|--------------------------|----------------------|
||-----------------------|--------------------------|----------------------|
||--7--7h9--9------------|-(9)-9--9--9----9----9-10-|--(9\7)--7------------|
||-----------------------|--------------------------|----------------------|
||-----------------------|--------------------------|----------------------|
||-----------------------|--------------------------|----------------------|

 4                            5                        6
|----------------------------|------------------------|---------------------|
|----------------------------|------------------------|---------------------|
|----------------------------|------------------------|---------------------|
|-(7)-(5/7)--7--7----7----7--|--(7/9)\5--5------------|-(5)-------5------4--|
|----------------------------|------------------------|---------------------|
|----------------------------|------------------------|---------------------|
|----------------------------|------------------------|---------------------|

 7                      8                        9
|----------------------|------------------------|------------------------|
|----------------------|------------------------|------------------------|
|----------------------|------------------------|------------------------|
|--(5/7)--7------------|-(7)-7--7--7----7----7--|--(7/9)\5--5------------|
|----------------------|------------------------|------------------------|
|----------------------|------------------------|------------------------|
|----------------------|------------------------|------------------------|

 10                    11                      12
|---------------------|-----------------------|-----------------------|
|---------------------|-----------------------|-----------------------|
|---------------------|-----------------------|-----------------------|
|-(5)-------5------5--|--7--4--4-----------4--|--1------1h2-4------4--|
|---------------------|-----------------------|-----------------------|
|---------------------|-----------------------|-----------------------|
|---------------------|-----------------------|-----------------------|

 13                       14                    15
|------------------------|---------------------|---------------------|
|------------------------|---------------------|---------------------|
|------------------------|---------------------|---------------------|
|--(4\2)/5--5------------|-(5)-------5------7--|--7--9--9------------|
|------------------------|---------------------|---------------------|
|------------------------|---------------------|---------------------|
|------------------------|---------------------|---------------------|

 16
|-------------------||
|-------------------||
|-------------------||
|--(9)--------------||
|-------------------||
|-------------------||
|-------------------||



================================================================================
Section 1.1: Guitar 1 (Play once) [ Tempo = 74 BPM ]
================================================================================


   1                     2                  3                  |_3__|
| |---------------------|----------------| |-----------------------------------|
| |---------------------|----------------| |-----------------------------------|
|3|---------------------|----------------|5|-----------------------------------|
|/|---------------------|----------------|/|-----------------------------------|
|4|---------------------|-----------7----|4|-----------9--10--(9h10p9)\7--9----|
| |--7--7h8--7--5--7----|--0-------------| |--8--------------------------------|
| |---------------------|----------------| |-----------------------------------|

   4                     5                              6
| |-------------------| |----------------------------| |----------------|
| |-------------------| |----------------------------| |----------------|
|3|-------------------|5|----------------------------|3|----------------|
|/|-------------------|/|----------------------------|/|----------------|
|4|-------------------|4|----------------------------|4|-----------7----|
| |--10------- \ 7----| |--8--------7--8--7--5--7----| |--0-------------|
| |-------------------| |----------------------------| |----------------|

   7                  |_3__|             8
| |-----------------------------------| |-------------------|
| |-----------------------------------| |-------------------|
|5|-----------------------------------|3|-------------------|
|/|-----------------------------------|/|-------------------|
|4|-----------9--10--(9h10p9)\7--9----|4|--------------7----|
| |--8--------------------------------| |--10-----  \-------|
| |-----------------------------------| |-------------------|

   9                              10
| |----------------------------| |----------------|
| |----------------------------| |----------------|
|5|----------------------------|3|----------------|
|/|----------------------------|/|----------------|
|4|----------------------------|4|-----------7----|
| |--8--------7--8--7--5--7----| |--0-------------|
| |----------------------------| |----------------|

   11                 |_3__|        |__3_|       12
| |-------------------------------------------| |-------------------|
| |-------------------------------------------| |-------------------|
|5|-------------------------------------------|3|-------------------|
|/|----------------------------------------7--|/|-------------------|
|4|-----------9--10--(9h10p9)\7--(9/10)--9----|4|--------------7----|
| |--8----------------------------------------| |--10-----  \-------|
| |-------------------------------------------| |-------------------|

   13                             14
| |----------------------------| |----------------|
| |----------------------------| |----------------|
|5|----------------------------|3|----------------|
|/|----------------------------|/|----------------|
|4|----------------------------|4|-----------7----|
| |--8--------7--8--7--5--7----| |--0-------------|
| |----------------------------| |----------------|


   15                 |_3__|      |_3__|        16
| |------------------------------------------| |-------------------|
| |------------------------------------------| |-------------------|
|5|------------------------------------------|3|-------------------|
|/|---------------------------------------7--|/|-------------------|
|4|-----------9--10--(9h10p9)\7--(9h10p9)----|4|--------------7----|
| |--8---------------------------------------| |--10-----  \-------|
| |------------------------------------------| |-------------------|

   17
| |-------------------------||
| |-------------------------||
|4|-------------------------||
|/|---------------*---------||
|4|---------3--3--4----5----||
| |--8------3--3--2----3----||
| |---------1--0--2----3----||
            ....



* At this point the tempo decreases to 64 BPM



================================================================================
Section 1.2: Guitar 2 (Play once)
================================================================================


   1               |_3__|   2
| |------------------------|------------------|
| |------------------------|------------------|
|3|------------------------|------------------|
|/|------------------------|------------------|
|4|--10-----------(9h10p9)\| -7--------7--10--|
| |------------------------|------------------|
| |------------------------|------------------|

   3                           |_3__|          4
| |-----------------------------------------| |---------------------|
| |-----------------------------------------| |---------------------|
|5|------------(9)--------------------------|3|---------------------|
|/|-------------9---7------9--(9h10p9)-9-10-|/|--------------9------|
|4|---------9-------------------------------|4|--9--------10---10-9-|
| |--8--10----------------------------------| |---------------------|
| |-----------------------------------------| |---------------------|

   5                                 6            |_3_|
| |-------------------------------| |-------------------------|
| |-------------------------------| |-------------------------|
|5|-------------------------------|3|-------------------------|
|/|---------------------7---------|/|------------(7h9p7)------|
|4|-(9\7)-------10-----------10-9-|4|--10----------------10-9-|
| |-------------------------------| |-------------------------|
| |-------------------------------| |-------------------------|

   7                           |_3__|         8
| |----------------------------------------| |---------------------|
| |----------------------------------------| |---------------------|
|5|------------(9)-------------------------|3|--------------7------|
|/|-------------9---7------9--(9h10p9)-----|/|---------------------|
|4|---------9--------------------------10--|4|--9--------10---10-9-|
| |--8--10---------------------------------| |---------------------|
| |----------------------------------------| |---------------------|

   9                                    10
| |----------------------------------| |-----------------|
| |----------------------------------| |-----------------|
|5|----------------------------------|3|-----------------|
|/|----------------------------------|/|------------9----|
|4|-(9\7)-------9--10--(9\7)--7h9----|4|--7--------------|
| |----------------------------------| |---------7-------|
| |----------------------------------| |-----------------|

   11                |_3_|                12
| |------------------------------------| |-------------------|
| |------------------------------------| |-------------------|
|5|------------------------------------|3|-------------------|
|/|--7--------7--9--(7h9p7)-----7------|/|-------------------|
|4|-------------------------10-----10--|4|--9--------10---  \|
| |------------------------------------| |-------------------|
| |------------------------------------| |-------------------|

   13                                 14
| |--------------------------------| |-----------------|
| |--------------------------------| |-----------------|
|5|--------------------------------|3|-----------------|
|/|--------------------------------|/|------------9----|
|4| -7--------9--10--(9\7)--7h9----|4|--7--------------|
| |--------------------------------| |---------7-------|
| |--------------------------------| |-----------------|

   15                |_3_|                16
| |------------------------------------| |-------------------|
| |------------------------------------| |-------------------|
|5|------------------------------------|3|-------------------|
|/|--7--------7--9--(7h9p7)-----7------|/|-------------------|
|4|-------------------------10-----10--|4|--9--------10  p 9-|
| |------------------------------------| |-------------------|
| |------------------------------------| |-------------------|

   17
| |----------------------------||
| |----------------------------||
|4|----------------------------||
|/|----------------------------||
|4|--10---  \--3--3--4----5----||
| |------------3--3--2----3----||
| |------------1--0--2----3----||
               ....



================================================================================
Section 1.3: Guitar 3 (Play once)
================================================================================


   1               2                  3
| |---------------|----------------| |-----------------------------|
| |---------------|----------------| |-----------------------------|
|3|---------------|----------------|5|-----------------------------|
|/|--9------------|----------------|/|-----------7-----------9h 10-|
|4|---------------|--10------------|4|--7--------------------------|
| |---------------|----------------| |-----------------------------|
| |---------------|----------------| |-----------------------------|

   4              |_3__|      5                          6
| |------------------------| |------------------------| |----------------|
| |------------------------| |------------------------| |----------------|
|3|------------------------|5|------------------------|3|----------------|
|/|------------------------|/|-----------9------------|/|----------------|
|4|--9--------9--(9h10p9)\ |4| -7---------------------|4|--10------------|
| |------------------------| |------------------------| |----------------|
| |------------------------| |------------------------| |----------------|

   7                             8                9                   |_3_|
| |---------------------------| |--------------| |---------------------------|
| |---------------------------| |--------------| |---------------------------|
|5|---------------------------|3|--------------|5|---------------------------|
|/|-----------7------7--7--7--|/|--------------|/|---------9---------(7h9p7)-|
|4|--7------------------------|4|--9------9----|4|--7------------------------|
| |---------------------------| |--------------| |---------------------------|
| |---------------------------| |--------------| |---------------------------|

   10            |_3__|      11                           12
| |-----------------------| |--------------------------| |-------------------|
| |-----------------------| |--------------------------| |-------------------|
|3|-----------------------|5|--------------------------|3|-------------------|
|/|-----------------------|/|-----------7---------7h 9-|/|-------------------|
|4|--10---------(9h10p9)\ |4| -7-----------------------|4|--9--------10--- \ |
| |-----------------------| |--------------------------| |-------------------|
| |-----------------------| |--------------------------| |-------------------|

   13                      |_3_|     14              |_3__|
| |-------------------------------| |-------------------------|
| |-------------------------------| |-------------------------|
|5|-------------------------------|3|-------------------------|
|/|-----------9-----------(7h9p7)-|/|-------------------------|
|4| -7----------------------------|4|--10-----------(9h10p9)\ |
| |-------------------------------| |-------------------------|
| |-------------------------------| |-------------------------|

   15                   |_3_|     16                      17
| |----------------------------| |---------------------| |--------------------||
| |----------------------------| |---------------------| |--------------------||
|5|----------------------------|3|---------------------|4|--------R-         -||
|/|----------7---------(7h9p7)-|/|---------------------|/|--------E-         -||
|4|--7-------------------------|4|--9--------9--9h 10--|4|--10----S-         -||
| |----------------------------| |---------------------| |--------T-         -||
| |----------------------------| |---------------------| |--------------------||



================================================================================
Section 2 - Part I: Guitars 1 & 2 (Play twice)
================================================================================


---------
Guitar 1:
---------


||-------------------|-------------------------|-------------------|
||-------------------|-------------------------|-------------------|
||-------------------|-------------------------|-------------------|
||-------------------|-------------------------|-------------------|
||--2----------------|-(2)-----------4----5----|--2----------------|
||--0----------------|-(0)-----2--2--2----3----|--0----------------|
||-------------------|---------0--0--2----3----|-------------------|
                               ....

|--------------------------| |
|--------------------------| |
|--------------------------|*|
|--------------------------| |
|-(2)-----------4----5-----|*|
|-(0)-----2--2--2----3-----| |
|---------0--0--2----3-----| |


---------
Guitar 2:
---------


||-----------------------|-------------------------|
||-----------------------|-------------------------|
||-----------------------|-------------------------|
||-----------------------|-------------------------|
||--2--------------------|---------------4----5----|
||--0-------(2/3)---2----|---------2--2--2----3----|
||-----------------------|--1------0--0--2----3----|
                                   ....

|-----------------------|---------------------------||
|-----------------------|---------------------------||
|-----------------------|---------------------------||
|-----------------------|---------------------------||
|--2--------------------|----------------4----5-----||
|--0-------(2/3)---2----|----------2--2--2----3-----||
|-----------------------|--3~~-----0--0--2----3-----||
                                   ....



================================================================================
Section 2 - Part II: Guitars 1 & 2 [ Tempo = 68 BPM ]
================================================================================


---------
Guitar 1:
---------


||------------------------|-------------------| |
||------------------------|-------------------| |
||-----------------R-    -|-                 -|*|
||-----------------E-    -|-                 -| | x 3
||-----------------S-    -|-                 -|*|
||--2--2--2--2--2--T-    -|-                 -| |
||--0--0--0--0--0---------|-------------------| |
    ..........

|-----------------------|-------------------------||
|-----------------------|-------------------------||
|-----------------------|-------------------------||
|-----------------------|---------------4----5----||
|--------------2--------|-(2)-----------4----5----||
|--2--2--2--2--2--------|-(2)-----2--2--2----3----||
|--0--0--0--0--0--------|-(0)-----0--0--2----3----||
   ..........                     ....



---------
Guitar 2:
---------


||-----------------------|-----------------------|
||-----------------------|-----------------------|
||-----------------------|-----------------------|
||-----------------------|-----------------------|
||----------(2/5)---4----|-------------4----5----|
||--0--------------------|--3~~-----0--2----3----|
||-----------------------|----------0--2----3----|
                                   ...

|-------------------------|-----------------------|-----------------------|
|-------------------------|-----------------------|-----------------------|
|-------------------------|-----------------------|-----------------------|
|-------------------------|-----------------------|-----------------------|
|----------(2/5)---4--5-4-|-------------4----5----|----------(2/5)---4----|
|--0----------------------|--5~~-----0--2----3----|--0--------------------|
|-------------------------|----------0--2----3----|-----------------------|
                                    ...


|-----------------------|---------------------------|
|-----------------------|---------------------------|
|-----------------------|---------------------------|
|-----------------------|---------------------------|
|-------------4----5----|----------(2/5)---(4 \ 2)--|
|--3~~-----0--2----3----|--0------------------------|
|----------0--2----3----|---------------------------|
          ...

|----------------------------||
|----------------------------||
|----------------------------||
|------------------4----5----||
|--2h4~~-----------4----5----||
|------------0--0--2----3----||
|------------0--0--2----3----||
             ....



================================================================================
Section 3.1: Guitar 1 (Play 4 times) [ Tempo = 72 BPM ]
================================================================================


||------------------------|-----------------------|
||------------------------|-----------------------|
||------------------------|-----------------------|
||------------------------|-------------4----5----|
||------------------------|-------------4----5----|
||--2--2--2--2--3----2----|----------2--2----3----|
||--0--0--0--0------------|--1~~-----0--2----3----|
    ..........                      ...

                             |___________________[1,2,3]
|----------------------------|------------------------||
|----------------------------|------------------------||
|----------------------------|------------------------||
|----------------------------|--------------4----5----||
|----------------------------|--------------4----5----||
|--2--2--2--2--3--2----------|--7--5-----2--2----3----||
|--0--0--0--0--------3~~-- /-|--------7--0--2----3----||
   ..........                           ...

|________________________[4]
|--------------------------||
|--------------------------||
|-----------------------R -||
|-----------------------E -||
|-----------------------S -||
|--7--5--------2--2--2--T -||
|--------7--0--0--0--0-----||
            .......



Over the course of this riff the tempo gradually increases to 76 BPM



================================================================================
Section 3.2: Guitar 2 (Repeats outlined below)
================================================================================


||------------------------|-----------------------|
||------------------------|-----------------------|
||------------------------|-----------------------|
||------------------------|-------------4----5----|
||------------------------|-------------4----5----|
||--2--2--2--2--3----2----|----------2--2----3----|
||--0--0--0--0------------|--1~~-----0--2----3----|
    ..........                      ...

|----------------------------|------------------------| |
|----------------------------|------------------------| |
|----------------------------|------------------------|*|
|----------------------------|--------------4----5----| | x 4
|----------------------------|--------------4----5----|*|
|--2--2--2--2--3--2----------|--7--5-----2--2----3----| |
|--0--0--0--0--------3~~-- /-|--------7--0--2----3----| |
   ..........                           ...


||------------------------|-----------------------|
||------------------------|-----------------------|
||------------------------|-----------------------|
||------------------------|-------------4----5----|
||--------------5----4----|-------------4----5----|
||--2--2--2--2------------|--3~------2--2----3----|
||--0--0--0--0------------|----------0--2----3----|
    ..........                      ...

                          |________________________[1]
|-------------------------|------------------------| |
|-------------------------|------------------------| |
|-------------------------|------------------------|*|
|-------------------------|--4--2--------4----5----| | x 2
|--------------5--4-------|--------4-----4----5----|*|
|--2--2--2--2--------5----|-----------2--2----3----| |
|--0--0--0--0-------------|-----------0--2----3----| |
   ..........                        ...

|---------------------------||
|---------------------------||
|------------------------R -||
|--4--2------------------E -||
|--------4-  \-----------S -||
|---------------2--2--2--T -||
|---------------0--0--0-----||
                ....



================================================================================
Section 4: Guitars 1 & 2 (Repeats outlined below) 
================================================================================


---------
Guitar 1: x 4
---------


||--------------------------------------|--------------------------------|
||--------------------------------------|--------------------------------|
||--------------------------------------|-----------------------------R -|
||--------------------------------------|-----------------------------E -|
||--------------------------------------|-----------------------------S -|
||--2--2--2--2--3~~---2--2--2--2--2~~---|--2--2--2--2--3~~---2--2--2--T -|
||--0--0--0--0--------0--0--0--0--------|--0--0--0--0--------0--0--0-----|
    ..........        ..........           ..........        ....

                                       |______________________________[1,2,3]
|--------------------------------------|----------------------------------| |
|--------------------------------------|----------------------------------| |
|--------------------------------------|-------------------------------R -|*|
|--------------------------------------|-------------------------------E -|*| 
|--------------------------------------|-------------------------------S -| |
|--2--2--2--2--3~~---2--2--2--2--5~~---|--2--2--2--2--7~~-  \-2--2--2--T -| |
|--0--0--0--0--------0--0--0--0--------|--0--0--0--0----------0--0--0-----| |
   ..........        ..........           ..........          ....


|______________________________[4]
|-------------------------------||
|-------------------------------||
|-------------------------------||
|---------------------*---------||
|---------------------4----5----||
|--2--2--2--2--7--  \-2----3----||
|--0--0--0--0--0------2----3----||
   ..........



* At this point the tempo decreases to 65 BPM



--------------------
Guitar 2: Part I x 2
--------------------


||--------------------------------------|--------------------------------|
||--------------------------------------|--------------------------------|
||--------------------------------------|-----------------------------R -|
||--------------------------------------|-----------------------------E -|
||--------------------------------------|-----------------------------S -|
||--2--2--2--2--3~~---2--2--2--2--2~~---|--2--2--2--2--3~~---2--2--2--T -|
||--0--0--0--0--------0--0--0--0--------|--0--0--0--0--------0--0--0-----|
    ..........        ..........           ..........        ....


|--------------------------------------|----------------------------------| |
|--------------------------------------|----------------------------------| |
|--------------------------------------|-------------------------------R -|*|
|--------------------------------------|-------------------------------E -|*| 
|--------------------------------------|-------------------------------S -| |
|--2--2--2--2--3~~---2--2--2--2--5~~---|--2--2--2--2--7~~-  \-2--2--2--T -| |
|--0--0--0--0--------0--0--0--0--------|--0--0--0--0----------0--0--0-----| |
   ..........        ..........           ..........          ....



---------------------
Guitar 2: Part II x 1
---------------------


||--------------------------------------|
||--------------------------------------|
||--------------------------------------|
||--------------------------------------|
||--------------------------------------|
||--------------7~~---------------9~~---|
||--0--0--0--0--------0--0--0--0--------|
    ..........        ..........

|-----------------------------------|--------------------------------------|
|-----------------------------------|--------------------------------------|
|--------------------------------R -|--------------------------------------|
|--------------------------------E -|--------------------------------------|
|--------------(7)--  \----------S -|--------------------------------------|
|---------------7~~-  \-2--2--2--T -|--------------7~~---------------9~~---|
|--0--0--0--0-----------0--0--0-----|--0--0--0--0--------0--0--0--0--------|
   ..........           ....           ..........        ..........

|-----------------------------------|
|-----------------------------------|
|--------------------------------R -|
|--------------------------------E -|
|--------------------------------S -|
|--------------10~~-  \-2--2--2--T -|
|--0--0--0--0-----------0--0--0-----|
   ..........           ....

|---------------------------------------|--------------------------------|
|---------------------------------------|--------------------------------|
|---------------------------------------|-----------------------------R -|
|---------------------------------------|-----------------------------E -|
|---------------------------------------|-----------------------------S -|
|--------------10~~---------------9~~---|--------------7~~---2--2--2--T -|
|--0--0--0--0---------0--0--0--0--------|--0--0--0--0--------0--0--0-----|
   ..........         ..........           ..........        ....

|---------------------------------------|--------------------------------||
|---------------------------------------|--------------------------------||
|---------------------------------------|--------------------------------||
|---------------------------------------|--------------------------------||
|---------------------------------------|----------------------4----5----||
|--------------10~~---------------9~~---|--------------14--  \-2----3----||
|--0--0--0--0---------0--0--0--0--------|--0--0--0--0----------2----3----||
   ..........         ..........           ..........



================================================================================
Guitars 1 & 2 play Section 3 four times [ Tempo = 70 - 78 BPM ]
================================================================================

================================================================================
Guitars 1 & 2 play Section 4 four times [ Tempo = 76 - 78 BPM ] with variations
================================================================================

================================================================================
Section 4 Variations: Guitar 1 & 2 [ Tempo = 86 BPM ]
================================================================================


The last bar of Section 4 is replaced with the following:


---------
Guitar 1:
---------


| |-------------------------------------------| |----------------------|
| |-------------------------------------------| |----------------------|
|6|-------------------------------------------|4|----------------------|
|/|-------------------------------------------|/|----------------------|
|4|---------------------------2----2--4--5----|4|--(5)-----------------|
| |--2--2--2--2--7--  \-2--3------------------| |---------------10\  --|
| |--0--0--0--0--0----------------------------| |---------------10\  --|



---------
Guitar 2:
---------


| |--------------------------------------------------| |-------------------|
| |--------------------------------------------------| |-------------------|
|6|--------------------------------------------------|4|-------------------|
|/|----------------------------4--------(4h5p4)\2----|/|--(2)--------------|
|4|----------------------4--5------------------------|4|-------------------|
| |--------------14--  \-----------------------------| |-------------------|
| |--0--0--0--0--------------------------------------| |-------------------|
     ..........



================================================================================
Section 5.1: Guitar 1 (Play once) [ Tempo gradually increases to 90 BPM ]
================================================================================


  1                           2
||---------------------------|-------------------|
||---------------------------|-------------------|
||---------------------------|-------------------|
||---------------------------|-------------------|
||-------(2  /  4)--5--------|-------------------|
||--2--3---------------5~~---|--(5)--------------|
||---------------------------|-------------------|

 3                          4                     5
|--------------------------|---------------------|--------------------|
|--------------------------|---------------------|--------------------|
|--------------------------|---------------------|--------------------|
|--------------------------|---------------------|--------------------|
|--5--4 \ 2----4--5--------|---------------------|--------------------|
|--------------------3~~---|--(3)----------9\  --|--4--------5--------|
|--------------------------|---------------9\  --|--2--------3--------|

 6                    7                         8
|--------------------|-------------------------|-------------------|
|--------------------|-------------------------|-------------------|
|--------------------|-------------------------|-------------------|
|--------------------|-------------------------|-------------------|
|--4--------2--------|--------2----2--4--5~~---|--(5)--------------|
|--2--------0--------|--2--3-------------------|-------------------|
|--------------------|-------------------------|-------------------|

 9                           10                  11
|---------------------------|-------------------|--------------------------|
|---------------------------|-------------------|--------------------------|
|---------------------------|-------------------|--------------------------|
|---------------------------|-------------------|--------------------------|
|--------(2  / 4)--5--------|-------------------|--5--4 \ 2----4--5--------|
|--2--3---------------5~~---|--(5)--------------|--------------------3~~---|
|---------------------------|-------------------|--------------------------|

 12                            13
|-----------------------------|--------------------|
|-----------------------------|--------------------|
|-----------------------------|--------------------|
|-----------------------------|--------------------|
|-----------------------------|--------------------|
|--(3)---------10\ -10\ -10\ -|--4--------5--------|
|--------------10\ -10\ -10\ -|--2--------3--------|

 14
|---------------------------------||
|---------------------------------||
|---------------------------------||
|-----------------------*---------||
|--4--------2-----------4----5----||
|--2--------0------10\ -2----3----||
|------------------10\ -2----3----||



* At this point the tempo decreases to 65 BPM



================================================================================
Section 5.2: Guitar 2 (Play once)
================================================================================


  1                           2
||---------------------------|-------------------|
||---------------------------|-------------------|
||---------------------------|-------------------|
||--4h5--4-------4-----------|-------------------|
||----------5-------5--4~~---|--(4)--------------|
||---------------------------|-------------------|
||---------------------------|-------------------|

 3                            4                      5
|----------------------------|----------------------|--------------------|
|----------------------------|----------------------|--------------------|
|----------------------------|----------------------|--------------------|
|--4h5--4--2----0------------|----------------------|--------------------|
|------------------4 \ 2~~---|--(2)-----------------|--------------------|
|----------------------------|---------------10\  --|--4--------5--------|
|----------------------------|---------------10\  --|--2--------3--------|

 6                    7                         8
|--------------------|-------------------------|-----------------------|
|--------------------|-------------------------|-----------------------|
|--------------------|-------------------------|-----------------------|
|--------------------|--0--2--4------5--(5/7)--|--(7)~~-----------  \--|
|--4--------2--------|-------------------------|-----------------------|
|--2--------0--------|-------------------------|-----------------------|
|--------------------|-------------------------|-----------------------|

 9                                 10
|---------------------------------|-------------------|
|---------------------------------|-------------------|
|---------------------------------|-------------------|
|----------4----5--(5h7p5)\2~~----|--(2)--------------|
|-(2/4)-5-------------------------|-------------------|
|---------------------------------|-------------------|
|---------------------------------|-------------------|

 11                             12
|------------------------------|-----------------------|
|------------------------------|-----------------------|
|------------------------------|-----------------------|
|--4h5--(4\2)------------------|-----------------------|
|---------------(4/5)-4--5~~---|--(5)----------7-5-4---|
|------------------------------|-----------------------|
|------------------------------|-----------------------|

 13                   14
|--------------------|------------------------------||
|--------------------|------------------------------||
|--------------------|------------------------------||
|--------------------|------------------------------||
|--------------------|--4--------2--------4----5----||
|--4--------5--------|--2--------0--------2----3----||
|--2--------3--------|--------------------2----3----||



================================================================================
Section 5 Lead Fills: Guitar 3 (Play once each)
================================================================================


-------
Fill 1: [Enter on bar 5 of Section 5]
-------


||-----------------------------|------------------------||
||-----------------------------|------------------------||
||-----------------------------|------------------------||
||-----------------------------|------------------------||
||--4~~-----7--7--4--(5 /9h10)-|--9~~----(5 / 7)~~------||
||-----------------------------|------------------------||
||-----------------------------|------------------------||



-------
Fill 2: [Enter on bar 13 of Section 5]
-------


||---------------------------|----------------------------------|
||---------------------------|----------------------------------|
||---------------------------|----------------------6~~---7~~---|
||---------------------------|------------7~~-------------------|
||--4~~-----5--7--4--5--10-7-|--9------5------------------------|
||---------------------------|----------------------------------|
||---------------------------|----------------------------------|


||---------------------||
||---------------------||
||--4~~----------------||
||---------------------||
||---------------------||
||---------------------||
||---------------------||



The last bar serves as a segue into the next section



================================================================================
Guitars 1 & 2 play Section 3 twice
================================================================================

================================================================================
Section 6: Guitars 1 & 2 (Play once) [ Tempo = 70 - 74 BPM ]
================================================================================


---------
Guitar 1:
---------


||-------------------|-------------------------|-----------------------|
||-------------------|-------------------------|-----------------------|
||-------------------|-------------------------|-----------------------|
||-------------------|---------------4----5----|-----------------------|
||--2----------------|-(2)-----------4----5----|--------------2--------|
||--0----------------|-(0)-----2--2--2----3----|--2--2--2--2--2--------|
||-------------------|---------0--0--2----3----|--0--0--0--0--0--------|
                               ....               ..........

|-------------------------|-------------------|-------------------------|
|-------------------------|-------------------|-------------------------|
|-------------------------|-------------------|-------------------------|
|---------------4----5----|-------------------|---------------4----5----|
|-(2)-----------4----5----|--2----------------|-(2)-----------4----5----|
|-(2)-----2--2--2----3----|--0----------------|-(0)-----2--2--2----3----|
|-(0)-----0--0--2----3----|-------------------|---------0--0--2----3----|
          ....                                          ....

|-----------------------|-----------||
|-----------------------|-----------||
|-----------------------|-----------||
|-----------------------|-----------||
|--------------2--------|--(2)------||
|--2--2--2--2--2--------|--(2)------||
|--0--0--0--0--0--------|--(0)------||
   ..........



---------
Guitar 2:
---------


||-----------------------|--------------------------|
||-----------------------|--------------------------|
||-----------------------|--------------------------|
||-----------------------|--------------------------|
||----------(2/5)---4----|----------------4----5----|
||--0--------------------|--3~~-----2--2--2----3----|
||-----------------------|----------0--0--2----3----|
                                    ....

|-----------------------|-------------------------|-----------------------|
|-----------------------|-------------------------|-----------------------|
|-----------------------|-------------------------|-----------------------|
|-----------------------|---------------4----5----|-----------------------|
|--------------2--------|-(2)-----------4----5----|----------(2/5)---4----|
|--2--2--2--2--2--------|-(2)-----2--2--2----3----|--0--------------------|
|--0--0--0--0--0--------|-(0)-----0--0--2----3----|-----------------------|
   ..........                     ....

|--------------------------|-----------------------|-----------||
|--------------------------|-----------------------|-----------||
|--------------------------|-----------------------|-----------||
|--------------------------|-----------------------|-----------||
|----------------4----5----|--------------2--------|-(2)-------||
|--5~~-----2--2--2----3----|--2--2--2--2--2--------|-(2)-------||
|----------0--0--2----3----|--0--0--0--0--0--------|-(0)-------||
           ....               ..........



================================================================================
Section 7.1: Guitar 1 (Play once) [ Tempo gradually increases to 80 BPM ]
================================================================================


  1                   2                3                  |_3_|
||-------------------|----------------|----------------------------------|
||-------------------|----------------|----------------------------------|
||-------------------|----------------|----------------------------------|
||-------------------|----------------|----------------------------------|
||-------------------|-----------2----|-----------4--5---(4h5p4)\2--4----|
||--2--3--2--0--2----|----------------|--3-------------------------------|
||-------------------|--0-------------|----------------------------------|

 4                  5                            6
|------------------|----------------------------|----------------|
|------------------|----------------------------|----------------|
|------------------|----------------------------|----------------|
|------------------|----------------------------|----------------|
|-------------2----|----------------------------|-----------2----|
|--5-----  \-------|--3--------2--3--2--0--2----|----------------|
|------------------|----------------------------|--0-------------|

 7                  |_3_|           8
|----------------------------------|------------------|
|----------------------------------|------------------|
|----------------------------------|------------------|
|----------------------------------|------------------|
|-----------4--5---(4h5p4)\2--4----|-------------2----|
|--3-------------------------------|--5-----  \-------|
|----------------------------------|------------------|

 9                            10
|----------------------------|----------------|
|----------------------------|----------------|
|----------------------------|----------------|
|----------------------------|----------------|
|----------------------------|-----------2----|
|--3--------2--3--2--0--2----|----------------|
|----------------------------|--0-------------|

 11                 |_3_|               12
|--------------------------------------|------------------|
|--------------------------------------|------------------|
|--------------------------------------|------------------|
|--------------------------------------|------------------|
|-----------4--5---(4h5p4)\2--4-5-4-7--|-------------2----|
|--3-----------------------------------|--5-----  \-------|
|--------------------------------------|------------------|

 13                           14
|----------------------------|----------------|
|----------------------------|----------------|
|----------------------------|----------------|
|----------------------------|----------------|
|----------------------------|-----------2----|
|--3--------2--3--2--0--2----|----------------|
|----------------------------|--0-------------|

 15                 |_3_|               16
|--------------------------------------|------------------|
|--------------------------------------|------------------|
|--------------------------------------|------------------|
|--------------------------------------|------------------|
|-----------4--5---(4h5p4)\2--4-5-4-7--|-------------2----|
|--3-----------------------------------|--5-----  \-------|
|--------------------------------------|------------------|

 17
|---------------------------||
|---------------------------||
|------------------------R -||
|------------------------E -||
|------------------------S -||
|--3----/12\  --2--2--2--T -||
|---------------0--0--0-----||
                ....



================================================================================
Section 7.2: Guitar 2 (Play once)
================================================================================


  1                   2
||-------------------|-----------------|
||-------------------|-----------------|
||-------------------|-----------------|
||-------------------|------------4----|
||--4--5--4--2--4----|--2--------------|
||-------------------|---------2-------|
||-------------------|-----------------|

 3                 |_3_|            4                |_3_|
|----------------------------------|------------------------|
|----------------------------------|------------------------|
|----------------------------------|------------------------|
|--2--------2--4--(2h4p2)-0--2--0--|------------------------|
|----------------------------------|--4~ -------5---(4h5p4)-|
|----------------------------------|------------------------|
|----------------------------------|------------------------|

 5                              6
|------------------------------|-----------------|
|------------------------------|-----------------|
|------------------------------|-----------------|
|------------------------------|------------4----|
|-----------4--5--4--2--4---5\ |--2------5-------|
|--3---------------------------|-----------------|
|------------------------------|-----------------|

 7                 |_3_|            8
|----------------------------------|--------------------|
|----------------------------------|--------------------|
|----------------------------------|--------------------|
|--2--------2--4--(2h4p2)-0--2--0--|--------------4-----|
|----------------------------------|--4~~-------5---5-4-|
|----------------------------------|--------------------|
|----------------------------------|--------------------|

 9                                10
|--------------------------------|-----------------|
|--------------------------------|-----------------|
|--------------------------------|-----------------|
|--------------------------------|-----------------|
|--(2    / 5)--5-----(5/7)--  \--|--2------2--5----|
|--------------------------------|-----------------|
|--------------------------------|-----------------|

 11                       |_3_|      12               |_3_|
|-----------------------------------|-------------------------|
|-----------------------------------|-------------------------|
|-----------------------------------|-------------------------|
|-----------4--2------4--(4h5p4)----|-------------------------|
|--------4-----------------------5--|--4~~-------5---(4h5p4) \|
|--3--5-----------------------------|-------------------------|
|-----------------------------------|-------------------------|

 13                             14
|------------------------------|------------------|
|------------------------------|------------------|
|------------------------------|------------------|
|------------------------------|--4--------2-4-5--|
|--2-------(4/5)-7----5----4-2-|------------------|
|------------------------------|------------------|
|------------------------------|------------------|

 15                                16
|---------------------------------|---------------------|
|---------------------------------|---------------------|
|-------------4-----(4/6)--6--6h7-|--9~~----- \ 7-7--6--|
|--7------5p4---------------------|---------------------|
|---------------------------------|---------------------|
|---------------------------------|---------------------|
|---------------------------------|---------------------|

17  |_3_|
|--------------------------------||
|--------------------------------||
|--(6h7p6)\ 4---- \-----------R -||
|-----------------------------E -||
|-----------------------------S -||
|--------------------2--2--2--T -||
|--------------------0--0--0-----||
                     ....



================================================================================
Section 7.3: Guitar 3 (Play once)
================================================================================


  1                2
||----------------|-------------------|
||----------------|-------------------|
||----------------|-------------------|
||--4~~-----------|-------------------|
||----------------|--5~~-------5--5-4-|
||----------------|-------------------|
||----------------|-------------------|

 3                            |_3_|   4
|------------------------------------|--------------------|
|------------------------------------|--------------------|
|------------------------------------|--------------------|
|--------------2~~-----0--2--(0h2p0)-|--------------------|
|--2~~-----2-4-----------------------|--4~~-----4--5--5-4-|
|------------------------------------|--------------------|
|------------------------------------|--------------------|

 5                           6
|---------------------------|---------------------|
|---------------------------|---------------------|
|---------------------------|---------------------|
|---------------------------|---------------------|
|--2--------9~~-------9  \ -|--5~~-------5--4-5-4-|
|---------------------------|---------------------|
|---------------------------|---------------------|

 7                           |_3_|   8
|-----------------------------------|--------------------|
|-----------------------------------|--------------------|
|-----------------------------------|--------------------|
|--------------2~~----------(0h2p0)-|--------------------|
|--2~~-----2-4----------------------|--4~~-----4--5--5-4-|
|-----------------------------------|--------------------|
|-----------------------------------|--------------------|

 9                                10
|--------------------------------|-----------------|
|--------------------------------|-----------------|
|--------------------------------|-----------------|
|--------------------------------|-----------------|
|--2------- / 9~~-----10--10- \ -|--5~~-------5----|
|--------------------------------|-----------------|
|--------------------------------|-----------------|

 11                                  12               |_3_|
|-----------------------------------|------------------------|
|-----------------------------------|------------------------|
|-----------------------------------|------------------------|
|-----------7--5------7--(7/9p7)-4--|--4~~-------5~~-(4h5p4)-|
|--2--4--7--------------------------|------------------------|
|-----------------------------------|------------------------|
|-----------------------------------|------------------------|

 13                             14
|------------------------------|----------------------|
|------------------------------|----------------------|
|------------------------------|--(4/6)~~------7--6p4-|
|------------4--7----5--5--4-2-|----------------------|
|--5~~-------------------------|----------------------|
|------------------------------|----------------------|
|------------------------------|----------------------|

 15                                 16
|----------------------------------|----------------------|
|----------------------------------|----------------------|
|--6------6-7-(7/9)----11--11--9p7-|-(9/12)~~------11--9--|
|----------------------------------|----------------------|
|----------------------------------|----------------------|
|----------------------------------|----------------------|
|----------------------------------|----------------------|

17  |_3__|
|------------------------------||
|------------------------------||
|--(9h11p9\7)~~---  \--R-     -||
|----------------------E-     -||
|----------------------S-     -||
|----------------------T-     -||
|------------------------------||



================================================================================
Outro: Guitars 1 & 2 (Repeats outlined below) [ Tempo = 78 - 84 BPM ]
================================================================================


---------
Guitar 1: x 4
---------


||--------------------------------------|--------------------------------|
||--------------------------------------|--------------------------------|
||--------------------------------------|-----------------------------R -|
||--------------------------------------|-----------------------------E -|
||--------------------------------------|-----------------------------S -|
||--2--2--2--2--3~~---2--2--2--2--2~~---|--2--2--2--2--3~~---2--2--2--T -|
||--0--0--0--0--------0--0--0--0--------|--0--0--0--0--------0--0--0-----|
    ..........        ..........           ..........        ....


|--------------------------------------|----------------------------------| |
|--------------------------------------|----------------------------------| |
|--------------------------------------|-------------------------------R -|*|
|--------------------------------------|-------------------------------E -|*| 
|--------------------------------------|-------------------------------S -| |
|--2--2--2--2--3~~---2--2--2--2--5~~---|--2--2--2--2--7~~-  \-2--2--2--T -| |
|--0--0--0--0--------0--0--0--0--------|--0--0--0--0----------0--0--0-----| |
   ..........        ..........           ..........          ....



--------------------
Guitar 2: Part I x 2
--------------------



||--------------------------------------|--------------------------------|
||--------------------------------------|--------------------------------|
||--------------------------------------|-----------------------------R -|
||--------------------------------------|-----------------------------E -|
||--------------------------------------|-----------------------------S -|
||--2--2--2--2--3~~---2--2--2--2--2~~---|--2--2--2--2--3~~---2--2--2--T -|
||--0--0--0--0--------0--0--0--0--------|--0--0--0--0--------0--0--0-----|
    ..........        ..........           ..........        ....


|--------------------------------------|----------------------------------| |
|--------------------------------------|----------------------------------| |
|--------------------------------------|-------------------------------R -|*|
|--------------------------------------|-------------------------------E -|*| 
|--------------------------------------|-------------------------------S -| |
|--2--2--2--2--3~~---2--2--2--2--5~~---|--2--2--2--2--7~~-  \-2--2--2--T -| |
|--0--0--0--0--------0--0--0--0--------|--0--0--0--0----------0--0--0-----| |
   ..........        ..........           ..........          ....



---------------------
Guitar 2: Part II x 1
---------------------


||---------------------------------------|
||---------------------------------------|
||---------------------------------------|
||---------------------------------------|
||---------------------------------------|
||--------------10~~---------------9~~---|
||--0--0--0--0---------0--0--0--0--------|
    ..........         ..........

|----------------------------------|---------------------------------------|
|----------------------------------|---------------------------------------|
|-------------------------------R -|---------------------------------------|
|-------------------------------E -|---------------------------------------|
|-------------------------------S -|---------------------------------------|
|--------------10-  \--2--2--2--T -|--------------10~~---------------5~~---|
|--0--0--0--0----------0--0--0-----|--0--0--0--0---------0--0--0--0--------|
   ..........          ....           ..........         ..........

|-----------------------------------|
|-----------------------------------|
|--------------------------------R -|
|--------------------------------E -|
|--------------(7)--  \----------S -|
|---------------7~~-  \-2--2--2--T -|
|--0--0--0--0-----------0--0--0-----|
   ..........           ....


|---------------------------------------|--------------------------------|
|---------------------------------------|--------------------------------|
|---------------------------------------|-----------------------------R -|
|---------------------------------------|-----------------------------E -|
|---------------------------------------|-----------------------------S -|
|--------------10~~---------------9~~---|--------------7~~---2--2--2--T -|
|--0--0--0--0---------0--0--0--0--------|--0--0--0--0--------0--0--0-----|
   ..........         ..........           ..........        ....


|----------------------------------------|
|----------------------------------------|
|----------------------------------------|
|----------------------------------------|
|----------------------------------------|
|--------------10~~---------------12~~---|
|--0--0--0--0---------0--0--0--0---------|
   ..........         ..........

|----------------------------------||
|----------------------------------||
|-------------------------------R -||
|-------------------------------E -||
|-------------------------------S -||
|--------------14--  \-2--2--2--T -||
|--0--0--0--0----------0--0--0-----||
   ..........          ....



================================================================================
End
================================================================================


Tab summary:        Intro x 1
                    Section 1 x 1
                    Section 2 x 2
                    Section 3 x 4
                    Section 4 x 4
                    Section 3 x 4
                    Section 4 w/ Variations x 4
                    Section 5 x 1 + Lead Fills
                    Section 3 x 2
                    Section 6 x 1
                    Section 7 x 1
                    Outro x 2
                    
                    END
comments
We did not receive enough feedback on this tab! Please rate:
print report bad tab
1 2 3 4 5
I want to post or [tab]
guest
You may want to rate the tab now too:
select rating
Please do not post tabs as comments. Select "correction" instead!