Oops, an error
Loading. Please wait.

Dreaming Light Tab

ver1
ver1

Whole song

Interactive

More versions @911Tabs.com
4,568 views 9 this week
no commentswrite comment
1 2 3 4 5
worth learning
x 2
add to favorites launch autoscroll
font size
0
reset
Autoscroll
+/-
esc
set tempo
stop
Contributor
Difficulty
Tuning
advanced
D# G# C# F# A# D#
WARNING: You are trying to view
                                    content from Ultimate-Guitar.com
                                    in an unauthorized application,
                                    which is prohibited.

                                    Please use an official Ultimate
                                    Guitar Tabs application for iPhone,
                                    iPad or Android to access legitimate
                                    chords, guitar, bass, and drum tabs
                                    from Ultimate-Guitar.com database.

                                    Type "ultimate guitar tabs" in Apple
                                    App Store's or Android Market's
                                    search to find the application.
================================================================================
                                A N A T H E M A

                                       -

                           D R E A M I N G   L I G H T
================================================================================


                          WE'RE HERE BECAUSE WE'RE HERE
                           (c) KScope Records (2010)
                             http://www.anathema.ws/


                              Tune down half a step:
                                 D# G# C# F# A# D#

                                  Tempo = 74 BPM
                              Time Signature = 4/4



                          -----------------------------
                                 Transcribed by

                                 PADDY MCMULLAN
                           pmtabs (@t) gmail [dot] com

                                   Version 1.1
                                20th January 2011
                     (Corrections Outlined at Bottom of Tab)
                             -----------------------

                             Tablature Symbols Used:


 (/)       -  Legato Slide (Blank space indicates length of slide)
 \         -  Slide Down to/Down From (Blank space indicates length of slide)
 /         -  Slide Up To/Up From (Blank space indicates length of slide)
 ( )       -  Ghost Note/Tied Note/Implied Note
 REST      -  Rest and sustain rest for duration of blank space
 |_3_|     -  Triplet Notes
 |___[1]   -  Ending 1/2/3 etc.
 3~~       -  Vibrato
 15>>      -  Volume Swell (Fade in)
 15<<      -  Volume Swell (Fade out)
 ///       -  Tremolo Picking



================================================================================
Rest for 3 bars
================================================================================

================================================================================
Lead Fill #1: Guitar 4 with Mild Overdrive and Delay
================================================================================


||---------------------|------------------------| |---------------|
||--15>>~~-------------|--(15)----(22>> \  20)--| |--(20 \15)-----|
||---------------------|------------------------|2|---------------|
||---------------------|------------------------|/|---------------|
||---------------------|------------------------|4|---------------|
||---------------------|------------------------| |---------------|


| |--------------------||
| |--(15)<<------------||
|4|--------------------||
|/|--------------------||
|4|--------------------||
| |--------------------||



Rest for 4 bars


| |------------| |-----------------15--|--15------14------------| |-----------||
| |--15>>------| |--(15)---------------|----------------15------| |--(15)<<---||
|2|------------|4|---------------------|------------------------|2|-----------||
|/|------------|/|---------------------|------------------------|/|-----------||
|4|------------|4|---------------------|------------------------|4|-----------||
| |------------| |---------------------|------------------------| |-----------||



================================================================================
Rest for 57 bars
================================================================================

================================================================================
Lead Fill #2: Guitar 4
================================================================================


* Let notes ring wherever possible *

||------------------10-10-|--10--10--10--10--10--10--10--10--||
||--R--        --8--8--8--|--7---7---7---7---7---7---7---7---||
||--E--        --0--------|--0---0---0---0---0---0---0---0---||
||--S--        --0--------|----------------------------------||
||--T--        -----------|----------------------------------||
||------------------------|----------------------------------||



Guitar 3 (Acoustic) plays the following chords, all strummed with down strokes:


||--3----3----3----3----|--2----2----2----2----||
||--3----3----3----3----|--3----3----3----3----||
||--2----2----2----2----|--2----2----2----2----||
||--0----0----0----0----|--0----0----0----0----||
||----------------------|----------------------||
||----------------------|----------------------||



================================================================================
Section 2.1: Guitar 1 with Heavy Distortion
================================================================================


Bar x overlaps with the last bar of Lead Fill #2

  x               1            2            3                  4
||--------------||------------|------------|------------------|------------|
||--------------||------------|------------|------------------|------------|
||--------------||------------|------------|------------------|------------|
||--7///>>------||--7///------|--5///------|--5///----0///----|--7///------|
||--------------||------------|------------|------------------|------------|
||--------------||------------|------------|------------------|------------|

 5                 6            7                 8
|-----------------|------------|-----------------|-----------------|
|-----------------|------------|-----------------|-----------------|
|-----------------|------------|-----------------|-----------------|
|--7///------9///-|--5///------|--5///---9///----|--7///---5///----|
|-----------------|------------|-----------------|-----------------|
|-----------------|------------|-----------------|-----------------|

 9                    10                   11
|--------------------|--------------------|-------------------|
|--------------------|--------------------|-------------------|
|--------------------|--------------------|--12///----7///----|
|--9-10-12///--------|--9-10-12///--------|-------------------|
|--------------------|--------------------|-------------------|
|--------------------|--------------------|-------------------|

 12                            13                          14
|-----------------------------|---------------------------|--------------|
|-----------------------------|---------------------------|--------------|
|---12///--11///--9///--7///--|--7///----5///-4///-0///---|--0///--------|
|-----------------------------|---------------------------|--------------|
|-----------------------------|---------------------------|--------------|
|-----------------------------|---------------------------|--------------|

 15                 16                 17
|------------------|------------------|--------------------|
|------------------|------------------|--------------------|
|--0///----4///----|--2///----0///----|--------------------|
|------------------|------------------|--9-10-12///--------|
|------------------|------------------|--------------------|
|------------------|------------------|--------------------|

 18                   19                  20
|--------------------|-------------------|--------------------|
|--------------------|-------------------|--------------------|
|--------------------|--12///----7///----|--14///----17///----|
|--9-10-12///--------|-------------------|--------------------|
|--------------------|-------------------|--------------------|
|--------------------|-------------------|--------------------|

 21                        22                       23
|-------------------------|------------------------|--------------------|
|-------------------------|------------------------|--------------------|
|--16///-14///-12///------|------------------------|-----------16///----|
|-------------------------|--12///------9///-10///-|--12///-------------|
|-------------------------|------------------------|--------------------|
|-------------------------|------------------------|--------------------|

 24                   25                    26
|--------------------|---------------------|---------------------|
|--------------------|--12-13-15///--------|--12-13-15///--------|
|--------------------|---------------------|---------------------|
|--14///----12///----|---------------------|---------------------|
|--------------------|---------------------|---------------------|
|--------------------|---------------------|---------------------|

 27                        28                   29
|--15///------------------|--------------------|------------------------|
|-----------15///---13-12-|--10///----13///----|--12///-10///-8///------|
|-------------------------|--------------------|------------------------|
|-------------------------|--------------------|------------------------|
|-------------------------|--------------------|------------------------|
|-------------------------|--------------------|------------------------|

 30                                 31           32
|--10--10--10--10--10--10--10--10--|--10--------|--(10)--------||
|--8---8---8---8---8---8---8---8---|--8---------|--(8 )--------||
|--0---0---0---0---0---0---0---0---|--0---------|--(0 )--------||
|----------------------------------|------------|--------------||
|----------------------------------|------------|--------------||
|----------------------------------|------------|--------------||



================================================================================
Section 2.2: Guitar 2 with Heavy Distortion
================================================================================


Bar x overlaps with the last bar of Lead Fill #2

  x               1            2            3                   4
||--------------||------------|------------|-------------------|------------|
||--------------||------------|------------|-------------------|------------|
||--14///>>-----||--14///-----|--12///-----|--12///----7///----|--14///-----|
||--------------||------------|------------|-------------------|------------|
||--------------||------------|------------|-------------------|------------|
||--------------||------------|------------|-------------------|------------|

 5                  6            7                    8
|------------------|------------|--------------------|--------------------|
|------------------|------------|--------------------|--------------------|
|--14///-----16///-|--12///-----|--12///----16///----|--14///----12///----|
|------------------|------------|--------------------|--------------------|
|------------------|------------|--------------------|--------------------|
|------------------|------------|--------------------|--------------------|

 9                    10                   11
|--------------------|--------------------|-------------------------|
|--------------------|--------------------|--20///------------------|
|--16-17-19///-------|--16-17-19///-------|-----------19///---17-16-|
|--------------------|--------------------|-------------------------|
|--------------------|--------------------|-------------------------|
|--------------------|--------------------|-------------------------|

 12                    13                        14
|---------------------|-------------------------|--------------------|
|---------------------|-------------------------|--------------------|
|---14///----17///----|--16///-14///-12///------|--7///----4///-5///-|
|---------------------|-------------------------|--------------------|
|---------------------|-------------------------|--------------------|
|---------------------|-------------------------|--------------------|

 15                  16                  17
|-------------------|--------------------|--------------------|
|-------------------|--------------------|--------------------|
|--7///----16///----|--14///----12///----|--16-17-19///-------|
|-------------------|--------------------|--------------------|
|-------------------|--------------------|--------------------|
|-------------------|--------------------|--------------------|

 18                   19                   20
|--------------------|--------------------|-----------20///----|
|--------------------|--20///-------------|--22///-------------|
|--16-17-19///-------|-----------19///----|--------------------|
|--------------------|--------------------|--------------------|
|--------------------|--------------------|--------------------|
|--------------------|--------------------|--------------------|

 21                        22                        23
|--19///-17///------------|-------------------------|-----------19///----|
|--------------20///------|--15///------12///-13///-|--15///-------------|
|-------------------------|-------------------------|--------------------|
|-------------------------|-------------------------|--------------------|
|-------------------------|-------------------------|--------------------|
|-------------------------|-------------------------|--------------------|

 24                             25                    26
|------------------------------|--19-20-22///--------|--19-20-22///--------|
|--20///--19///--17///--15///--|---------------------|---------------------|
|------------------------------|---------------------|---------------------|
|------------------------------|---------------------|---------------------|
|------------------------------|---------------------|---------------------|
|------------------------------|---------------------|---------------------|

 27                     28                   29
|--22///---------20-19-|--17///----20///----|--19///-17///-15///------|
|----------------------|--------------------|-------------------------|
|----------------------|--------------------|-------------------------|
|----------------------|--------------------|-------------------------|
|----------------------|--------------------|-------------------------|
|----------------------|--------------------|-------------------------|

 30                                 31           32
|--10--10--10--10--10--10--10--10--|--10--------|--(10)--------||
|--8---8---8---8---8---8---8---8---|--8---------|--(8 )--------||
|--0---0---0---0---0---0---0---0---|--0---------|--(0 )--------||
|----------------------------------|------------|--------------||
|----------------------------------|------------|--------------||
|----------------------------------|------------|--------------||



================================================================================
Section 2.3: Guitar 3 (Acoustic)
================================================================================


All chords are strummed with down strokes; notice the change in strumming from
bar 5 onwards.


  1                       2                       3
||-----2----2----2----2--|-----3----3----3----3--|-----3----3----3----2--|
||-----3----3----3----3--|-----3----3----3----3--|-----3----3----3----0--|
||-----0----0----0----0--|-----0----0----0----0--|-----0----0----0----0--|
||-----x----x----x----x--|-----2----2----2----2--|-----0----0----0----0--|
||-----2----2----2----2--|--3--3----3----3----3--|-----x----x----x----x--|
||--0--0----0----0----0--|-----------------------|--3--3----3----3----3--|

 4                       5
|-----2----2----2----2--|--------------------------|
|-----3----3----3----3--|-----0--3--3--3--3--3--3--|
|-----2----2----2----2--|-----0--0--0--0--0--0--0--|
|-----0----0----0----0--|-----2--2--2--2--2--2--2--|
|-----0----0----0----0--|-----2--2--2--2--2--2--2--|
|--2--2----2----2----2--|--0--0--0--0--0--0--0--0--|

 6                          7
|--3--3--3--3--3--3--3--3--|--------------------------|
|--3--3--3--3--3--3--3--3--|--3--3--3--3--3--3--3--3--|
|--0--0--0--0--0--0--0--0--|--2--2--2--2--2--2--2--2--|
|--2--2--2--2--2--2--2--2--|--0--0--0--0--0--0--0--0--|
|--3--3--3--3--3--3--3--3--|--0--0--0--0--0--0--0--0--|
|--------------------------|--------------------------|

 8                          9
|--------------------------|--3--3--3--3--3--3--3--3--|
|--3--3--3--3--3--3--3--3--|--3--3--3--3--3--3--3--3--|
|--2--2--2--2--2--2--2--2--|--0--0--0--0--0--0--0--0--|
|--0--0--0--0--0--0--0--0--|--2--2--2--2--2--2--2--2--|
|--2--2--2--2--2--2--2--2--|--3--3--3--3--3--3--3--3--|
|--------------------------|--------------------------|

 10                         11
|--------------------------|--------------------------|
|--3--3--3--3--3--3--3--3--|--3--3--3--3--3--3--3--3--|
|--0--0--0--0--0--0--0--0--|--2--2--2--2--2--2--2--2--|
|--2--2--2--2--2--2--2--2--|--0--0--0--0--0--0--0--0--|
|--2--2--2--2--2--2--2--2--|--0--0--0--0--0--0--0--0--|
|--0--0--0--0--0--0--0--0--|--------------------------|

 12                         13
|--------------------------|--3--3--3--3--3--3--3--3--|
|--3--3--3--3--3--3--3--3--|--3--3--3--3--3--3--3--3--|
|--2--2--2--2--2--2--2--2--|--0--0--0--0--0--0--0--0--|
|--0--0--0--0--0--0--0--0--|--2--2--2--2--2--2--2--2--|
|--2--2--2--2--2--2--2--2--|--3--3--3--3--3--3--3--3--|
|--------------------------|--------------------------|

 14                          15
|---------------------------|--------------------------|
|--3---3--3--3--3--3--3--3--|--3--3--3--3--3--3--3--3--|
|--0---0--0--0--0--0--0--0--|--2--2--2--2--2--2--2--2--|
|--2---2--2--2--2--2--2--2--|--0--0--0--0--0--0--0--0--|
|--2---2--2--2--2--2--2--2--|--0--0--0--0--0--0--0--0--|
|--0---0--0--0--0--0--0--0--|--------------------------|

 16                         17
|--------------------------|--3--3--3--3--3--3--3--3--|
|--3--3--3--3--3--3--3--3--|--3--3--3--3--3--3--3--3--|
|--2--2--2--2--2--2--2--2--|--0--0--0--0--0--0--0--0--|
|--0--0--0--0--0--0--0--0--|--2--2--2--2--2--2--2--2--|
|--2--2--2--2--2--2--2--2--|--3--3--3--3--3--3--3--3--|
|--------------------------|--------------------------|

 18                         19
|--------------------------|--------------------------|
|--3--3--3--3--3--3--3--3--|--3--3--3--3--3--3--3--3--|
|--0--0--0--0--0--0--0--0--|--2--2--2--2--2--2--2--2--|
|--2--2--2--2--2--2--2--2--|--0--0--0--0--0--0--0--0--|
|--2--2--2--2--2--2--2--2--|--0--0--0--0--0--0--0--0--|
|--0--0--0--0--0--0--0--0--|--------------------------|

 20                         21
|--------------------------|--3--3--3--3--3--3--3--3--|
|--3--3--3--3--3--3--3--3--|--3--3--3--3--3--3--3--3--|
|--2--2--2--2--2--2--2--2--|--0--0--0--0--0--0--0--0--|
|--0--0--0--0--0--0--0--0--|--2--2--2--2--2--2--2--2--|
|--2--2--2--2--2--2--2--2--|--3--3--3--3--3--3--3--3--|
|--------------------------|--------------------------|

 22                         23
|--------------------------|--------------------------|
|--3--3--3--3--3--3--3--3--|--3--3--3--3--3--3--3--3--|
|--0--0--0--0--0--0--0--0--|--2--2--2--2--2--2--2--2--|
|--2--2--2--2--2--2--2--2--|--0--0--0--0--0--0--0--0--|
|--2--2--2--2--2--2--2--2--|--0--0--0--0--0--0--0--0--|
|--0--0--0--0--0--0--0--0--|--------------------------|

 24                         25
|--------------------------|--3--3--3--3--3--3--3--3--|
|--3--3--3--3--3--3--3--3--|--3--3--3--3--3--3--3--3--|
|--2--2--2--2--2--2--2--2--|--0--0--0--0--0--0--0--0--|
|--0--0--0--0--0--0--0--0--|--2--2--2--2--2--2--2--2--|
|--2--2--2--2--2--2--2--2--|--3--3--3--3--3--3--3--3--|
|--------------------------|--------------------------|

 26                         27
|--------------------------|--------------------------|
|--3--3--3--3--3--3--3--3--|--3--3--3--3--3--3--3--3--|
|--0--0--0--0--0--0--0--0--|--2--2--2--2--2--2--2--2--|
|--2--2--2--2--2--2--2--2--|--0--0--0--0--0--0--0--0--|
|--2--2--2--2--2--2--2--2--|--0--0--0--0--0--0--0--0--|
|--0--0--0--0--0--0--0--0--|--------------------------|

 28                         29
|--------------------------|--3--3--3--3--3--3--3--3--|
|--3--3--3--3--3--3--3--3--|--3--3--3--3--3--3--3--3--|
|--2--2--2--2--2--2--2--2--|--0--0--0--0--0--0--0--0--|
|--0--0--0--0--0--0--0--0--|--2--2--2--2--2--2--2--2--|
|--2--2--2--2--2--2--2--2--|--3--3--3--3--3--3--3--3--|
|--------------------------|--------------------------|

 30                         31
|--------------------------|---------------||
|--3--3--3--3--3--3--3--3--|--3------------||
|--0--0--0--0--0--0--0--0--|--2------------||
|--2--2--2--2--2--2--2--2--|--0------------||
|--2--2--2--2--2--2--2--2--|--0------------||
|--0--0--0--0--0--0--0--0--|---------------||



================================================================================
Lead Fill #3: Guitar 4
================================================================================


||-----------------------|-----------------------|-------------------|
||--R--    -(8/15)-------|--(15/20)--------------|--R--            --|
||--E--    --------------|-----------------------|--E--            --|
||--S--    --------------|-----------------------|--S--            --|
||--T--    --------------|-----------------------|--T--            --|
||-----------------------|-----------------------|-------------------|


|--17>>--------------|--(17)-------------|--------------------|
|--------------------|-------------------|--15>>--------------|
|--------------------|-------------------|--------------------|
|--------------------|-------------------|--------------------|
|--------------------|-------------------|--------------------|
|--------------------|-------------------|--------------------|


|--14----------------|-------------------|--15>>--------------|
|--------------------|--R--            --|--------------------|
|--------------------|--E--            --|--------------------|
|--------------------|--S--            --|--------------------|
|--------------------|--T--            --|--------------------|
|--------------------|-------------------|--------------------|


|--(15)-------------|-------------------|--------------------|
|-------------------|--R--            --|--15>>--------------|
|-------------------|--E--            --|--------------------|
|-------------------|--S--            --|--------------------|
|-------------------|--T--            --|--------------------|
|-------------------|-------------------|--------------------|


|--15----------------|-(15) \ ----------------|--------17----20>>------|
|--------------------|--------------15>>------|--(15)------------------|
|--------------------|------------------------|------------------------|
|--------------------|------------------------|------------------------|
|--------------------|------------------------|------------------------|
|--------------------|------------------------|------------------------|


|-(19 \17 \15)-------------|------------------------|--------------------|
|--------------------------|--15------------12--13--|--15<<--------------|
|--------------------------|------------------------|--------------------|
|--------------------------|------------------------|--------------------|
|--------------------------|------------------------|--------------------|
|--------------------------|------------------------|--------------------|


|---------------------|----------------------||
|--(15)---------------|----------------------||
|-----------14<<------|--(14)----------   \--||
|---------------------|----------------------||
|---------------------|----------------------||
|---------------------|----------------------||



================================================================================
End
================================================================================


Tab summary:        Lead Fill #1 x 1
                    Lead Fill #2 x 1
                    Section 2 x 1
                    Lead Fill #3 x 1

                    END


-----------------------
Corrections (20/01/11):
-----------------------

* Added the second part of the first lead fill which was previously missing.
comments
We did not receive enough feedback on this tab! Please rate:
print report bad tab
1 2 3 4 5
I want to post or [tab]
guest
You may want to rate the tab now too:
select rating
Please do not post tabs as comments. Select "correction" instead!