Oops, an error
Loading. Please wait.

I Miss You Tab

4,869 views 1 this week
2 commentsread comments
1 2 3 4 5
excellent!
x 7
Autoscroll
+/-
esc
set tempo
stop
Contributor
Difficulty
intermediate
Hey! There's an official Ultimate Guitar app which is ideal
for learning songs when you're away from computer. Get the app
WARNING: You are trying to view
                                    content from Ultimate-Guitar.com
                                    in an unauthorized application,
                                    which is prohibited.

                                    Please use an official Ultimate
                                    Guitar Tabs application for iPhone,
                                    iPad or Android to access legitimate
                                    chords, guitar, bass, and drum tabs
                                    from Ultimate-Guitar.com database.

                                    Type "ultimate guitar tabs" in Apple
                                    App Store's or Android Market's
                                    search to find the application.
Title     : I miss you
Artist    : And then I turned seven
Album     :
Capo      : 3
Setting   : E-A-D-G-B-E
Tabbed by : Zach
-------------------------------------------------

capo op 3

G(5)  = 3-2-0-0-3-3-|
Cadd9 = x-3-2-0-3-0-|
Em7   = 0-2-0-0-0-0-|
Dsus4 = x-x-0-2-3-3-|


Intro:

      G5       G5        Cadd9    Cadd9     
     Em7       Dsus4    Dsus4
e----------------------------------------------------------------------------|
B-----3--------3---------3--------3---------3--------3---------3--------3----|
G---0---0----0---0-----0---0----0---0-----0---0----0---0-----0---0----0---0--|
D-5-------5----------------------------2---------2---------0--------0--------|
A-------------------3---------3----------------------------------------------|
E----------------------------------------------------------------------------|

      G5       G5        Cadd9    Cadd9     
     Em7       Dsus4    Dsus4
e----------------------------------------------------------------------------|
B-----3--------3---------3--------3---------3--------3---------3--------3----|
G---0---0----0---0-----0---0----0---0-----0---0----0---0-----0---0----0---0--|
D-5-------5----------------------------2---------2--------/4--------4--------|
A-------------------3---------3----------------------------------------------|
E----------------------------------------------------------------------------|

Couplet:

G5    Cadd9           Em7            Dsus4               G5
Yesterday was full of tears, knowing death has just been here
        Cadd9        Em7              Dsus4             G5
All was lost but not forgot, the pain controls my every thought
            Cadd9      Em7            Dsus4              G5
A new day's battle has begun, all was lost and nothing's won
        Cadd9           Em7           Dsus4         G5
I can't wait to see the day, when the tears all go away....


Pre-Refrein: x4
      G5       G5
e-------------------|
B-----3--------3----|
G---0---0----0---0--|
D-5-------5---------|
A-------------------|
E-------------------|


Refrein:

  G5        Cadd9                 Em7               Dsus4
I miss you, I kissed you, when we layed you in your grave
  G5          Cadd9        Em7                          
     G
I need you to believe you, things were meant to be this way...


Pre-Couplet:

      G5       G5        Cadd9    Cadd9     
     Em7       Dsus4    Dsus4
e----------------------------------------------------------------------------|
B-----3--------3---------3--------3---------3--------3---------3--------3----|
G---0---0----0---0-----0---0----0---0-----0---0----0---0-----0---0----0---0--|
D-5-------5----------------------------2---------2---------0--------0--------|
A-------------------3---------3----------------------------------------------|
E----------------------------------------------------------------------------|

      G5       G5        Cadd9    Cadd9     
     Em7       Dsus4    Dsus4
e----------------------------------------------------------------------------|
B-----3--------3---------3--------3---------3--------3---------3--------3----|
G---0---0----0---0-----0---0----0---0-----0---0----0---0-----0---0----0---0--|
D-5-------5----------------------------2---------2--------/4--------4--------|
A-------------------3---------3----------------------------------------------|
E----------------------------------------------------------------------------|


Couplet:

G5    Cadd9               Em7          Dsus4         
     G5
Today came with shattered dreams, everything's not what it seems
            Cadd9                Em7           Dsus4             G5
Don't think death won't come get you, cause it will life's misconstrued
          Cadd9         Em7                 Dsus4             G5
Though my battle's just begun, I'm dropping arms and going to run
        Cadd9           Em7           Dsus4        G5
I can't wait to see the day, when the tears all go away....


Pre-Refrein: x4
      G5       G5
e-------------------|
B-----3--------3----|
G---0---0----0---0--|
D-5-------5---------|
A-------------------|
E-------------------|


Refrein:

  G5        Cadd9                 Em7               Dsus4
I miss you, I kissed you, when we layed you in your grave
  G5          Cadd9        Em7                          Dsus
I need you to believe you, things were meant to be this way
  G5        Cadd9                 Em7               Dsus4
I miss you, I kissed you, when we layed you in your grave
  G5          Cadd9        Em7                          
     G
I need you to believe you, things were meant to be this way...


      G5       G5        Cadd9    Cadd9     
     Em7       Dsus4    Dsus4
e----------------------------------------------------------------------------|
B-----3--------3---------3--------3---------3--------3---------3--------3----|
G---0---0----0---0-----0---0----0---0-----0---0----0---0-----0---0----0---0--|
D-5-------5----------------------------2---------2---------0--------0--------|
A-------------------3---------3----------------------------------------------|
E----------------------------------------------------------------------------|

      G5       G5        Cadd9    Cadd9     
     Em7       Dsus4    Dsus4
e----------------------------------------------------------------------------|
B-----3--------3---------3--------3---------3--------3---------3--------3----|
G---0---0----0---0-----0---0----0---0-----0---0----0---0-----0---0----0---0--|
D-5-------5----------------------------2---------2--------/4--------4--------|
A-------------------3---------3----------------------------------------------|
E----------------------------------------------------------------------------|

      G5              Cadd9           Em7                    Dsus4
I did nothing at all, nothing at all, it's all my fault your gone
     G5               Cadd9           Em7                     
      Dsus4
Your face on my wall, face on my wall it tells it all, you will live on
      G5              Cadd9           Em7                    Dsus4
I did nothing at all, nothing at all, it's all my fault your gone
     G5               Cadd9           Em7                     
      Dsus4   G5
Your face on my wall, face on my wall it tells it all, you will live on...
comments
print report bad tab
2 comments total.
+1 reply
espltd-50 wrote on March 12 2007, 09:48 pm

wow, great tab, you kick ass in all the right ways

0 reply
surferk68 wrote on March 5 2010, 01:52 pm

It is much easier for the harmonic part if you just hold the G chord and pick the E string first rather than the D string on the 5th fret

I want to post or [tab]
guest
You may want to rate the tab now too:
select rating
Please do not post tabs as comments. Select "correction" instead!