Oops, an error
Loading. Please wait.

Segovia Study No 10 Tab

749 views 3 this week
no commentswrite comment
1 2 3 4 5
please rate
add to favorites launch autoscroll
font size
0
reset
Autoscroll
+/-
esc
set tempo
stop
Contributor
WARNING: You are trying to view
                                    content from Ultimate-Guitar.com
                                    in an unauthorized application,
                                    which is prohibited.

                                    Please use an official Ultimate
                                    Guitar Tabs application for iPhone,
                                    iPad or Android to access legitimate
                                    chords, guitar, bass, and drum tabs
                                    from Ultimate-Guitar.com database.

                                    Type "ultimate guitar tabs" in Apple
                                    App Store's or Android Market's
                                    search to find the application.
Op 31 No 19 in A (Segovia Study No 10) - Fernando Sor (1778-1839)
******************************************************************************
1st version by Dirk meineke
2nd version by hyperion, not separated into individual measures (bars)
******************************************************************************

Fernando Sor - Estudio 10
From the 20 Studies selected by Segovia
(Sor op.31 no.19)

Tuning        : E A D G B E
Time signature: 2/4
Key Signature : c-major

The four short notes before the quarter beats are 1/32!

Molto Moderato

  |               |                  |               |
|-------------------------0-0-0-0--|-0-------5---------------0-0-0-0--|
|----------------------------------|----------------------------------|
|----------------------------------|---------6------------------------|
|----------------------------------|---------7------------------------|
|----------------------------------|-----------------0----------------|
|----------------------------------|----------------------------------|

  |               |                  |               |
|-0-------9---------------0-0-0-0--|-0-------7---------------0-0-0-0--|
|----------------------------------|----------------------------------|
|---------6------------------------|---------7------------------------|
|---------7------------------------|---------6------------------------|
|-----------------0----------------|----------------------------------|
|----------------------------------|-----------------0----------------|

  |               |                  |               |
|-0-------5---------------0-0-0-0--|-0-------5---------------0-0-0-0--|
|----------------------------------|----------------------------------|
|---------6------------------------|---------6------------------------|
|---------7------------------------|---------7------------------------|
|-----------------0----------------|-----------------0----------------|
|----------------------------------|----------------------------------|

  |               |                  |               |
|-0-------9------------------------|---------7---------------4-4-4-4--|
|-------------------------5-5-5-5--|-7-----------------------3--------|
|---------6------------------------|---------8---------------4--------|
|---------7------------------------|---------7------------------------|
|-----------------0----------------|----------------------------------|
|----------------------------------|-----------------0----------------|

  |               |                  |               |
|-5-----------------------5-5-5-5--|-5-------2---------------5-5-5-5--|
|-2--------------------------------|---------3------------------------|
|-2--------------------------------|---------2------------------------|
|---------2-2-2-2------------------|----------------------------------|
|-----------------0----------------|-----------------0----------------|
|----------------------------------|----------------------------------|

  |               |                  |               |
|-5-------0------------------------|----------------------------------|
|---------2---------------10101010-|-10------6---------------10101010-|
|---------2------------------------|---------7------------------------|
|----------------------------------|---------7------------------------|
|-----------------0----------------|-----------------0----------------|
|----------------------------------|----------------------------------|

  |               |                  |               |
|-------------------------9-9-9-9--|-9-------7---------------7-7-7-7--|
|-10------5------------------------|---------7-------0----------------|
|---------6------------------------|----------------------------------|
|---------7------------------------|---------7-------7----------------|
|-----------------0----------------|---------6-------6----------------|
|----------------------------------|----------------------------------|

  |               |                  |               |
|-7-------0---------------7-7-7-7--|-8-------7---------------7-7-7-7--|
|---------0-------0----------------|---------7-------0----------------|
|---------1-------1----------------|----------------------------------|
|---------2-------2----------------|---------7-------7----------------|
|----------------------------------|---------6-------6----------------|
|----------------------------------|----------------------------------|

  |               |                  |               |
|-9-------7---------------7-7-7-7--|-7-------0---------------12121212-|
|---------0-------0----------------|---------0------------------------|
|----------------------------------|----------------------------------|
|---------6-------6----------------|---------6------------------------|
|---------7-------7----------------|----------------------------------|
|----------------------------------|-----------------4----------------|

  |               |                  |               |
|-12----------------------12121212-|-12----------------------7-7-7-7--|
|---------7------------------------|---------7------------------------|
|---------6------------------------|---------8------------------------|
|---------7------------------------|---------9------------------------|
|-----------------0----------------|----------------------------------|
|----------------------------------|-----------------7----------------|

  |               |                  |               |
|---------0---------------12121212-|-12----------------------12121212-|
|-10------9------------------------|---------9------------------------|
|----------------------------------|---------9------------------------|
|---------9------------------------|---------11-----------------------|
|---------7------------------------|-----------------0----------------|
|-----------------0----------------|----------------------------------|

  |               |                  |               |
|-12----------------------9-9-9-9--|-9-------7------------------------|
|---------7------------------------|---------5---0---7-------4--------|
|---------6------------------------|-------------------------2--------|
|---------7------------------------|---------6-------7----------------|
|-----------------0----------------|-------------------------2--------|
|----------------------------------|----------------------------------|

  |               |                  |               |
|-0-----------------------0-0-0-0--|-2-----------------------2-2-2-2--|
|----------------------------------|---------2-------5----------------|
|-1--------------------------------|---------3-------3----------------|
|---------2-2-2-2------------------|----------------------------------|
|----------------------------------|----------------------------------|
|-0---------------0----------------|----------------------------------|

  |               |                  |               |
|-2-----------------------7-7-7-7--|-7-------0---------------0-0-0-0--|
|---------5-------4----------------|----------------------------------|
|---------4-------4----------------|---------7-------7----------------|
|----------------------------------|---------6-------6----------------|
|----------------------------------|----------------------------------|
|----------------------------------|----------------------------------|

  |               |                  |               |
|-0-----------------------5-5-5-5--|-5---------------3-------7-7-7-7--|
|----------------------------------|---------3-------3----------------|
|---------7-------6----------------|---------4-------4----------------|
|---------7-------7----------------|----------------------------------|
|----------------------------------|----------------------------------|
|----------------------------------|----------------------------------|

  |               |                  |               |
|-7---------------5-------9-9-9-9--|-9-------7-7-7-7-7----------------|
|---------5-------5----------------|-7---------------7-------10101010-|
|---------6-------6----------------|-7---------------8----------------|
|----------------------------------|----------------------------------|
|----------------------------------|----------------------------------|
|----------------------------------|----------------------------------|

  |               |                  |               |
|-------------------------0-0-0-0--|-0-------5---------------0-0-0-0--|
|-9--------------------------------|----------------------------------|
|-9--------------------------------|---------6------------------------|
|----------------------------------|---------7------------------------|
|---------7-7-7-7------------------|-----------------0----------------|
|-----------------0----------------|----------------------------------|

  |               |                  |               |
|-0-------9---------------0-0-0-0--|-0-------7---------------0-0-0-0--|
|----------------------------------|----------------------------------|
|---------6------------------------|---------7------------------------|
|---------7------------------------|---------6------------------------|
|-----------------0----------------|----------------------------------|
|----------------------------------|-----------------0----------------|

  |               |                  |               |
|-0-------5---------------0-0-0-0--|-0-------9---------------9-9-9-9--|
|----------------------------------|-----------------8----------------|
|---------6------------------------|---------9-------9----------------|
|---------7------------------------|---------7-------8----------------|
|-----------------0----------------|----------------------------------|
|----------------------------------|----------------------------------|

  |               |                  |               |
|-9-------10--------------7-7-7-7--|-7-------5---------------4--------|
|---------7------------------------|---------2-------3----------------|
|---------7------------------------|---------2-------4----------------|
|---------9-------0----------------|---------2------------------------|
|----------------------------------|----------------------------------|
|----------------------------------|-------------------------0--------|

  |               |                  |               |
|-5-----------------------0--------|-2--------------------------------|
|-2-----------------------2--------|-3-----------------------4--------|
|-2--------------------------------|-------------------------5--------|
|----------------------------------|----------------------------------|
|-0-------0-0-0-0-0----------------|---------0-0-0-0-0----------------|
|----------------------------------|----------------------------------|

  |               |                  |               |
|-0-----------------------5--------|-5-------4-----2-0-------0--------|
|-2-----------------------2--------|-3-----------------------3--------|
|-------------------------2--------|-4-----------------------4--------|
|----------------------------------|-------------------------6--------|
|---------0-0-0-0-0----------------|----------------------------------|
|----------------------------------|-0--------------------------------|

  |               |                  |               |
|-0--------------------------------|----------------------------------|
|-2---0---2---3---5-------6---7----|-7-----------------------4---5----|
|-2---1---2---4---6-------6---7----|-7-----------------------5---6----|
|----------------------------------|----------------------------------|
|-0--------------------------------|---------0-0-0-0-0----------------|
|----------------------------------|----------------------------------|

  |               |                  |               |
|-0-----------------------5--------|-5---4---2p--0-------0---2h--4----|
|-2-----------------------4--------|-3---------------4-------3--------|
|-------------------------5--------|-4-----------------------4--------|
|----------------------------------|----------------------------------|
|---------0-0-0-0-0----------------|----------------------------------|
|----------------------------------|-0--------------------------------|

  |               |                  |               |
|-5--------------------------------|-------------------------4--------|
|-2-----------------------2--------|-3-----------------------3--------|
|-2-----------------------2--------|-4-----------------------4--------|
|---------2-2-2-2-2----------------|---------2-2-2-2-2----------------|
|-0--------------------------------|----------------------------------|
|----------------------------------|-0--------------------------------|

  |               |                  |               |
|-5--------------------------------|-------------------------4--------|
|-2-----------------------2--------|-3-----------------------3--------|
|-2-----------------------2--------|-4-----------------------4--------|
|---------2-2-2-2-2----------------|---------2-2-2-2-2----------------|
|-0--------------------------------|----------------------------------|
|----------------------------------|-0--------------------------------|

  |               |                  |               |
|-5-----------------------4--------|-5-----------------------4--------|
|-2-----------------------2--------|-2-----------------------2--------|
|-2-----------------------2--------|-2-----------------------2--------|
|---------2-2-2-2-2----------------|---------2-2-2-2-2----------------|
|-0--------------------------------|-0--------------------------------|
|-------------------------0--------|-------------------------0--------|

  |               |                  |               |
|-5-------4-------5-------4--------|-5--------------------------------|
|-2-------3-------2-------3--------|-2--------------------------------|
|-2-------4-------2-------4--------|-2--------------------------------|
|----------------------------------|---------2-2-2-2------------------|
|-0---------------0----------------|-0---------------0----------------|
|---------0---------------0--------|----------------------------------|

Created with TablEdit http://www.tabledit.com/

***********************************************************************
**                  TablEdited by D.Meineke, 01/01                   **
**                    e-mail: d.meineke@web.de                       **
**          Dirkґs GuitarPage at: www.geocities.com/mke_dgp          **
**  Get TablEdit file (tef) MIDI (mid) and sheet music (pdf) there.  **
***********************************************************************

******************************************************************************
******************************************************************************

estudio 10 (op.31, no.19)
fernando sor
tempo: molto moderato
transcribed: hyperion 
notes: the study is in 2/4, "con gracia".
       to understand the timing, listen to the MIDI
       on the Classical Guitar Tablature page

-00000-5---00000-9---00000-7---00000-5---00000-5---00000-9---0000---|
------------------------------------------------------------------7-|
-------6---------6---------7---------6---------6---------6----------|
-------7---------7---------6---------7---------7---------7----------|
---------0---------0-------------------0---------0---------0--------|
-----------------------------0--------------------------------------|

-7---44445--------55555-----55555-----55555-----55555-----99999-7---|
-----3---2--------------7---------5---------6---------5---------7-0-|
-8---4---2--------------7---------6---------7---------6-------------|
-7---------2222---------7---------7---------7---------7---------7-7-|
----------------0---------0---------0---------0---------0-------6-6-|
---0----------------------------------------------------------------|

-77777-0---77778-7---77779-7---77777-0---1212121212-----99999-------|
-------0-0-------7-0-------0-0-------0------------------------7-----|
---------------------------------------------------11---------8-----|
-------6-6-------7-7-------6-6-------6-------------11---------9-----|
-------7-7-------6-6-------7-7---------------------12-0-------------|
---------------------------------------4------------------------7---|

-77775-0---1212121212-0---1212121212-----99999--7-------0----------|
-------9--------------9-------------------------5-0-7--------------|
------------------------------------11----------------8------------|
-------9-------------11-------------11----------6---7-7-6----------|
-------7----------------------------12-0-------------------7777----|
---------0--------------9-----------------------------7-0------0---|

-00002-----22222-----77777-0---00000-----55555---4-77777---5-99999--|
-------2-5-------5-4---------------------------3-3-------5-5-----7--|
-------3-3-------4-4-------7-7-------7-6-------4-4-------6-6-----7--|
---------------------------6-6-------7-7----------------------------|
--------------------------------------------------------------------|
--------------------------------------------------------------------|

-77777-55554--------00000-5---00000-9---00000-7---00000-5---00000---|
-----7-----5--------------------------------------------------------|
-----6--------------------6---------6---------7---------6-----------|
-------------2222---------7---------7---------6---------7-----------|
----------------------------0---------0-------------------0---------|
------------------0-----------------------------0-------------------|

-9---99999-10-----77777-5---4-5-------0-2-----------------5-5-4-2-0-|
---8--------7-----------2-3---2-------2-3-------4-5-------2-3-------|
-9-9--------7-----------2-4---2-----------------5-6-------2-4-------|
-7-8--------9-0---------2-------------------------------------------|
----------------------------0-0-00000-----00000-----00000-----------|
------------------------------------------------------------0-------|

-0---0----------------------------------5-5-4-2-0---0-2-4-5---------|
-3---2-0-2-3-5--6/7-7-------4/5-5-------4-3-------4---3---2---------|
-4---2-1-2-4-6--6/7-7-------5/6-6-------5-4-----------4---2---------|
-6----------------------------------------------------------22222---|
---0------------------00000-------00000-------------------0---------|
------------------------------------------0-------------------------|

-------------4---5-------------------4---5-------4---5-------4---5--|
--2--3-------3---2-------2---3-------3---2-------3---2-------3---2--|
--2--4-------4---2-------2---4-------4---2-------4---2-------4---2--|
-----2-22222-----2-22222-----2-22222-----2-22222-----2-22222---2----|
---------------0-----------------------0-----------0-------------0--|
-----0---------------------0---------------------0------------------|

-4-5-4-5------------------------------------------------------------|
-3-2-3-2------------------------------------------------------------|
-4-2-4-2------------------------------------------------------------|
---------2222-------------------------------------------------------|
---0---0-----0------------------------------------------------------|
--------------------------------------------------------------------|

******************************************************************************
******************************************************************************
comments
We did not receive enough feedback on this tab! Please rate:
print report bad tab
1 2 3 4 5
I want to post or [tab]
guest
You may want to rate the tab now too:
select rating
Please do not post tabs as comments. Select "correction" instead!