Oops, an error
Loading. Please wait.

Segovia Study No 12 Tab

425 views 1 this week
no commentswrite comment
1 2 3 4 5
please rate
add to favorites launch autoscroll
font size
0
reset
Autoscroll
+/-
esc
set tempo
stop
Contributor
WARNING: You are trying to view
                                    content from Ultimate-Guitar.com
                                    in an unauthorized application,
                                    which is prohibited.

                                    Please use an official Ultimate
                                    Guitar Tabs application for iPhone,
                                    iPad or Android to access legitimate
                                    chords, guitar, bass, and drum tabs
                                    from Ultimate-Guitar.com database.

                                    Type "ultimate guitar tabs" in Apple
                                    App Store's or Android Market's
                                    search to find the application.
Opus 6 No 6 in A (Segovia Study No 12) - Fernando Sor (1778-1839)

original transcription by Kevin J Manges - fretmeister@bigfoot.com
http://members.tripod.com/~Braumeister

[transcribed to plain text by Weed - weed@wussu.com - 3 January 2002]

NOTES (by KJM)

I'd recommend that you attack this piece visually. By that, I mean learn
eight measures at a time, then visualize your left-hand fingering as it
appears on the fretboard. Kind of like memorizing a phone number by how
the number pattern looks on the keyboard. Start out slowly. Once you have
a phrase memorized without mistakes, look at the next eight measures.
You'll pick up speed as you go. This ia a moderately easy place to play
in that there are no contorted fingerings and no jumping up and down the
keyboard. The key is in the memorization. Once mastered, it will make a
great addition to your repertoire.

tuning: EADGBE  -  key: A major  -  time: 3/8

1    | . | . |     | . | . |     | . | . |     | . | . |     | . | . |
e |-------------|------4---5--|--4---5---7--|--9---10--11-|--12--10--9--|
B |--2---3---5--|--7---5---7--|--5---7---9--|--10--12--13-|--14--12--10-|
G |--2---4---6--|--7----------|-------------|-------------|-------------|
D |-------------|-------------|-------------|-------------|-------------|
A |--0----------|--0----------|--0----------|--0----------|--0----------|
E |-------------|-------------|-------------|-------------|-------------|

6    | . | . |     | . | . |     | . | . |     | . | . |     | . | . |
e |--7---5---4--|--2---0------|-------------|-------------|------4---5--|
B |--9---7---5--|--3---2---3--|--2-------0--|--2---3---5--|--7---5---7--|
G |-------------|----------4--|--2-------1--|--2---4---6--|--7----------|
D |-------------|-------------|------2------|-------------|-------------|
A |--0----------|--0----------|-------------|--0----------|--0----------|
E |-------------|-------------|----------0--|-------------|-------------|

11   | . | . |     | . | . |     | . | . |     | . | . |     | . | . |
e |--4---5---7--|--9---10--11-|--12--10--9--|--7---5---4--|--2---0------|
B |--5---7---9--|--10--12--13-|--14--12--10-|--9---7---5--|--3---2---3--|
G |-------------|-------------|-------------|-------------|----------4--|
D |-------------|-------------|-------------|-------------|--0----------|
A |--0----------|--0----------|--0----------|--0----------|-------------|
E |-------------|-------------|-------------|-------------|-------------|

16   | . | . |     | . | . |     | . | . |     | . | . |     | . | . |
e |-------------|--0----------|--0----------|--7----------|--7----------|
B |--2-------0--|----------0--|--2---4---5--|--4---5---7--|--9---7---9--|
G |--2-------1--|--1---2---1--|--2---4---6--|--4---6---8--|--9---8---9--|
D |------2------|--2---4------|-------------|-------------|-------------|
A |-------------|-------------|-------------|-------------|-------------|
E |----------0--|-------------|-------------|-------------|-------------|

21   | . | . |     | . | . |     | . | . |     | . | . |
e |--4----------|--7-5-4---5--|--2----------|--0---------||
B |--5----------|----7-6---7--|--4----------|------------||
G |------5---6--|-------------|------4---2--|--1--------*||
D |-------------|-------------|-------------|-----------*||
A |-------------|--0----------|--2----------|------------||
E |-------------|-------------|-------------|--0---------||

25   | . | . |     | . | . |     | . | . |     | . | . |     | . | . |
e |--0---2---3--|--2----------|--2----------|--2----------|--2---5---4--|
B |-------------|----------0--|--2---3---5--|--5---4---3--|-------------|
G |*------------|------3---1--|--3---4---6--|--6---5---4--|-------------|
D |*------------|------4------|-------------|-------------|-------------|
A |-------------|-------------|-------------|-------------|-------------|
E |-------------|-------------|-------------|-------------|-------------|

30   | . | . |     | . | . |     | . | . |     | . | . |     | . | . |
e |--0----------|--0----------|--0----------|--0---5---4--|--4---2---2--|
B |-------------|--0---2---3--|--3---2---2--|--2-------3--|--2----------|
G |------1---2--|--1---2---4--|--4---2---2--|----------4--|--2----------|
D |------2---4--|-------------|-------------|-------------|-------------|
A |-------------|-------------|-------------|-------------|-------------|
E |-------------|-------------|-------------|-------------|-------------|

35   | . | . |     | . | . |     | . | . |     | . | . |     | . | . |
e |--2---0---0--|--0----------|-------------|-------------|-------------|
B |--0----------|------3---3--|--3---2---2--|-------------|-------------|
G |--1----------|--2----------|--1----------|--6---4---4--|--4----------|
D |-------------|--4----------|--2----------|--4----------|--4---7---7--|
A |-------------|-------------|-------------|--5----------|--6----------|
E |-------------|-------------|-------------|-------------|-------------|

40   | . | . |     | . | . |     | . | . |     | . | . |     | . | . |
e |------0---0--|--0----------|--0----------|--0----------|------0---0--|
B |-------------|----------0--|--1---2---3--|--4---5---1--|--0----------|
G |-------------|--1---2---1--|--2---3---4--|--4---5---2--|--1----------|
D |--6----------|--2---4------|-------------|-------------|-------------|
A |--7----------|-------------|-------------|-------------|-------------|
E |-------------|-------------|-------------|-------------|--0----------|

45   | . | . |     | . | . |     | . | . |     | . | . |     | . | . |
e |--0----------|--0----------|--0----------|------0---0--|--0----------|
B |----------0--|--1---2---3--|--4---5---1--|--0----------|-------------|
G |--1---2---1--|--2---3---4--|--4---5---2--|--1----------|------1---1--|
D |--2---4------|-------------|-------------|-------------|------2---2--|
A |-------------|-------------|-------------|-------------|-------------|
E |-------------|-------------|-------------|--0----------|-------------|

50   | . | . |     | . | . |     | . | . |     | . | . |     | . | . |
e |----------0--|--0----------|----------0--|--0----------|----------0--|
B |-------------|-------------|-------------|-------------|--1---2------|
G |--1---2------|------2---2--|--3---4------|------4---4--|--1---2------|
D |--3---4------|------4---4--|--5---6------|------6---6--|-------------|
A |-------------|-------------|-------------|-------------|-------------|
E |-------------|-------------|-------------|-------------|-------------|

55   | . | . |     | . | . |     | . | . |     | . | . |     | . | . |
e |--0----------|----------0--|-------------|-------------|--7---6---7--|
B |------2---2--|--2---3------|--7-5-4---5--|--9---8---9--|--9---8---9--|
G |------3---3--|--3---4------|-------------|-------------|-------------|
D |-------------|-------------|-------------|-------------|-------------|
A |-------------|-------------|-------------|-------------|-------------|
E |-------------|-------------|-------------|-------------|-------------|

60   | . | . |     | . | . |     | . | . |     | . | . |     | . | . |
e |--10---------|--10--9------|-------------|-------------|-------------|
B |--12---------|--12--10--12-|--10--9---7--|--5-------4--|--3----------|
G |-------------|----------13-|--11--9---7--|--6-------5--|--4----------|
D |-------------|-------------|-------------|-------------|-------------|
A |-------------|-------------|-------------|-------------|-------------|
E |--0----------|-------------|-------------|-------------|-------------|

65   | . | . |     | . | . |     | . | . |     | . | . |     | . | . |
e |-------------|-------------|-------------|------4---5--|--4---5---7--|
B |--3----------|--3----------|--2---3---5--|--7---5---7--|--5---7---9--|
G |--4----------|--4----------|--2---4---6--|--7----------|-------------|
D |--3----------|--2----------|-------------|-------------|-------------|
A |-------------|-------------|--0----------|--0----------|--0----------|
E |-------------|-------------|-------------|-------------|-------------|

70   | . | . |     | . | . |     | . | . |     | . | . |     | . | . |
e |--9---10--11-|--12--10--9--|--7---5---4--|--2---0------|-------------|
B |--10--12--13-|--14--12--10-|--9---7---5--|--3---2---3--|--2-------0--|
G |-------------|-------------|-------------|----------4--|--2-------1--|
D |-------------|-------------|-------------|--0----------|------2------|
A |--0----------|--0----------|--0----------|-------------|-------------|
E |-------------|-------------|-------------|-------------|----------0--|

75   | . | . |     | . | . |     | . | . |     | . | . |     | . | . |
e |-------------|------4---5--|--4---5---7--|--9---10--11-|--12--10--9--|
B |--2---3---5--|--7---5---7--|--5---7---9--|--10--12--13-|--14--12--10-|
G |--2---4---6--|--7----------|-------------|-------------|-------------|
D |-------------|-------------|-------------|-------------|-------------|
A |--0----------|--0----------|--0----------|--0----------|--0----------|
E |-------------|-------------|-------------|-------------|-------------|

80   | . | . |     | . | . |     | . | . |     | . | . |     | . | . |
e |--7---5---4--|--2---0------|-------------|--0----------|--0----------|
B |--9---7---5--|--3---2---3--|--2-------0--|----------0--|--2---0---2--|
G |-------------|----------4--|--2-------1--|--1---2---1--|--2---1---2--|
D |-------------|--0----------|------2------|--2---4------|-------------|
A |--0----------|-------------|-------------|-------------|-------------|
E |-------------|-------------|----------0--|-------------|-------------|

85   | . | . |     | . | . |     | . | . |     | . | . |     | . | . |
e |--0----------|--0----------|--0----------|--0----------|--0----------|
B |--3---2---3--|--4---5------|----------0--|--2---0---2--|--3---2---3--|
G |--4---3---4--|--5---6---6--|--1---2---1--|--2---1---2--|--4---3---4--|
D |-------------|----------7--|--2---4------|-------------|-------------|
A |-------------|-------------|-------------|-------------|-------------|
E |-------------|-------------|-------------|-------------|-------------|

90   | . | . |     | . | . |     | . | . |     | . | . |     | . | . |
e |--0----------|--5----------|--5----------|--7-------2--|--7----------|
B |--4---5---2--|--2---3---5--|--7---5---7--|--4---5---4--|--9---7---9--|
G |--5---6---2--|--2---4---6--|--7---6---7--|--4---6------|--9---8---9--|
D |-------------|-------------|-------------|-------------|-------------|
A |-------------|-------------|-------------|-------------|-------------|
E |-------------|-------------|-------------|-------------|-------------|

95   | . | . |     | . | . |     | . | . |     | . | . |     | . | . |
e |--9----------|-------------|--10---------|--10---------|--7---8---8--|
B |--6---7---9--|--9---9---10-|--10--12--10-|--9----------|--9---10--10-|
G |--6---8---10-|--10--10--11-|--10---------|--9----------|-------------|
D |-------------|--11---------|-------------|-------------|-------------|
A |-------------|-------------|-------------|-------------|-------------|
E |-------------|-------------|-------------|-------------|--0----------|

100  | . | . |     | . | . |     | . | . |     | . | . |     | . | . |
e |--9---0---9--|--10--0---10-|--11--12--9--|--7---0---7--|--9---0---9--|
B |--10------10-|--12------12-|--13--14--10-|--9-------9--|--10------11-|
G |-------------|-------------|-------------|-------------|-------------|
D |-------------|-------------|-------------|-------------|-------------|
A |-------------|-------------|-------------|-------------|-------------|
E |--0----------|--0----------|--0----------|--0----------|--0----------|

105  | . | . |     | . | . |     | . | . |     | . | . |     | . | . |
e |--10--9---10-|--11------12-|--12--11--12-|--9---7---9--|--7-5-4---5--|
B |--12--11--12-|--13------14-|--14--13--14-|--10--9---10-|----7-6---7--|
G |-------------|-------------|-------------|-------------|-------------|
D |-------------|-------------|-------------|-------------|-------------|
A |-------------|-------------|--0----------|--0----------|--0----------|
E |--0----------|--0----------|-------------|-------------|-------------|

110  | . | . |     | . | . |     | . | . |     | . | . |     | . | . |
e |--4-2-1---2--|-------------|-------------|-------------|-------------|
B |----3-2---3--|--3---2---3--|--2---5---2--|--0---3---0--|-------------|
G |-------------|--4---3---4--|--2-------2--|--1-------1--|--2----------|
D |--0----------|--0----------|--2----------|-------------|-------------|
A |-------------|-------------|-------------|-------------|--0---0---0--|
E |-------------|-------------|-------------|--0----------|-------------|

115  | . | . |     | . | . |     | . | . |     | . | . |     | . | . |
e |-------------|--2---4---5--|--4---0---7--|--5-------9--|-------------|
B |--2---3---5--|--3---5---7--|--0----------|-------------|--2---3---5--|
G |--2---4---6--|-------------|--7----------|--6---9------|--2---4---6--|
D |-------------|-------------|-------------|-------------|-------------|
A |--0----------|--0----------|--0----------|--0----------|--0----------|
E |-------------|-------------|-------------|-------------|-------------|

120  | . | . |     | . | . |     | . | . |     | . | . |     | . | . |
e |--2---4---5--|--4---0---7--|--5----------|-------------|--1----------|
B |--3---5---7--|--0----------|-------------|--2---3---5--|--3----------|
G |-------------|--7----------|--6----------|--2---4---6--|-------------|
D |-------------|-------------|-------------|-------------|-------------|
A |--0----------|--0----------|--0---0---0--|--0----------|--0---0---0--|
E |-------------|-------------|-------------|-------------|-------------|

125  | . | . |     | . | . |     | . | . |     | . | . |     | . | . |
e |--4---0---7--|--5-------0--|-------------|--1----------|--4---0---7--|
B |--0----------|-------------|--2---3---5--|--3----------|--0----------|
G |--7----------|--6----------|--2---4---6--|-------------|--7----------|
D |-------------|-------------|-------------|-------------|-------------|
A |--0----------|--0---0---0--|--0----------|--0---0---0--|--0----------|
E |-------------|-------------|-------------|-------------|-------------|

130  | . | . |     | . | . |     | . | . |     | . | . |     | . | . |
e |--5-------0--|--4---0---7--|--5-------0--|--4---0---7--|--5---0---9--|
B |-------------|--0----------|-------------|--0----------|-------------|
G |------6------|--7----------|------6------|--7----------|--6----------|
D |-------------|-------------|-------------|-------------|-------------|
A |--0----------|-------------|--0----------|-------------|--0----------|
E |-------------|--0----------|-------------|--0----------|-------------|

135  | . | . |     | . | . |     | . | . |     | . | . |
e |--5---0---9--|--5----------|--5----------|--5---------||
B |-------------|-------------|-------------|------------||
G |--6----------|--6----------|--6----------|--6--------*||
D |-------------|-------------|-------------|-----------*||
A |--0----------|--0----------|--0----------|--0---------||
E |-------------|-------------|-------------|------------||


comments
We did not receive enough feedback on this tab! Please rate:
print report bad tab
1 2 3 4 5
I want to post or [tab]
guest
You may want to rate the tab now too:
select rating
Please do not post tabs as comments. Select "correction" instead!