Oops, an error
Loading. Please wait.

Segovia Study No 17 Tab

423 views 1 this week
no commentswrite comment
1 2 3 4 5
please rate
add to favorites launch autoscroll
font size
0
reset
Autoscroll
+/-
esc
set tempo
stop
Contributor
WARNING: You are trying to view
                                    content from Ultimate-Guitar.com
                                    in an unauthorized application,
                                    which is prohibited.

                                    Please use an official Ultimate
                                    Guitar Tabs application for iPhone,
                                    iPad or Android to access legitimate
                                    chords, guitar, bass, and drum tabs
                                    from Ultimate-Guitar.com database.

                                    Type "ultimate guitar tabs" in Apple
                                    App Store's or Android Market's
                                    search to find the application.
#----------------------------------PLEASE NOTE--------------------------------#
#This file is the author's own work and represents their interpretation of the#
#song. You may only use this file for private study, scholarship, or research.#
#-----------------------------------------------------------------------------#

Etude 17 (Opus 6 No. 11) - Fernando Sor

Tuning EADGBE

Tablature by : Samuel.Lumele (melesambo@hotmail.com)

****************************************
Date: Mon, 18 Oct 1999 03:08:56 -0700
From: Canaan Hadley-Voth (cjhadleyvoth@intranet.csupomona.edu)
Subject: Sor Etude 17 corrections

I got this Sor Etude from your site... I fixed the fingering for my own 
use and then thought you might want the improved version on your site.
The original tab differs from this only in about 10 or 15 measures so the 
vast majority of the work here was done by the other guy, who did a great
job considering...
****************************************

 |       |       |       |        |       |       |       |
|----------------0-------0-------|0-------------------------------|
|--------0-----------------------|--------0-------0-------0-------|
|----0-------0-------0-------0---|----0-------0-------0-------0---|
|--2-------2-------2-------2-----|--2-------2-------2-------2-----|
|--------------------------------|--------------------------------|
|0-------------------------------|0-------------------------------|

 |       |       |       |        |       |       |       |
|----------------0-------3-------|3---------------2---------------|
|--------0-----------------------|--------1---------------1-------|
|----0-------0-------0-------0---|----2-------2-------2-------2---|
|--2-------2-------2-------2-----|--2-------2-------2-------2-----|
|--------------------------------|--------------------------------|
|0-------------------------------|0-------------------------------|

 |       |       |       |        |       |       |       |
|--------2-------2-------2-------|2-------------------------------|
|--------------------------------|--------0-------0---------------|
|----2-------2-------2-------2---|----2-------2-------2-------2---|
|--2-------2-------2-------2-----|--1-------1-------1-------1-----|
|--------------------------------|------------------------3-------|
|0-------------------------------|0-------------------------------|

 |       |       |       |        |       |       |       |
|--------2-------3-------2-------|2---------------0---------------|
|--------------------------------|--------0---------------0-------|
|----2-------2-------2-------2---|----2-------2-------0-------0---|
|--1-------1-------1-------1-----|--2-------2-------2-------2-----|
|2-------------------------------|--------------------------------|
|--------------------------------|0-------------------------------|

 |       |       |       |        |       |       |       |
|--------3-------3-------3-------|3-------2-------2---------------|
|----0-------0-------0-------2---|----3-------3-------3-------3---|
|--------------------------------|--2-------2-------2-------2-----|
|--2-------2-------2-------2-----|0-----------------------0-------|
|--------------------------------|--------------------------------|
|0-------------------------------|--------------------------------|

 |       |       |       |        |       |       |       |
|--------5-------5-------5-------|5-------3-------3---------------|
|----3-------3-------3-------3---|----3-------3-------3-------3---|
|--5-------5-------5-------5-----|--4-------4-------4-------4-----|
|4-------------------------------|5-----------------------5-------|
|--------------------------------|--------------------------------|
|--------------------------------|--------------------------------|

 |       |       |       |        |       |       |       |
|--------7-------7-------7-------|7-------5-------5---------------|
|----3-------3-------3-------3---|----5-------5-------5-------5---|
|--4-------4-------4-------4-----|--5-------5-------5-------5-----|
|--------------------------------|--------------------------------|
|--------------------------------|--------------------------------|
|3-------------------------------|8-----------------------8-------|

 |       |       |       |        |       |       |       |
|--------3-------3-------3-------|3-------2-------2---------------|
|----5-------5-------5-------5---|----3-------3-------3-------3---|
|--3-------3-------3-------3-----|--2-------2-------2-------2-----|
|--------------------------------|0-----------------------0-------|
|4-------------------------------|--------------------------------|
|--------------------------------|--------------------------------|

 |       |       |       |        |       |       |       |
|--------2-------2-------2-------|2-------3-------3---------------|
|----3-------3-------3-------3---|----3-------3-------3-------3---|
|--2-------2-------2-------2-----|--0-------0-------0-------0-----|
|--------------------------------|--------------------------------|
|3-------------------------------|2-----------------------2-------|
|--------------------------------|--------------------------------|

 |       |       |       |        |       |       |       |
|--------5-------5-------5-------|6-------7-------7---------------|
|--------------------------------|----0-------0-------0-----------|
|----5-------5-------5-------5---|----------------------------0---|
|--------------------------------|--0-------0-------0-------0-----|
|--5-------5-------5-------5-----|--------------------------------|
|2-------------------------------|3-----------------------3-------|

 |       |       |       |        |       |       |       |
|--------3-------3-------3-------|--------5---------------8-------|
|----0-------0-------0-------0---|----5-------5-------5-------5---|
|--0-------0-------0-------0-----|--5-------5-------5-------5-----|
|------------------------2-------|--------------------------------|
|--------------------------------|--------------------------------|
|0-------------------------------|8---------------5---------------|

 |       |       |       |        |       |       |       |
|--------2-------2-------2-------|2-------3-------3---------------|
|----1-------1-------1-------1---|----1-------0-------0-------0---|
|--2-------2-------2-------2-----|--2-------0-------0-------0-----|
|0-----------------------1-------|2-----------------------2-------|
|--------------------------------|--------------------------------|
|--------------------------------|--------------------------------|

 |       |       |       |        |       |       |       |
|--------1-------1-------1-------|1-------0---------------5-------|
|----3-------3-------3-------3---|----3-------1-------5-------5---|
|--1-------1-------1-------1-----|--2-------2-------5-------5-----|
|--------------------------------|--------------------------------|
|2-------------------------------|3---------------0---------------|
|--------------------------------|--------------------------------|

 |       |       |       |        |       |       |       |
|5-------3-------3-------2-------|3-------------------------------|
|----3-------3-------1-------1---|----0---3---0---0---0---3---0---|
|--4-------4-------2-------2-----|--0-------0-------0-------0-----|
|0-------------------------------|--------0---------------0-------|
|--------------------------------|----------------2---------------|
|--------------------------------|3-------------------------------|

 |       |       |       |        |       |       |       |
|----------------7-------5-------|5---------------4---------------|
|--------3-----------------------|--------3---------------3-------|
|--------------------------------|----4-------4-------4-------4---|
|--------------------------------|--2-------2-------2-------2-----|
|--------------------------------|--------------------------------|
|3-------------------------------|0-------------------------------|

 |       |       |       |        |       |       |       |
|--------0-------2-------4-------|7---------------5---------------|
|----3-------3-------3-------3---|--------5---------------5-------|
|--4-------4-------4-------4-----|----7-------7-------5-------5---|
|--------------------------------|--6-------6-------7-------7-----|
|--------------------------------|0-------------------------------|
|0-------------------------------|--------------------------------|

 |       |       |       |        |       |       |       |
|----------------5---------------|3-------2-------2---------------|
|--------5---------------8-------|----1-------1-------1-------1---|
|----5-------5-------5-------5---|--2-------2-------2-------2-----|
|--7-------7-------7-------7-----|0-----------------------0-------|
|0-----------------------6-------|--------------------------------|
|--------------------------------|--------------------------------|

 |       |       |       |        |       |       |       |
|--------2-------0-------2-------|5---------------3---------------|
|----1-------1-------1-------1---|--------3---------------3-------|
|--2-------2-------2-------2-----|----5-------5-------4-------4---|
|0-------------------------------|--4-------4-------5-------5-----|
|--------------------------------|--------------------------------|
|--------------------------------|3-------------------------------|

 |       |       |       |        |       |       |       |
|--------3-------3-------3-------|3---------------2---------------|
|----3-------3-------3-------3---|--------0---------------0-------|
|--4-------4-------4-------4-----|----2-------2-------2-------2---|
|--------------------------------|--1-------1-------1-------1-----|
|--------------------------------|2-------------------------------|
|3-------------------------------|--------------------------------|

 |       |       |       |        |       |       |       |
|--------2-------2-------2-------|2---------------0---------------|
|--------------------------------|--------0---------------0-------|
|----2-------2-------2-------2---|----0-------0-------0-------0---|
|--1-------1-------1-------1-----|--2-------2-------2-------2-----|
|2-------------------------------|--------------------------------|
|--------------------------------|0-------------------------------|

 |       |       |       |        |       |       |       |
|--------3-------3-------3-------|3---------------2---------------|
|--------------------------------|--------0---------------0-------|
|----0-------0-------0-------0---|----2-------2-------2-------2---|
|--2-------2-------2-------2-----|--1-------1-------1-------1-----|
|--------------------------------|2-------------------------------|
|0-------------------------------|--------------------------------|

 |       |       |       |        |       |       |       |
|--------2-------2-------2-------|2---------------0---------------|
|--------------------------------|--------0---------------0-------|
|----2-------2-------2-------2---|----0-------0-------0-------0---|
|--1-------1-------1-------1-----|--2-------2-------2-------2-----|
|0-------------------------------|--------------------------------|
|--------------------------------|0-------------------------------|

 |       |       |       |        |       |       |       |
|--------0-------0-------0-------|3---------------2---------------|
|----0-------0-------0-------0---|--------1---------------1-------|
|--0-------0-------0-------0-----|----2-------2-------2-------2---|
|--------------------------------|--2-------2-------2-------2-----|
|--------------------------------|--------------------------------|
|0-------------------------------|0-------------------------------|

 |       |       |       |        |       |       |       |
|--------2-------2-------2-------|5---------------4---------------|
|--------------------------------|--------3---------------3-------|
|----2-------2-------2-------2---|----4-------4-------4-------4---|
|--2-------2-------2-------2-----|--2-------2-------2-------2-----|
|--------------------------------|--------------------------------|
|0-------------------------------|0-------------------------------|

 |       |       |       |        |       |       |       |
|--------4-------4-------4-------|7-------5-------5-------3-------|
|----3-------3-------3-------3---|----5-------5-------3-------3---|
|--4-------4-------4-------4-----|--5-------5-------4-------4-----|
|--------------------------------|--------------------------------|
|--------------------------------|--------------------------------|
|0-------------------------------|5-------------------------------|

 |       |       |       |        |       |       |       |
|3-------2-------2-------0-------|0-------------------------------|
|----1-------1-------2-------2---|--------4-------4-----------0---|
|--2-------2-------0-------0-----|----4-------4-------4-----------|
|--------------------------------|--4-------4-------4-------4-----|
|0---------------1---------------|2-----------------------2-------|
|--------------------------------|--------------------------------|

 |       |       |       |        |       |       |       |
|--------0-------0-------0-------|0-------------------------------|
|--------------------------------|--------4-------4-----------0---|
|----3-------3-------3-------3---|----4-------4-------4-----------|
|--5-------5-------5-------5-----|--4-------4-------4-------4-----|
|2-------------------------------|2-----------------------2-------|
|--------------------------------|--------------------------------|

 |       |       |       |        |       |       |       |
|--------0-------0-------0-------|0-------------------------------|
|--------------------------------|--------4-------4-----------0---|
|----3-------3-------3-------3---|----4-------4-------4-----------|
|--5-------5-------5-------5-----|--4-------4-------4-------4-----|
|2-------------------------------|2-----------------------2-------|
|--------------------------------|--------------------------------|

 |       |       |       |        |       |       |       |
|--------------------------------|--------4-------4---------------|
|--------0-------0-------0-------|0-------------------------------|
|--------------------------------|----1-------1-------1-------1---|
|--------------------------------|--2-------2-------2-------2-----|
|2-------------------------------|--------------------------------|
|--------------------------------|0-----------------------0-------|

 |       |       |       |        |       |       |       |
|--------2-------2-------2-------|2-------0-------0---------------|
|----4-------4-------4-------4---|----4-------2-------2-------2---|
|--2-------2-------2-------2-----|--2-------1-------1-------1-----|
|--------------------------------|--------------------------------|
|2-------------------------------|4-----------------------4-------|
|--------------------------------|--------------------------------|

 |       |       |       |        |       |       |       |
|--------------------------------|--------------------------------|
|--------5-------4-------2-------|2-------0-------0-----------0---|
|----6-------6-------4-------2---|----2-------1-------1-----1-----|
|--6-------6-------2-------2-----|--2-------2-------2-----2-------|
|0-------------------------------|2-------------------------------|
|--------------------------------|--------------------------------|

 |       |       |       |        |       |       |       |
|--------------------------------|--------0-------0---------------|
|--------4-------4-------4-------|4-----------------------0-------|
|----2-------2-------2-------2---|----2-------1-------1-------1---|
|--4-------4-------4-------4-----|--4-------2-------2-------2-----|
|2-------------------------------|--------------------------------|
|--------------------------------|0-------------------------------|

 |       |       |       |        |       |       |       |
|--------------------------------|--------4-------4---------------|
|--------0-------0-------0-------|0-------------------------------|
|----1-------1-------1-------1---|----1-------1-------1-------1---|
|--2-------2-------2-------2-----|--2-------2-------2-------2-----|
|--------------------------------|--------------------------------|
|0-------------------------------|0-----------------------0-------|

 |       |       |       |        |       |       |       |
|--------2-------2-------2-------|2-------0-------0---------------|
|----4-------4-------4-------4---|----4-------2-------2-------2---|
|--2-------2-------2-------2-----|--2-------1-------1-------1-----|
|--------------------------------|--------------------------------|
|2---------------3---------------|4-----------------------4-------|
|--------------------------------|--------------------------------|

 |       |       |       |        |       |       |       |
|--------------------------------|--------------------------------|
|--------5-------4-------2-------|2-------0-------0---------------|
|----6-------6-------4-------2---|----2-------1-------1-------1---|
|--7---------------2-------2-----|--2-------2-------2-------2-----|
|0---------7---------------------|2-----------------------2-------|
|--------------------------------|--------------------------------|

 |       |       |       |        |       |       |       |
|--------------------------------|0-------4-------2-------0-------|
|--------4-------4-------4-------|--------------------------------|
|----2-------2-------2-------2---|----1-------1-------1-------1---|
|--4-------4-------4-------4-----|--2-------2-------2-------2-----|
|2-------------------------------|--------------------------------|
|--------------------------------|0-------------------------------|

 |       |       |       |        |       |       |       |
|2-------0-----------------------|--------------------------------|
|----4-------2---4-------2-------|2-------0-------0---------------|
|--------------------4-------2---|----1-------1-------1-------1---|
|--2-------2-------2-------2-----|--2-------2-------2-------2-----|
|0-------------------------------|2-----------------------2-------|
|--------------------------------|--------------------------------|

 |       |       |       |        |       |       |       |
|--------------------------------|0-------------------------------|
|--------4-------4-------4-------|----0-------0-------0-------0---|
|----2-------2-------2-------2---|--1-------1-------1-------1-----|
|--4-------4-------4-------4-----|--------2-------2-------2-------|
|2-------------------------------|--------------------------------|
|--------------------------------|0-------------------------------|

 |       |       |       |        |       |       |       |
|----------------0---------------|----------------2-------0-------|
|--------0---------------4-------|--------0-----------------------|
|----2-------2-------2-------2---|----1-------1-------1-------1---|
|--4-------4-------4-------4-----|--2-------2-------2-------2-----|
|--------------------------------|--------------------------------|
|0-------------------------------|0-------------------------------|

 |       |       |       |        |       |       |       |
|----------------4-------2-------|----------------2-------0-------|
|--------0-----------------------|--------0-----------------------|
|----2-------2-------2-------2---|----1-------1-------1-------1---|
|--1-------1-------1-------1-----|--2-------2-------2-------2-----|
|--------------------------------|--------------------------------|
|0-------------------------------|0-------------------------------|

 |       |       |       |        |       |       |       |
|----------------0---------------|----------------2-------0-------|
|--------0---------------4-------|--------0-----------------------|
|----2-------2-------2-------2---|----1-------1-------1-------1---|
|--4-------4-------4-------4-----|--2-------2-------2-------2-----|
|--------------------------------|--------------------------------|
|0-------------------------------|0-------------------------------|

 |       |       |       |        |       |       |       |
|----------------4-------2-------|----------------0---------------|
|--------0-----------------------|--------0-----------------------|
|----2-------2-------2-------2---|----1-------1-------1-------1---|
|--1-------1-------1-------1-----|--2-------2-------2-------2-----|
|--------------------------------|------------------------2-------|
|0-------------------------------|0-------------------------------|

 |       |       |       |        |       |       |       |
|----------------0---------------|----------------0---------------|
|--------0-----------------------|--------0---------------0-------|
|----1-------1-------1-------1---|----1-------1-------1-------1---|
|--2-------2-------2-------2-----|--2-------2-------2-------2-----|
|------------------------2-------|--------------------------------|
|0-------------------------------|0---------------0---------------|

 |       |       |       |
|0-------------------------------|
|--------------------------------|
|--------------------------------|
|--------------------------------|
|--------------------------------|
|0-------------------------------|

From : Samuel.Lumele (melesambo@hotmail.com)

comments
We did not receive enough feedback on this tab! Please rate:
print report bad tab
1 2 3 4 5
I want to post or [tab]
guest
You may want to rate the tab now too:
select rating
Please do not post tabs as comments. Select "correction" instead!