Oops, an error
Loading. Please wait.

Segovia Study No 8 Tab

337 views 1 this week
no commentswrite comment
1 2 3 4 5
please rate
add to favorites launch autoscroll
font size
0
reset
Autoscroll
+/-
esc
set tempo
stop
Contributor
WARNING: You are trying to view
                                    content from Ultimate-Guitar.com
                                    in an unauthorized application,
                                    which is prohibited.

                                    Please use an official Ultimate
                                    Guitar Tabs application for iPhone,
                                    iPad or Android to access legitimate
                                    chords, guitar, bass, and drum tabs
                                    from Ultimate-Guitar.com database.

                                    Type "ultimate guitar tabs" in Apple
                                    App Store's or Android Market's
                                    search to find the application.
Op 31 No 16 in Dm (Segovia Study No 8) - Fernando Sor (1778-1839)
******************************************************************************
1st version by hyperion
2nd version by Dirk Meineke
******************************************************************************

estudio 8 (op.31, no.16)
fernando sor
tempo: lento
transcribed: hyperion 

||-1-----------------1----|-0-----------0-----0----|
||-3-----------------3----|-3-----------2-----2----|
||----------------------0-|-2--3--2--1--2-----2--0-|
||-0-----0--2--3--0--3----|------------------------|
||----0-------------------|----------------0-------|
||------------------------|------------------------|

 |-1-----------3-----1----|-1-----------0----------|
 |-3-----------5-----3----|-3-----------2----------|
 |-0----------------------|-2--1--2--1--2--0-------|
 |----3--2--0--------0--3-|-------------------3--2-|
 |-------------4--0-------|------------------------|
 |------------------------|------------------------|

 |-1-----------------1----|-0-----------------5----|
 |-3-----------------3----|-1-----1----------------|
 |----------------------0-|-2--3-----3--2--0--5----|
 |-0-----0--2--3--0--3----|-------------------3--2-|
 |----0-------------------|------------------------|
 |------------------------|------------------------|

                           _________________________
                          |1.
 |-5-----------4-----4----|-5-----------------------||
 |-0-----------------3----|-------------------------||
 |------------------------|-5--2--1--2--1--2--0----.||
 |-0--------0--2--3--2----|----------------------2-.||
 |----2--3----------------|-0-----------------------||
 |----------------------0-|-------------------------||

  _______________________
 |2.
 |-5--------------------||--5-----------------5----|
 |----------------------||--------------------6----|
 |-5--2-----------------||.-5--------------0--2--3-|
 |-------2--------------||.----------2--3----------|
 |-0--------3--0--------||-----0--3----------------|
 |----------------------||--1----------------------|

 |-3-----------------5----|-6-----------------6----|
 |-6-----5--3--5-----7----|-8-----------------8----|
 |-5--------------5-------|-0-----0--------0-----5-|
 |-------------------8--7-|----0-----7--8-----8----|
 |----3-------------------|------------------------|
 |------------------------|------------------------|

 |-5----------------------|----5--3--2--3----------|
 |-8-----6--5--6-----6--5-|-3-----------3--3--5--3-|
 |-7-----------------7--5-|-3-----------------3----|
 |----0-----------0-------|------------------------|
 |------------------------|------------------------|
 |------------------------|------------------------|

 |----3--5--3--1----------|-0-----------0----------|
 |-2-----------3----------|-3-----------3----------|
 |-2-----------------3--2-|-0--2--3--2--1--2--4--1-|
 |----------------0-------|------------------------|
 |------------------------|------------------------|
 |------------------------|------------------------|

 |-0----------------------|-1-----------------1----|
 |-2----------------------|-3-----------------3----|
 |-2-----------2--0-------|----------------------0-|
 |----------2--------3--2-|-0-----0--2--3--0--3----|
 |----0--4----------------|----0-------------------|
 |------------------------|------------------------|

 |-0-----------0-----0----|-1-----------3-----1----|
 |-3-----------2-----2----|-3-----------5-----3----|
 |-2--1--2--1--2-----2--0-|-0----------------------|
 |------------------------|----3--2--0--------0--3-|
 |----------------0-------|-------------4--0-------|
 |------------------------|------------------------|

 |-1-----------0----------|-5-----------3-----3----|
 |-3-----------2----------|------------------------|
 |-2--3--2--1--2-----2--0-|-5-----------3-----3----|
 |------------------------|-4--0--2--4--5--3--2--0-|
 |----------------0-------|------------------------|
 |------------------------|------------------------|

 |-3-----------1-----1----|-0-----------1-----0----|
 |-------------------3----|-3-----------3-----2----|
 |-2-----------2----------|----0--2--3--2--1--2----|
 |-------2-----0----------|------------------------|
 |-4--0-----4-----3--1--0-|----------------------0-|
 |------------------------|-3----------------------|
 

 |-1----------------------||
 |----3-------------------||
 |-------2---------------.||
 |-0--------3--0---------.||
 |------------------------||
 |------------------------||

******************************************************************************
******************************************************************************

Fernando Sor - Estudio 8
From the 20 Studies selected by Segovia
Sor op31 no.16

Tuning         : E A D G B E
Time signature : 2/4
Key Signature  : (b)

Lento

  |               |                  |               |                 
||1-----------------------1--------|-0---------------0-------0--------|
|*3-----------------------3--------|-3---------------2-------2--------|
||----------------------------0----|-2h--3---2---1---2-------2---0----|
||0-------0---2---3p--0---3--------|----------------------------------|
|*----0----------------------------|---------------------0------------|
||---------------------------------|----------------------------------|

  |               |                  |               |                 
|-1---------------3-------1--------|-1---------------0----------------|
|-3---------------5-------3--------|-3---------------2----------------|
|-0--------------------------------|-2---1---2---1---2p--0------------|
|-----3---2p--0-----------0---3----|-------------------------3---2----|
|-----------------4---0------------|----------------------------------|
|----------------------------------|----------------------------------|

  |               |                  |               |                 
|-1-----------------------1--------|-------------------------5--------|
|-3-----------------------3--------|-5-----------------------1--------|
|-----------------------------0----|-5---3---5---3---2---0------------|
|-0-------0---2---3p--0---3--------|-7-----------------------3---2----|
|-----0----------------------------|----------------------------------|
|----------------------------------|----------------------------------|

  |               |                >1|               |                 
|-5---------------4-------4-------||-5-------------------------------||
|-------------------------3-------||---------------------------------*|
|-4-------------------------------||-5---2---1---2---1h--2---0-------||
|-------------0---2h--3---2-------||-----------------------------2---||
|-5---2---3-----------------------||---------------------------------*|
|-----------------------------0---||-5-------------------------------||

>2|               |                  |               |                 
|-5--------------------------------||5-----------------------5--------|
|-1--------------------------------|*------------------------6--------|
|-----2----------------------------||5-------------------0------------|
|---------2------------------------||------------------------7---8----|
|-0-----------3---0----------------|*----0---3---7---8----------------|
|----------------------------------||1--------------------------------|

  |               |                  |               |                 
|-3-----------------------5--------|-6-----------------------6--------|
|-6-------5p--3---5-------7--------|-8-----------------------8--------|
|-5-------------------5------------|-0-------0-------3---0---3---5----|
|-------------------------8---7----|-----0-------7--------------------|
|-----3----------------------------|----------------------------------|
|----------------------------------|----------------------------------|

  |               |                  |               |                 
|-5--------------------------------|-----5p--3-------3----------------|
|-8-------6p--5---6-------6---5----|-3-----------7-------3---5p--3----|
|-7-----------------------7---5----|-3-----------------------3--------|
|----------------------------------|----------------------------------|
|-----5---------------5------------|----------------------------------|
|----------------------------------|----------------------------------|

  |               |                  |               |                 
|-----3h--5---3---1----------------|-0---------------0----------------|
|-2---------------3----------------|-3---------------3----------------|
|-2-----------------------3---2----|-0h--2---3---2---1---2---4---1----|
|---------------------0------------|----------------------------------|
|----------------------------------|----------------------------------|
|----------------------------------|----------------------------------|

  |               |                  |               |                 
|-0--------------------------------|-1-----------------------1--------|
|-2--------------------------------|-3-----------------------3--------|
|-2---------------2p--0------------|-----------------------------0----|
|-------------2-----------3---2----|-0-------0---2---3p--0---3--------|
|-----0h--4------------------------|-----0----------------------------|
|----------------------------------|----------------------------------|

  |               |                  |               |                 
|-0---------------0-------0--------|-1---------------3-------1--------|
|-3---------------2-------2--------|-3---------------5-------3--------|
|-2p--1---2---1---2-------2---0----|-0--------------------------------|
|----------------------------------|-----3---2p--0-----------0---3----|
|---------------------0------------|-----------------4---0------------|
|----------------------------------|----------------------------------|

  |               |                  |               |                 
|-1---------------0----------------|-5---------------3-------3--------|
|-3---------------2----------------|----------------------------------|
|-2h--3---2---1---2-------2p--0----|-5---------------3-------3--------|
|----------------------------------|-4p--0---2---4---5p--3---2---0----|
|---------------------0------------|----------------------------------|
|----------------------------------|----------------------------------|

  |               |                  |               |                 
|-3---------------1-------1--------|-0---------------1-------0--------|
|-------------------------3--------|-3---------------3-------2--------|
|-2---------------2----------------|-----0---2/--3---2p--1---2--------|
|---------2-------0----------------|----------------------------------|
|-4p--0-------4-------3p--1---0----|-----------------------------0----|
|----------------------------------|-3--------------------------------|

  |               |                 
|-1-------------------------------||
|-----3---------------------------*|
|---------2-----------------------||
|-0-----------3---0---------------||
|---------------------------------*|
|---------------------------------||

Created with TablEdit http://www.tabledit.com/

***********************************************************************
**                  TablEdited by D.Meineke, 01/01                   **
**                    e-mail: d.meineke@web.de                       **
**          Dirkґs GuitarPage at: www.geocities.com/mke_dgp          **
**  Get TablEdit file (tef) MIDI (mid) and sheet music (pdf) there.  **
***********************************************************************

******************************************************************************
******************************************************************************

comments
We did not receive enough feedback on this tab! Please rate:
print report bad tab
1 2 3 4 5
I want to post or [tab]
guest
You may want to rate the tab now too:
select rating
Please do not post tabs as comments. Select "correction" instead!