Oops, an error
Loading. Please wait.

Chameleon Carnival Tab

1,999 views 1 this week
no commentswrite comment
1 2 3 4 5
excellent!
x 2
add to favorites launch autoscroll
font size
0
reset
Autoscroll
+/-
esc
set tempo
stop
Contributor
Difficulty
advanced
WARNING: You are trying to view
                                    content from Ultimate-Guitar.com
                                    in an unauthorized application,
                                    which is prohibited.

                                    Please use an official Ultimate
                                    Guitar Tabs application for iPhone,
                                    iPad or Android to access legitimate
                                    chords, guitar, bass, and drum tabs
                                    from Ultimate-Guitar.com database.

                                    Type "ultimate guitar tabs" in Apple
                                    App Store's or Android Market's
                                    search to find the application.
Chameleon Carnival
By Andromeda
Tabbed by Will (listless)

All the difficult parts are damn close to perfect, if not so already. Listen to the song 
get the rhythm down.


E|-------12-13-12----------12-15-12-------|
B|-----15---------15-----13--------13-----|
G|---14-------------14-12------------12---|
D|-12----------------------------------14-|
A|----------------------------------------|
E|----------------------------------------|

E|---------13-17-15-13-17/20-15------15-22--|
B|-------15--------------------17--17-------|
G|-----14------------------------19---------|
D|12-15-------------------------------------|
A|------------------------------------------|
E|------------------------------------------|


E|-------12-13-12----------12-15-12-------|
B|-----15---------15-----13--------13-----|
G|---14-------------14-12------------12---|
D|-12----------------------------------14-|
A|----------------------------------------|
E|----------------------------------------|

E|---------13-17-15-13----------------------|
B|-------15---------------------------------|
G|-----14-----------------------------------|
D|12-15-------------------------------------|
A|------------------------------------------|
E|------------------------------------------|


E|---------10-11-10---------10-13-10--------|
B|-------13--------13-----11--------11------|
G|-----12------------12-10------------10----|
D|---10---------------------------------12--|
A|------------------------------------------|
E|------------------------------------------|

E|-----------11-15-13-11-15/18-13------13-20|
B|---------13--------------------15--15-----|
G|-------12------------------------17-------|
D|--10-13-----------------------------------|
A|------------------------------------------|
E|------------------------------------------|

E|---------10-11-10---------10-13-10--------|
B|-------13--------13-----11--------11------|
G|-----12------------12-10------------10----|
D|---10---------------------------------12--|
A|------------------------------------------|
E|------------------------------------------|

E|-----------11-15-13-11-15/18-13------13-20|
B|---------13--------------------15--15-----|
G|-------12------------------------17-------|
D|--10-13-----------------------------------|
A|------------------------------------------|
E|------------------------------------------|

E|------------------------------------------|
B|-------------------------------------1----|
G|---5-3----5-3--2-3-2h3p2p0-------0-3------|
D|-3------3-----------------1----1----------|
A|------------------------------------------|
E|------------------------------------------|

E|----------------------10h11h12----------11h12h14-|
B|-----1-3--4-5-6—6h7h8----------11h12h14----------|
G|---2---------------------------------------------|
D|-3-----------------------------------------------|
A|-------------------------------------------------|
E|-------------------------------------------------|

E|---------10-11-10---------10-13-10--------|
B|-------13--------13-----11--------11------|
G|-----12------------12-10------------10----|
D|---10---------------------------------12--|
A|------------------------------------------|
E|------------------------------------------|

E|-----------11-15-13-11-15/18-13------13-20|
B|---------13--------------------15--15-----|
G|-------12------------------------17-------|
D|--10-13-----------------------------------|
A|------------------------------------------|
E|------------------------------------------|

E|---------10-11-10---------10-13-10--------|
B|-------13--------13-----11--------11------|
G|-----12------------12-10------------10----|
D|---10---------------------------------12--|
A|------------------------------------------|
E|------------------------------------------|

E|-----------11-15-13-11-15/18-13------13-20|
B|---------13--------------------15--15-----|
G|-------12------------------------17-------|
D|--10-13-----------------------------------|
A|------------------------------------------|
E|------------------------------------------|

E|--------10-11-10--------------------------|
B|------13--------13\-----------------------|
G|----12---------------------8-12-8----8----|
D|--10--------------------12--------12------|
A|---------------------10-------------------|
E|------------------------------------------|

E|--------10-15-10--------------------------|
B|------13--------13------------------------|
G|----12------------12----------------------|
D|--10----------------------------10--------|
A|-----------------------10-11-13----13-11\-|
E|------------------------------------------|

E|--------10-11-10--------------------------|
B|------13--------13\-----------------------|
G|----12---------------------8-12-8----8----|
D|--10--------------------12--------12------|
A|---------------------10-------------------|
E|------------------------------------------|

E|--------10-15-10--------------------------|
B|------13--------13------------------------|
G|----12------------12----------------------|
D|--10----------------------------10--------|
A|-----------------------10-11-13----13-11\-|
E|------------------------------------------|

E|--------10-11-10--------------------------|
B|------13--------13\-----------------------|
G|----12------------------3-----------------|
D|--10------------------5---5-6-5-3-5-------|
A|------------------------------------------|
E|------------------------------------------|

E|------------------------------------------|
B|------------------------------------------|
G|---------0-------------4-5-7-5-4----------|
D|---0-1-3---3-1-0-----5--------------------|
A|-1-----------------5----------------------|
E|------------------------------------------|

E|-----------------|
B|-----------------|
G|------6-7-9-7\---|
D|----7------------|
A|--7--------------|
E|-----------------|

E|-------12-13-12---------------------------|
B|-----15--------15\------------------------|
G|---14--------------------10-14-10--10-----|
D|-12--------------------14--------14-------|
A|---------------------12-------------------|
E|------------------------------------------|


E|-------12-17-12---------------------------|
B|-----15--------15-------------------------|
G|---14------------14-----------------------|
D|-12----------------------------12---------|
A|----------------------12-13-15----15-13-12|
E|------------------------------------------|

E|-------12-13-12---------------------------|
B|-----15--------15\------------------------|
G|---14--------------------10-14-10--10-----|
D|-12--------------------14--------14-------|
A|---------------------12-------------------|
E|------------------------------------------|


E|-------12-17-12---------------------------|
B|-----15--------15-------------------------|
G|---14------------14-----------------------|
D|-12----------------------------12---------|
A|----------------------12-13-15----15-13-12|
E|------------------------------------------|

E|------------------------------------------|
B|------------------------------------------|
G|--------------12----------12-10-9---------|
D|-12--10-11-12---------10----------12-10---|
A|------------------12----------------------|
E|------------------------------------------|

E|------------------------------------------|
B|-----------------------9-10-11-12---------|
G|------------9-10-11-12--------------------|
D|-9-10-11-12-------------------------------|
A|------------------------------------------|
E|------------------------------------------|

E|--------------13----------13-11-10--------|
B|-13--11-12-13---------11-----------13-11--|
G|------------------12----------------------|
D|------------------------------------------|
A|------------------------------------------|
E|------------------------------------------|

E|------------------------------------------|
B|------------------------------------------|
G|----5-3-5---------3-----5-3-5---------3---|
D|----------------3-------------------3-----|
A|-3---------6--6-------3--------6--6-------|
E|------------------------------------------|

      PM PM PM PM|       PM PM PM PM|
E|------------------------------------------|
B|------------------------------------------|
G|------3--3--3----2~~----3--3--3----5~~----|
D|------------------------------------------|
A|--3-33-33-33-333------33-33-33-333--------|
E|------------------------------------------|

E|------------------------------------------|
B|------------------------------------------|
G|----5-3-5---------3-----5-3-5---------3---|
D|----------------3-------------------3-----|
A|-3---------6--6-------3--------6--6-------|
E|------------------------------------------|

      PM PM PM PM|      PM.|  PM.|  PM.|  PM...|
E|------------------------------------------------------|
B|------------------------------------------------------|
G|------3--3--3----2~~------11----11----11-------13~~\--|
D|------------------------------------------------------|
A|--3-33-33-33-333------1010--1010--1010--101010--------|
E|------------------------------------------------------|


E|------------------11-------10------8------|
B|------------------------------------------|
G|--8-----7-----5------11-10----10-8---8----|
D|------------------------------------------|
A|----9-8---8-6---6-------------------------|
E|------------------------------------------|

E|------------------------------------------|
B|------------------------------------------|
G|------------------------------------------|
D|-10-9-8---------10---------8--------------|
A|---------10-9-8-----10-9-8----8----8------|
E|--------------------------------11--------|

E|------------------------------------------|
B|------------------------------------------|
G|----------------5--------5----------------|
D|------------------8-7-8---87--------------|
A|------------------------------------------|
E|-11-8-6-8--8-6----------------------------|

E|------------------------------------------|
B|------------------------------------------|
G|----5-3-5---------3-----5-3-5---------3---|
D|----------------3-------------------3-----|
A|-3---------6--6-------3--------6--6-------|
E|------------------------------------------|

E|------------------------------------|
B|------------------------------------|
G|------------------------------------|
D|----------10---------8--------------|
A|---10-9-8-----10-9-8----8----8------|
E|--------------------------11--------|

E|------------------------------------------|
B|------------------------------------------|
G|----------------5--------5----------------|
D|------------------8-7-8---87--------------|
A|------------------------------------------|
E|-11-8-6-8--8-6----------------------------|

E|------------------------------------------|
B|------------------------------------------|
G|------------10----------------------------|
D|-10--8-9-10---------8--10-8-7-------------|
A|----------------10------------10-8--------|
E|------------------------------------------|

             PM...|                 PM...|
E|--------------------------------------------------|
B|--------------------------------------------------|
G|--------------------------------------------------|
D|--------------------------------------------------|
A|-3--3-1-3---------1----3--3-1-3---------1---------|
E|-----------1--1-3----------------1--1-3----0h1h3--|

Play above riff 4x

E|------------------------------------------|
B|------------------------------------------|
G|-3/5-XXXX-8\3-XX-5-55-XX-8-7-5\-----------|
D|-3/5-XXXX-8\3-XX-5-55-XX-8-7-5\-----------|
A|-1/3-XXXX-6\1-XX-3-33-XX-6-5-3\-----------|
E|------------------------------------------|

E|------------------------------------------|
B|------------------------------------------|
G|-3/5-XXXX-8\3-XX-5-55-XX------------------|
D|-3/5-XXXX-8\3-XX-5-55-XX-8-7-5\-----------|
A|-1/3-XXXX-6\1-XX-3-33-XX-8-7-5\-----------|
E|-------------------------6-5-3\-----------|

E|------------------------------------------|
B|------------------------------------------|
G|-3/5-XXXX-8\3-XX-5-55-XX-8-7-5\-----------|
D|-3/5-XXXX-8\3-XX-5-55-XX-8-7-5\-----------|
A|-1/3-XXXX-6\1-XX-3-33-XX-6-5-3\-----------|
E|------------------------------------------|
                                                PM....|
E|------------------------------------------|
B|------------------------------------------|
G|-3/5-XXXX-8\3-XX-5-55-XX------------------|
D|-3/5-XXXX-8\3-XX-5-55-XX-9-8-7-6----------|
A|-1/3-XXXX-6\1-XX-3-33-XX-9-8-7-6----------|
E|-------------------------7-6-5-4----------|

        PM...|                    PM...|
E|------------------------------------------|
B|------------------------------------------|
G|------------------------------------------|
D|-5-5-------------------5---5--------------|
A|-5-5----------3--1--3--5---5----------3--1|
E|-3-3--1-3-1-3----------3---3--1-3-1-3-----|

        PM...|                    PM...|
E|------------------------------------------|
B|------------------------------------------|
G|------------------------------------------|
D|-5-5-------------------5---5--------------|
A|-5-5----------3--1--3--5---5--------------|
E|-3-3--1-3-1-3----------3---3--1-3-1-3-----|


E|------------------------------------------|
B|------------------------------------------|
G|-------5-3--6------5-------6--------------|
D|-5-3----------3h4h5---3h4h5---6-6---------|
A|------------------------------------------|
E|------------------------------------------|

E|------------------------------------------|
B|------------------------------------------|
G|------------------------------------------|
D|------------------------------------------|
A|---------------1--0-----------------------|
E|-1-3--3--3-3-3------3--1-3--3--3-3-3------|

             PM PM PM PM|     PM PM PM PM|
E|-------------------------------------------|
B|-8-6---6\----6--6--6----5~~---6--6--6----8\|
G|-----7-------------------------------------|
D|-----------55-55-55-555-----55-55-55-555---|
A|-------------------------------------------|
E|-------------------------------------------|

E|------------------------------------------|
B|------------------------------------------|
G|------------------------------------------|
D|---------------1--0-----------------------|
A|-1-3--3--3-3-3------3--1-3--3--3-3-3------|
E|------------------------------------------|
                 PM.|  PM.|  PM.|  PM...|
E|---------------------------------------------|
B|-13-11----11\------11----11----11------10~~~-|
G|-------12------------------------------------|
D|---------------1010--1010--1010--101010------|
A|---------------------------------------------|
E|---------------------------------------------|
   PM.|  PM.|  PM.|  PM...|
E|------------------------------------------|
B|-----11----11----11-------13\-------------|
G|------------------------------------------|
D|-1010--1010--1010--101010-----------------|
A|------------------------------------------|
E|------------------------------------------|

E|------------------------------------------|
B|------------------------------------------|
G|------------------------------------------|
D|---------------1--0-----------------------|
A|-1-3--3--3-3-3------3--1-3--3--3-3-3------|
E|------------------------------------------|

E|------------------------------------------|
B|-13-11----11\-----------------------------|
G|-------12------8--7--3--5\----------------|
D|---------------8--7--3--5\----------------|
A|---------------6--5--1--3\----------------|
E|------------------------------------------|

E|------------------------------------------|
B|------------------------------------------|
G|--3—5\-------------8--7--5\---------------|
D|--3--5\------------8--7--5\---------------|
A|--1--3\------------6--5--3\---------------|
E|------------------------------------------|

E|------------------------------------------|
B|------------------------------------------|
G|--3--5\------------9----------8--------5\-|
D|--3--5\--------------11-10-9---10-9-8-----|
A|--1--3\-----------------------------------|
E|------------------------------------------|

E|------------------------------------------|
B|------------------------------------------|
G|--3--5\------------9----------8--------5\-|
D|--3--5\--------------11-10-9---10-9-8-----|
A|--1--3\-----------------------------------|
E|------------------------------------------|

E|------------------------------------------|
B|------------------------------------------|
G|--3--5\------------9----------8-----------|
D|--3--5\--------------11-10-9---10-9-8-----|
A|--1--3\--------------------------------3--|
E|------------------------------------------|


E|------------------------------------------------------|
B|------------------------------------------------------|
G|----5---------3----3-4-5------------------------------|
D|--------------------------------5-5~~------3-1-0------|
A|--3---3--1--1---1---------------------1-1----------1--|
E|--------------------------3-3-3-----------------------|

E|------------------------------------------------------|
B|------------------------------------------------------|
G|----5---------3----3-4-5------------------------------|
D|--------------------------------5-5~~------3-1-0------|
A|--3---3--1--1---1---------------------1-1-------------|
E|--------------------------3-3-3-----------------------|

E|--11-8---8-11-8---8-13-10------10-13-10------10-------|
B|------9-9------9-9-------11--11--------11--11---------|
G|-------8--------8----------10------------10-----------|
D|------------------------------------------------------|
A|------------------------------------------------------|
E|------------------------------------------------------|

E|--15-11------11-15-11------11--------------------------------------|
B|-------13--13--------13--13--15-12------12-15-12------12-----------|
G|---------12------------12---------12--12--------12--12-------------|
D|------------------------------------12------------12---------------|
A|-------------------------------------------------------------------|
E|-------------------------------------------------------------------|


E|-------------------------------------10-11-13----------------------|
B|--------------------11-13------------------------------11-12-13----|
G|-----------10-12-13---------10-11-13----------11-12-13-------------|
D|--10-12-13---------------------------------------------------------|
A|-------------------------------------------------------------------|
E|-------------------------------------------------------------------|

Those are all the component parts to the song, minus the solo. If I decide to learn the 
at some point I’ll post it.
comments
We did not receive enough feedback on this tab! Please rate:
print report bad tab
1 2 3 4 5
I want to post or [tab]
guest
You may want to rate the tab now too:
select rating
Please do not post tabs as comments. Select "correction" instead!