Oops, an error
Loading. Please wait.

Star Shooter Supreme Bass Tab

ver1
ver1

Whole song

Interactive

More versions @911Tabs.com
104 views 1 this week
no commentswrite comment
1 2 3 4 5
please rate
Autoscroll
+/-
esc
set tempo
stop
Contributor
Difficulty
advanced
Hey! There's an official Ultimate Guitar app which is ideal
for learning songs when you're away from computer. Get the app
WARNING: You are trying to view
                                    content from Ultimate-Guitar.com
                                    in an unauthorized application,
                                    which is prohibited.

                                    Please use an official Ultimate
                                    Guitar Tabs application for iPhone,
                                    iPad or Android to access legitimate
                                    chords, guitar, bass, and drum tabs
                                    from Ultimate-Guitar.com database.

                                    Type "ultimate guitar tabs" in Apple
                                    App Store's or Android Market's
                                    search to find the application.
                     Star Shooter Supreme - Andromeda                         



             S S S S S S S S S S S S S S S S  
C||-------|----------------------------------|
G||-------|----------------------------------|
D||-------|--2-0-0-3-0-0-4-0-0-5-0-0-6-0-7-0-|
A||-------|----------------------------------|
E||-------|----------------------------------|
B||-------|----------------------------------|


  S S S S S S  S S S  S S S  S S  S S     H         H         
--------------------------------------|----------------------|
--------------------------------------|----------------------|
--8-0-0-9-0-0-10-0-0-11-0-0-12-0-13-0-|----------------------|
--------------------------------------|----------------------|
--------------------------------------|----------------------|
--------------------------------------|--12\-----------------|


  H         E  E  Q       H         H           S S S S S S E   
-----------------------|---------------------|-----------------|
-----------------------|---------------------|-----------------|
-----------------------|---------------------|-----------------|
------------7--7--5----|---------------------|-----------------|
--7\-------------------|--7\-----------------|-----------------|
-----------------------|---------------------|--5-3-3-6-3-3-7--|


  H         H           H         E  E  Q       H         H         
---------------------|-----------------------|---------------------|
---------------------|-----------------------|---------------------|
---------------------|-----------------------|---------------------|
---------------------|------------7--7--5----|---------------------|
--7\-----------------|--7\-------------------|--7\-----------------|
---------------------|-----------------------|---------------------|


  S S S S S S E     S S S S S S E.  S S S S E.     S S S S S S E  E  E  Q      
-----------------|------------------------------|-----------------------------|
-----------------|------------------------------|-----------------------------|
-----------------|------------------------------|-----------------------------|
-----------------|--------5---------------------|--------5--------7--7--5~----|
-----------------|--7-5-7---7-5-7---5-7-5-------|--7-5-7---7-5-7--------------|
--5-3-3-6-3-3-7--|------------------------5-3---|-----------------------------|


  S S S S S S E.  S S S S E.     S S S S S S E     S S S S S S E.  S S S S E.   
------------------------------|-----------------|------------------------------|
------------------------------|-----------------|------------------------------|
------------------------------|-----------------|------------------------------|
--------5---------------------|-----------------|--------5---------------------|
--7-5-7---7-5-7---5-7-5-------|-----------------|--7-5-7---7-5-7---5-7-5-------|
------------------------5-3---|--5-3-3-6-3-3-7--|------------------------5-3---|


  S S S S S S E  E  E  Q        S S S S S S E.  S S S S E.   
-----------------------------|------------------------------|
-----------------------------|------------------------------|
-----------------------------|------------------------------|
--------5--------7--7--5~----|--------5---------------------|
--7-5-7---7-5-7--------------|--7-5-7---7-5-7---5-7-5-------|
-----------------------------|------------------------5-3---|


  S S S S S S E  H           S S S S S S E  H           Q    Q    Q    Q     
--------------------------|--------------------------|----------------------|
--------------------------|--------------------------|----------------------|
--------------------------|--------------------------|----------------------|
--------------------------|--------------------------|--2----2--------------|
--------------------------|--------------------------|------------3----3----|
--5-3-3-6-3-3-7-----------|--5-3-3-6-3-3-7-----------|----------------------|


  Q    Q    Q    Q       Q    Q    Q    Q       Q    Q    Q    Q     
----------------------|----------------------|----------------------|
----------------------|----------------------|----------------------|
----------------------|----------------------|----------------------|
----------------------|--2----2--------------|----------------------|
--0----0--------------|------------3----3----|--0----0--------------|
------------3----3----|----------------------|------------3----3----|


  Q    Q    Q    Q       Q    Q    Q    Q       Q    Q    Q    Q     
----------------------|----------------------|----------------------|
----------------------|----------------------|----------------------|
----------------------|----------------------|----------------------|
--2----2--------------|----------------------|--2----2--------------|
------------3----3----|--0----0--------------|------------3----3----|
----------------------|------------3----3----|----------------------|


  Q    Q    Q    Q       S S S S S S S S S S S S S S S S  
----------------------|----------------------------------|
----------------------|----------------------------------|
----------------------|--2-0-0-3-0-0-4-0-0-5-0-0-6-0-7-0-|
----------------------|----------------------------------|
--0----0--------------|----------------------------------|
------------3----3----|----------------------------------|


  S S S S S S  S S S  S S S  S S  S S    S S E  S E  S S S E  S E  S  
--------------------------------------|------------------------------|
--------------------------------------|------------------------------|
--8-0-0-9-0-0-10-0-0-11-0-0-12-0-13-0-|------------------------------|
--------------------------------------|------------------------------|
--------------------------------------|------------------------------|
--------------------------------------|--0-0-0--0-0--0-0-0-0--0-0--0-|


  S S S S S S E.  S S S S E.     S S E  S E  S S S E  S E  S    S S S S S S E   
------------------------------|------------------------------|-----------------|
------------------------------|------------------------------|-----------------|
------------------------------|------------------------------|-----------------|
--------5---------------------|------------------------------|-----------------|
--7-5-7---7-5-7---5-7-5-------|------------------------------|-----------------|
------------------------5-3---|--0-0-0--0-0--0-0-0-0--0-0--0-|--5-3-3-6-3-3-7--|


  S S E  S E  S S S E  S E  S    S S S S S S E.  S S S S E.   
------------------------------|------------------------------|
------------------------------|------------------------------|
------------------------------|------------------------------|
------------------------------|--------5---------------------|
------------------------------|--7-5-7---7-5-7---5-7-5-------|
--0-0-0--0-0--0-0-0-0--0-0--0-|------------------------5-3---|


  S S E  S E  S S S E  S E  S    S S S S S S E     S S E  S E  S S S E  S E  S  
------------------------------|-----------------|------------------------------|
------------------------------|-----------------|------------------------------|
------------------------------|-----------------|------------------------------|
------------------------------|-----------------|------------------------------|
------------------------------|-----------------|------------------------------|
--0-0-0--0-0--0-0-0-0--0-0--0-|--5-3-3-6-3-3-7--|--0-0-0--0-0--0-0-0-0--0-0--0-|


  S S S S S S E.  S S S S E.     S S E  S E  S S S E  S E  S    S S S S S S E   
------------------------------|------------------------------|-----------------|
------------------------------|------------------------------|-----------------|
------------------------------|------------------------------|-----------------|
--------5---------------------|------------------------------|-----------------|
--7-5-7---7-5-7---5-7-5-------|------------------------------|-----------------|
------------------------5-3---|--0-0-0--0-0--0-0-0-0--0-0--0-|--5-3-3-6-3-3-7--|


  S S E  S E  S S S E  S E  S    S S S S S S E.  S S S S E.   
------------------------------|------------------------------|
------------------------------|------------------------------|
------------------------------|------------------------------|
------------------------------|--------5---------------------|
------------------------------|--7-5-7---7-5-7---5-7-5-------|
--0-0-0--0-0--0-0-0-0--0-0--0-|------------------------5-3---|


  S S E  S E  S S S E  S E  S    S S S S S S E     E  E  E  E  E  E  E  E   
------------------------------|-----------------|--------------------------|
------------------------------|-----------------|--------------------------|
------------------------------|-----------------|--------------------------|
------------------------------|-----------------|-----------5--------------|
------------------------------|-----------------|--7--7--------7--7--------|
--0-0-0--0-0--0-0-0-0--0-0--0-|--5-3-3-6-3-3-7--|-----------------------3--|


  E  E  E  E  E  E  E  E     E  E  E  E  E  E  E  E   
--------------------------|--------------------------|
--------------------------|--------------------------|
--------------------------|--------------------------|
--------------------------|-----------5--------------|
--------------------------|--7--7--------7--7--------|
--5--5-----0--3--x--2--x--|-----------------------3--|


  E  E  E  E  E  E  E  E     E  E  E  E  E  E  E  E   
--------------------------|--------------------------|
--------------------------|--------------------------|
--------------------------|--------------------------|
--------------------------|-----------5--------------|
--------------------------|--7--7--------7--7--------|
--5--5-----0--3--x--2--x--|-----------------------3--|


  E  E  E  E  E  E  E  E     E  E  E  E  E  E  E  E   
--------------------------|--------------------------|
--------------------------|--------------------------|
--------------------------|--------------------------|
--------------------------|-----------5--------------|
--------------------------|--7--7--------7--7--------|
--5--5-----0--3--x--2--x--|-----------------------3--|


  E  E  E  E  E  E  E  E     S S E  S E  S S S E  S E  S  
--------------------------|------------------------------|
--------------------------|------------------------------|
--------------------------|------------------------------|
--------------------------|------------------------------|
--------------------------|------------------------------|
--5--5-----0--3--x--2--x--|--0-0-0--0-0--0-0-0-0--0-0--0-|


  S S S S S S E.  S S S S E.     S S E  S E  S S S E  S E  S    S S S S S S E   
------------------------------|------------------------------|-----------------|
------------------------------|------------------------------|-----------------|
------------------------------|------------------------------|-----------------|
--------5---------------------|------------------------------|-----------------|
--7-5-7---7-5-7---5-7-5-------|------------------------------|-----------------|
------------------------5-3---|--0-0-0--0-0--0-0-0-0--0-0--0-|--5-3-3-6-3-3-7--|


  S S E  S E  S S S E  S E  S    S S S S S S E.  S S S S E.   
------------------------------|------------------------------|
------------------------------|------------------------------|
------------------------------|------------------------------|
------------------------------|--------5---------------------|
------------------------------|--7-5-7---7-5-7---5-7-5-------|
--0-0-0--0-0--0-0-0-0--0-0--0-|------------------------5-3---|


  S S E  S E  S S S E  S E  S    S S S S S S E     S S E  S E  S S S E  S E  S  
------------------------------|-----------------|------------------------------|
------------------------------|-----------------|------------------------------|
------------------------------|-----------------|------------------------------|
------------------------------|-----------------|------------------------------|
------------------------------|-----------------|------------------------------|
--0-0-0--0-0--0-0-0-0--0-0--0-|--5-3-3-6-3-3-7--|--0-0-0--0-0--0-0-0-0--0-0--0-|


  S S S S S S E.  S S S S E.     S S E  S E  S S S E  S E  S    S S S S S S E   
------------------------------|------------------------------|-----------------|
------------------------------|------------------------------|-----------------|
------------------------------|------------------------------|-----------------|
--------5---------------------|------------------------------|-----------------|
--7-5-7---7-5-7---5-7-5-------|------------------------------|-----------------|
------------------------5-3---|--0-0-0--0-0--0-0-0-0--0-0--0-|--5-3-3-6-3-3-7--|


  S S E  S E  S S S E  S E  S    S S S S S S E.  S S S S E.   
------------------------------|------------------------------|
------------------------------|------------------------------|
------------------------------|------------------------------|
------------------------------|--------5---------------------|
------------------------------|--7-5-7---7-5-7---5-7-5-------|
--0-0-0--0-0--0-0-0-0--0-0--0-|------------------------5-3---|


  S S E  S E  S S S E  S E  S    S S S S S S E     E  E  E  E  E  E  E  E   
------------------------------|-----------------|--------------------------|
------------------------------|-----------------|--------------------------|
------------------------------|-----------------|--------------------------|
------------------------------|-----------------|-----------5--------------|
------------------------------|-----------------|--7--7--------7--7--------|
--0-0-0--0-0--0-0-0-0--0-0--0-|--5-3-3-6-3-3-7--|-----------------------3--|


  E  E  E  E  E  E  E  E     E  E  E  E  E  E  E  E   
--------------------------|--------------------------|
--------------------------|--------------------------|
--------------------------|--------------------------|
--------------------------|-----------5--------------|
--------------------------|--7--7--------7--7--------|
--5--5-----0--3--x--2--x--|-----------------------3--|


  E  E  E  E  E  E  E  E     E  E  E  E  E  E  E  E   
--------------------------|--------------------------|
--------------------------|--------------------------|
--------------------------|--------------------------|
--------------------------|-----------5--------------|
--------------------------|--7--7--------7--7--------|
--5--5-----0--3--x--2--x--|-----------------------3--|


  E  E  E  E  E  E  E  E     E  E  E  E  E  E  E  E   
--------------------------|--------------------------|
--------------------------|--------------------------|
--------------------------|--------------------------|
--------------------------|-----------5--------------|
--------------------------|--7--7--------7--7--------|
--5--5-----0--3--x--2--x--|-----------------------3--|


  E  E  E  E  E  E  E  E     S S S S S S E  H         
--------------------------|--------------------------|
--------------------------|--------------------------|
--------------------------|--------------------------|
--------------------------|--------------------------|
--------------------------|--------------------------|
--5--5-----0--3--x--2--x--|--5-3-3-6-3-3-7-----------|


  S S E  S E  S S S E  S E  S    S S S S S S E.  S S S S E.   
------------------------------|------------------------------|
------------------------------|------------------------------|
------------------------------|------------------------------|
------------------------------|--------5---------------------|
------------------------------|--7-5-7---7-5-7---5-7-5-------|
--0-0-0--0-0--0-0-0-0--0-0--0-|------------------------5-3---|


  S S E  S E  S S S E  S E  S    S S S S S S E     S S E  S E  S S S E  S E  S  
------------------------------|-----------------|------------------------------|
------------------------------|-----------------|------------------------------|
------------------------------|-----------------|------------------------------|
------------------------------|-----------------|------------------------------|
------------------------------|-----------------|------------------------------|
--0-0-0--0-0--0-0-0-0--0-0--0-|--5-3-3-6-3-3-7--|--0-0-0--0-0--0-0-0-0--0-0--0-|


  S S S S S S E.  S S S S E.     S S E  S E  S S S E  S E  S    S S S S S S E   
------------------------------|------------------------------|-----------------|
------------------------------|------------------------------|-----------------|
------------------------------|------------------------------|-----------------|
--------5---------------------|------------------------------|-----------------|
--7-5-7---7-5-7---5-7-5-------|------------------------------|-----------------|
------------------------5-3---|--0-0-0--0-0--0-0-0-0--0-0--0-|--5-3-3-6-3-3-7--|


  E.  S E  Q    E  Q       E.  S E  E  E  E  Q       E.  S E  Q    E  Q     
------------------------|-------------------------|------------------------|
------------------------|-------------------------|------------------------|
------------------------|-------------------------|------------------------|
------------------------|-----------7--7--7--5----|------------------------|
--7---7-7--7----7--7----|--5---5-5----------------|--3---3-3--3----3--3----|
------------------------|-------------------------|------------------------|


  E  E  E  E     E.  S E  Q    E  Q       E.  S E  E  E  E  Q     
--------------|------------------------|-------------------------|
--------------|------------------------|-------------------------|
--------------|------------------------|-------------------------|
--------------|------------------------|-----------7--7--7--5----|
--0--0--0--0--|--7---7-7--7----7--7----|--5---5-5----------------|
--------------|------------------------|-------------------------|


  E.  S E  Q    E  Q       S S S S S S E     E  E  E  E  E  E  E  E   
------------------------|-----------------|--------------------------|
------------------------|-----------------|--------------------------|
------------------------|-----------------|--------------------------|
------------------------|-----------------|-----------5--------------|
--3---3-3--3----3--3----|-----------------|--7--7--------7--7--------|
------------------------|--5-3-3-6-3-3-7--|-----------------------3--|


  E  E  E  E  E  E  E  E     E  E  E  E  E  E  E  E   
--------------------------|--------------------------|
--------------------------|--------------------------|
--------------------------|--------------------------|
--------------------------|-----------5--------------|
--------------------------|--7--7--------7--7--------|
--5--5-----0--3--x--2--x--|-----------------------3--|


  E  E  E  E  E  E  E  E     E  E  E  E  E  E  E  E   
--------------------------|--------------------------|
--------------------------|--------------------------|
--------------------------|--------------------------|
--------------------------|-----------5--------------|
--------------------------|--7--7--------7--7--------|
--5--5-----0--3--x--2--x--|-----------------------3--|


  E  E  E  E  E  E  E  E     E  E  E  E  E  E  E  E   
--------------------------|--------------------------|
--------------------------|--------------------------|
--------------------------|--------------------------|
--------------------------|-----------5--------------|
--------------------------|--7--7--------7--7--------|
--5--5-----0--3--x--2--x--|-----------------------3--|


  E  E  E  E  E  E  E  E     S S S S S S E  H           Q    Q    Q    Q     
--------------------------|--------------------------|----------------------|
--------------------------|--------------------------|----------------------|
--------------------------|--------------------------|----------------------|
--------------------------|--------------------------|--2----2--------------|
--------------------------|--------------------------|------------3----3----|
--5--5-----0--3--x--2--x--|--5-3-3-6-3-3-7-----------|----------------------|


  Q    Q    Q    Q       Q    Q    Q    Q       Q    Q    Q    Q     
----------------------|----------------------|----------------------|
----------------------|----------------------|----------------------|
----------------------|----------------------|----------------------|
----------------------|--2----2--------------|----------------------|
--0----0--------------|------------3----3----|--0----0--------------|
------------3----3----|----------------------|------------3----3----|


  Q    Q    Q    Q       Q    Q    Q    Q       Q    Q    Q    Q     
----------------------|----------------------|----------------------|
----------------------|----------------------|----------------------|
----------------------|----------------------|----------------------|
--2----2--------------|----------------------|--2----2--------------|
------------3----3----|--0----0--------------|------------3----3----|
----------------------|------------3----3----|----------------------|


  Q    Q    Q    Q       S S S S S S S S S S S S S S S S  
----------------------|----------------------------------|
----------------------|----------------------------------|
----------------------|--2-0-0-3-0-0-4-0-0-5-0-0-6-0-7-0-|
----------------------|----------------------------------|
--0----0--------------|----------------------------------|
------------3----3----|----------------------------------|


  S S S S S S  S S S  S S S  S S  S S     Q     H.            
--------------------------------------|----------------------|
--------------------------------------|----------------------|
--8-0-0-9-0-0-10-0-0-11-0-0-12-0-13-0-|----------------------|
--------------------------------------|----------------------|
--------------------------------------|----------------------|
--------------------------------------|--12\-----------------|


   Q     E.   T  T  T  T  T  T  T  T  T  T  T  T  T  T  T  T  T  T     Q      
-------------------------------------------------------------------|---------|
-------------------------------------------------------------------|---------|
-------------------12-14-------12-14-------12-14-------12-14-------|---------|
-------------12-14-------12-14-------12-14-------12-14-------12-14-|---------|
-------------------------------------------------------------------|---------|
--12\--------------------------------------------------------------|--12\----|


         E.  S S S S E  S S E  S E     E.  S S S S E  S S E  S E   
------|-----------------------------|-----------------------------|
------|-----------------------------|-----------------------------|
------|-----------------------------|-----------------------------|
------|-----------------------------|-----------------------------|
------|----------5------------------|----------5------------------|
------|--0---0-0---0-3--3-3-5--5-5--|--0---0-0---0-3--3-3-5--5-5--|


  E.  S S S S E  S S E  S E     E.  S S S S E  S S E  S E   
-----------------------------|-----------------------------|
-----------------------------|-----------------------------|
-----------------------------|-----------------------------|
-----------------------------|-----------------------------|
----------5------------------|----------5------------------|
--0---0-0---0-3--3-3-5--5-5--|--0---0-0---0-3--3-3-5--5-5--|


  E.  S S S S E  S S E  S E     E.  S S S S E  S S E  S E   
-----------------------------|-----------------------------|
-----------------------------|-----------------------------|
-----------------------------|-----------------------------|
-----------------------------|-----------------------------|
----------5------------------|----------5------------------|
--0---0-0---0-3--3-3-5--5-5--|--0---0-0---0-3--3-3-5--5-5--|


  E.  S S S S E  S S E  S E     E.  S S S S E  S S E  S E   
-----------------------------|-----------------------------|
-----------------------------|-----------------------------|
-----------------------------|-----------------------------|
-----------------------------|-----------------------------|
----------5------------------|----------5------------------|
--0---0-0---0-3--3-3-5--5-5--|--0---0-0---0-3--3-3-5--5-5--|


  E  S S S S S E  S S E  S E     E  S S S S S E  S S E  S S S  
------------------------------|-------------------------------|
------------------------------|-------------------------------|
------------------------------|-------------------------------|
---------------3--3-3-5--5-5--|---------------3--3-3-5--5-----|
--5--5-3-5-3-5----------------|--5--5-3-5-3-5-------------3-4-|
------------------------------|-------------------------------|


  E  S S S S S E  S S E  S E     E  S S S S S E  S S E  S S S  
------------------------------|-------------------------------|
------------------------------|-------------------------------|
------------------------------|-------------------------------|
---------------3--3-3-5--5-5--|---------------3--3-3-5--5-----|
--5--5-3-5-3-5----------------|--5--5-3-5-3-5-------------3-4-|
------------------------------|-------------------------------|


  E  S S S S S E  S S E  S E     E  S S S S S E  S S E  S S S  
------------------------------|-------------------------------|
------------------------------|-------------------------------|
------------------------------|-------------------------------|
---------------3--3-3-5--5-5--|---------------3--3-3-5--5-----|
--5--5-3-5-3-5----------------|--5--5-3-5-3-5-------------3-4-|
------------------------------|-------------------------------|


  E  S S S S S E  S S E  S E     E  S S S S S E  S S E  S S S  
------------------------------|-------------------------------|
------------------------------|-------------------------------|
------------------------------|-------------------------------|
---------------3--3-3-5--5-5--|---------------3--3-3-5--5-----|
--5--5-3-5-3-5----------------|--5--5-3-5-3-5-------------3-4-|
------------------------------|-------------------------------|


  E  S S S S S E  S S E  S E     Q     H.            
------------------------------|---------------------|
------------------------------|---------------------|
------------------------------|---------------------|
---------------5--5-5-7--7-7--|---------------------|
--7--7-5-7-5-7----------------|--7\-----------------|
------------------------------|---------------------|


  E  S S S S S E  S S E  S E     Q     H.            
------------------------------|---------------------|
------------------------------|---------------------|
------------------------------|---------------------|
---------------5--5-5-7--7-7--|---------------------|
--7--7-5-7-5-7----------------|--7\-----------------|
------------------------------|---------------------|


  E  S S S S S E  S S E  S E     Q     H.            
------------------------------|---------------------|
------------------------------|---------------------|
------------------------------|---------------------|
---------------5--5-5-7--7-7--|---------------------|
--7--7-5-7-5-7----------------|--7\-----------------|
------------------------------|---------------------|


  E  S S S S S E  S S E  S E     Q     H.              E  E  E  E  E  E  E  E   
------------------------------|---------------------|--------------------------|
------------------------------|---------------------|--------------------------|
------------------------------|---------------------|--------------------------|
---------------5--5-5-7--7-7--|---------------------|-----------5--------------|
--7--7-5-7-5-7----------------|--7\-----------------|--7--7--------7--7--------|
------------------------------|---------------------|-----------------------3--|


  E  E  E  E  E  E  E  E     E  E  E  E  E  E  E  E   
--------------------------|--------------------------|
--------------------------|--------------------------|
--------------------------|--------------------------|
--------------------------|-----------5--------------|
--------------------------|--7--7--------7--7--------|
--5--5-----0--3--x--2--x--|-----------------------3--|


  E  E  E  E  E  E  E  E     E  E  E  E  E  E  E  E   
--------------------------|--------------------------|
--------------------------|--------------------------|
--------------------------|--------------------------|
--------------------------|-----------5--------------|
--------------------------|--7--7--------7--7--------|
--5--5-----0--3--x--2--x--|-----------------------3--|


  E  E  E  E  E  E  E  E     E  E  E  E  E  E  E  E   
--------------------------|--------------------------|
--------------------------|--------------------------|
--------------------------|--------------------------|
--------------------------|-----------5--------------|
--------------------------|--7--7--------7--7--------|
--5--5-----0--3--x--2--x--|-----------------------3--|


  E  E  E  E  E  E  E  E     S S S S S S S S E  Q.        H        E  Q.        
--------------------------|----------------------------|-----------------------|
--------------------------|----------------------------|-----------------------|
--------------------------|--------0-2-0--------4------|--2--------0--7b~------|
--------------------------|--2-3-4-------4-3-2---------|-----------------------|
--------------------------|----------------------------|-----------------------|
--5--5-----0--3--x--2--x--|----------------------------|-----------------------|


  S S S S S S S S E  Q.        E  S S S S S S S S E  Q     
----------------------------|--4--2---2-------------------|
----------------------------|-------4---4-2-4-------------|
--------0-2-0--------4------|-----------------4-0-2--0----|
--2-3-4-------4-3-2---------|-----------------------------|
----------------------------|-----------------------------|
----------------------------|-----------------------------|


  S S S S S S S S E  Q.        H        E  Q.        
----------------------------|-----------------------|
----------------------------|-----------------------|
--------0-2-0--------4------|--2--------0--7b~------|
--2-3-4-------4-3-2---------|-----------------------|
----------------------------|-----------------------|
----------------------------|-----------------------|


  S S S S S S S S E  Q.        E  S S S S S S S S E  Q     
----------------------------|--4--2---2-------------------|
----------------------------|-------4---4-2-4-------------|
--------0-2-0--------4------|-----------------4-0-2--0----|
--2-3-4-------4-3-2---------|-----------------------------|
----------------------------|-----------------------------|
----------------------------|-----------------------------|


  E  S S S S S E  S S E  S S S    W                   W                       
-------------------------------|-------------------|-------------------|----||
-------------------------------|-------------------|-------------------|----||
---------------0--0-0-2--2-----|-------------------|-------------------|----||
--2--2-0-2-0-2-------------0-1-|-------------------|-------------------|----||
-------------------------------|-------------------|-------------------|----||
-------------------------------|--0----------------|--L----------------|----||




Duration Legend
---------------
W - whole
H - half
Q - quarter
E - 8th
S - 16th
T - 32nd
X - 64th
. - note dotted
|-n-|  - n-tuplets


Tablature Legend
----------------
L - tied note
x - dead note
g - grace note
(n) - ghost note
> - accentuded note
NH - natural harmonic
AH - artificial harmonic
TH - tapped harmonic
SH - semi harmonic
PH - pitch harmonic
h - hammer on
p - pull off
b - bend
br - bendRelease
pb - preBend
pbr - preBendRelease
brb - bendReleaseBend
\n/ - tremolo bar dip
\n - tremolo bar dive
-/n - tremolo bar Release up
/n\ - tremolo bar inverted dip
/n - tremolo bar return
-\n - tremolo bar Release down
S - shift slide
s - legato slide
/ -  slide into from below or out of upwards
\ -  slide into from above or out of downwards
~ - vibrato
W - wide vibrato
tr - trill
TP - tremolo picking
T - tapping
S - slap
P - pop
< - fade in
^ - brush up
v - brush down
comments
We did not receive enough feedback on this tab! Please rate:
print report bad tab
1 2 3 4 5
I want to post or [tab]
guest
You may want to rate the tab now too:
select rating
Please do not post tabs as comments. Select "correction" instead!