Oops, an error
Loading. Please wait.

Stepping Stones Tab

1,731 views 6 this week
no commentswrite comment
1 2 3 4 5
accurate
x 2
add to favorites launch autoscroll
font size
0
reset
Autoscroll
+/-
esc
set tempo
stop
Contributor
WARNING: You are trying to view
                                    content from Ultimate-Guitar.com
                                    in an unauthorized application,
                                    which is prohibited.

                                    Please use an official Ultimate
                                    Guitar Tabs application for iPhone,
                                    iPad or Android to access legitimate
                                    chords, guitar, bass, and drum tabs
                                    from Ultimate-Guitar.com database.

                                    Type "ultimate guitar tabs" in Apple
                                    App Store's or Android Market's
                                    search to find the application.
I Have watched a few youtube videos. And i think this is it. 
Good luck!


   Intro
E |-----x------------------x------------------x------------------x------------------x--|
B |-----x------------------x------------------x------------------x------------------x--|
G |--8--x-------6-------4--x-------6-------8--x-------6-------4--x-------6-------8--x--|
D |--4--x----4-------4-----x----4-------4-----x----4-------4-----x----4-------4-----x--|
A |-----x------------------x------------------x------------------x------------------x--|
E |--7--x--6-------4-------x--6-------7-------x--6-------4-------x--6-------7-------x--|

      E |------------------x------------------x------------------x------------------x--|
      B |------------------x------------------x------------------x------------------x--|
      G |-------6-------4--x-------6-------8--x-------6-------4--x-------6-------8--x--|
      D |----4-------4-----x----4-------4-----x----4-------4-----x----4-------4-----x--|
      A |------------------x------------------x------------------x------------------x--|
      E |--6-------4-------x--6-------7-------x--6-------4-------x--6-------7-------x--|


   Verse
E |------------------x------------------x------------------x------------------x--|
B |------------------x------------------x------------------x------------------x--|  )
G |-------6-------4--x-------6-------8--x-------6-------4--x-------6-------8--x--| 4X
D |----4-------4-----x----4-------4-----x----4-------4-----x----4-------4-----x--|  )
A |------------------x------------------x------------------x------------------x--|
E |--6-------4-------x--6-------7-------x--6-------4-------x--6-------7-------x--|

E |------------------x------------------x------------------x------------------x--|
B |------------------x------------------x------------------x------------------x--|
G |-------6-------4--x-------6-------8--x-------6-------4--x------------------x--|
D |----4-------4-----x----4-------4-----x----4-------4-----x------------------x--|
A |------------------x------------------x------------------x------------------x--|
E |--6-------4-------x--6-------7-------x--6-------4-------x------------------x--|

E |------------------x------------------x--|
B |------------------x------------------x--|
G |--1-------4----3--x--1-------4----3--x--|
D |--2-------4----4--x--2-------4----4--x--|
A |--2------------4--x--2------------4--x--|
E |----------4----2--x----------4----2--x--|

E |------------------------------------------------------------------------------|
B |------------------------------------------------------------------------------|
G |--8--8-8--8-8-8--8---8--8-8--8-8-8--8---4--4-4--4-4-4--4---4--4-4--4-4-4--4---|
D |--9--9-9--9-9-9--9---9--9-9--9-9-9--9---4--4-4--4-4-4--4---4--4-4--4-4-4--4---|
A |--9--9-9--9-9-9--9---9--9-9--9-9-9--9---x--x-x--x-x-x--x---x--x-x--x-x-x--x---|
E |--7--7-7--7-7-7--7---7--7-7--7-7-7--7---4--4-4--4-4-4--4---4--4-4--4-4-4--4---|

E |------------------------------------------------------------------------------|
B |------------------------------------------------------------------------------|
G |--1--1-1--1-1-1--1---1--1-1--1-1-1--1---8--8-8--8-8-8--8---8--8-8--8-8-8--8---|
D |--2--2-2--2-2-2--2---2--2-2--2-2-2--2---9--9-9--9-9-9--9---9--9-9--9-9-9--9---|
A |--2--2-2--2-2-2--2---2--2-2--2-2-2--2---9--9-9--9-9-9--9---9--9-9--9-9-9--9---|
E |--0--0-0--0-0-0--0---0--0-0--0-0-0--0---7--7-7--7-7-7--7---7--7-7--7-7-7--7---|



   Verse 2
E |-----x------------------x------------------x------------------x------------------x--|
B |-----x------------------x------------------x------------------x------------------x--|
G |--8--x-------6-------4--x-------6-------8--x-------6-------4--x-------6-------8--x--|
D |--4--x----4-------4-----x----4-------4-----x----4-------4-----x----4-------4-----x--|
A |-----x------------------x------------------x------------------x------------------x--|
E |--7--x--6-------4-------x--6-------7-------x--6-------4-------x--6-------7-------x--|

      E |------------------x------------------x------------------x------------------x--|
      B |------------------x------------------x------------------x------------------x--|  )
      G |-------6-------4--x-------6-------8--x-------6-------4--x-------6-------8--x--| 2x
      D |----4-------4-----x----4-------4-----x----4-------4-----x----4-------4-----x--|  )
      A |------------------x------------------x------------------x------------------x--|
      E |--6-------4-------x--6-------7-------x--6-------4-------x--6-------7-------x--|

E |------------------x------------------x--|
B |------------------x------------------x--|
G |--1-------4----3--x--1-------4----3--x--|
D |--2-------4----4--x--2-------4----4--x--|
A |--2------------4--x--2------------4--x--|
E |----------4----2--x----------4----2--x--|

E |------------------------------------------------------------------------------|
B |------------------------------------------------------------------------------|
G |--8--8-8--8-8-8--8---8--8-8--8-8-8--8---4--4-4--4-4-4--4---4--4-4--4-4-4--4---|
D |--9--9-9--9-9-9--9---9--9-9--9-9-9--9---4--4-4--4-4-4--4---4--4-4--4-4-4--4---|
A |--9--9-9--9-9-9--9---9--9-9--9-9-9--9---x--x-x--x-x-x--x---x--x-x--x-x-x--x---|  )
E |--7--7-7--7-7-7--7---7--7-7--7-7-7--7---4--4-4--4-4-4--4---4--4-4--4-4-4--4---|  )
                                                                                   2X
E |------------------------------------------------------------------------------|  )
B |------------------------------------------------------------------------------|  )
G |--1--1-1--1-1-1--1---1--1-1--1-1-1--1---8--8-8--8-8-8--8---8--8-8--8-8-8--8---|
D |--2--2-2--2-2-2--2---2--2-2--2-2-2--2---9--9-9--9-9-9--9---9--9-9--9-9-9--9---|
A |--2--2-2--2-2-2--2---2--2-2--2-2-2--2---9--9-9--9-9-9--9---9--9-9--9-9-9--9---|
E |--0--0-0--0-0-0--0---0--0-0--0-0-0--0---7--7-7--7-7-7--7---7--7-7--7-7-7--7---|



   Verse 3
E |--------x--------x--------x--------x--------x--------x--------x--------x--|
B |--------x--------x--------x--------x--------x--------x--------x--------x--|
G |--4-----x--4--4--x--4-----x--4--4--x--3-----x--3--3--x--3-----x--3--3--x--|
D |--4-----x--4--4--x--4-----x--4--4--x--4-----x--4--4--x--4-----x--4--4--x--|
A |--x-----x--x--x--x--x-----x--x--x--x--4-----x--4--4--x--4-----x--4--4--x--|
E |--4-----x--4--4--x--4-----x--4--4--x--2-----x--2--2--x--2-----x--2--2--x--|

E |--------x--------x--------x--------x--------x--------x--------x--------x--|
B |--------x--------x--------x--------x--------x--------x--------x--------x--|
G |--1-----x--1--1--x--1-----x--1--1--x--4-----x--4--4--x--4-----x--4--4--x--|
D |--2-----x--2--2--x--2-----x--2--2--x--4-----x--4--4--x--4-----x--4--4--x--|
A |--2-----x--2--2--x--2-----x--2--2--x--x-----x--x--x--x--x-----x--x--x--x--|
E |--0-----x--0--0--x--0-----x--0--0--x--4-----x--4--4--x--4-----x--4--4--x--|

E |------------------------------------------------------------------------------|
B |------------------------------------------------------------------------------|
G |--8--8-8--8-8-8--8---8--8-8--8-8-8--8---4--4-4--4-4-4--4---4--4-4--4-4-4--4---|
D |--9--9-9--9-9-9--9---9--9-9--9-9-9--9---4--4-4--4-4-4--4---4--4-4--4-4-4--4---|
A |--9--9-9--9-9-9--9---9--9-9--9-9-9--9---x--x-x--x-x-x--x---x--x-x--x-x-x--x---|  )
E |--7--7-7--7-7-7--7---7--7-7--7-7-7--7---4--4-4--4-4-4--4---4--4-4--4-4-4--4---|  )
                                                                                   5X
E |------------------------------------------------------------------------------|  )
B |------------------------------------------------------------------------------|  )
G |--1--1-1--1-1-1--1---1--1-1--1-1-1--1---8--8-8--8-8-8--8---8--8-8--8-8-8--8---|
D |--2--2-2--2-2-2--2---2--2-2--2-2-2--2---9--9-9--9-9-9--9---9--9-9--9-9-9--9---|
A |--2--2-2--2-2-2--2---2--2-2--2-2-2--2---9--9-9--9-9-9--9---9--9-9--9-9-9--9---|
E |--0--0-0--0-0-0--0---0--0-0--0-0-0--0---7--7-7--7-7-7--7---7--7-7--7-7-7--7---|



   Ending
E |-----x------------------x------------------x------------------x------------------x--|
B |-----x------------------x------------------x------------------x------------------x--|
G |--8--x-------6-------4--x-------6-------8--x-------6-------4--x-------6-------8--x--|
D |--4--x----4-------4-----x----4-------4-----x----4-------4-----x----4-------4-----x--|
A |-----x------------------x------------------x------------------x------------------x--|
E |--7--x--6-------4-------x--6-------7-------x--6-------4-------x--6-------7-------x--|

      E |------------------x------------------x------------------x------------------x--|
      B |------------------x------------------x------------------x------------------x--|  )
      G |-------6-------4--x-------6-------8--x-------6-------4--x-------6-------8--x--| 2x
      D |----4-------4-----x----4-------4-----x----4-------4-----x----4-------4-----x--|  )
      A |------------------x------------------x------------------x------------------x--|
      E |--6-------4-------x--6-------7-------x--6-------4-------x--6-------7-------x--|


Something like that
comments
We did not receive enough feedback on this tab! Please rate:
print report bad tab
1 2 3 4 5
I want to post or [tab]
guest
You may want to rate the tab now too:
select rating
Please do not post tabs as comments. Select "correction" instead!