Oops, an error
Loading. Please wait.

Rylynn Tab

ver1
ver1

Intro

Whole song

More versions @911Tabs.com
442,734 views 894 this week
28 commentsread comments
1 2 3 4 5
excellent!
x 27
Autoscroll
+/-
esc
set tempo
stop
Contributor
Hey! There's an official Ultimate Guitar app which is ideal
for learning songs when you're away from computer. Get the app
WARNING: You are trying to view
                                    content from Ultimate-Guitar.com
                                    in an unauthorized application,
                                    which is prohibited.

                                    Please use an official Ultimate
                                    Guitar Tabs application for iPhone,
                                    iPad or Android to access legitimate
                                    chords, guitar, bass, and drum tabs
                                    from Ultimate-Guitar.com database.

                                    Type "ultimate guitar tabs" in Apple
                                    App Store's or Android Market's
                                    search to find the application.
Rylynn
Andy Mckee



CAPO ON 5th... 3rd to 6th string only

     H                             E  S E  S
D||----------------------------------------0-|
A||------------------------------------------|
G||------------------------------------------|
D||------------------------------------------|
C||------------------------------------------|
E||------------------------------------------|


   ^                      ^
   Q.           S   S  E  Q.     Q
--10------------9s-10s-9--------------|
---0----------------------7------L----|
---5----------------------5------L----|
--------------------------5------L----|
--------------------------5------L----|
---5-------------------L--------------|


   ^
   |-----3-----|
   Q     Q     Q     E.  S  H
--10s----9----------12---------------|
---0----------10---------------------|
---5-----------------------10--------|
-------------------------------------|
-------------------------5-----------|
---5---------------------------------|


   ^            ^
   E.   E.   E  H.
--10s---9--------------------|
---0--------10--7------------|
---5------------5------------|
----------------5------------|
----------------5------------|
---5-------------------------|


  E  E  E  E  E  E  E  E  Q    Q
-----------0------------------------|
--------5-----5-----------2----L----|
-----5-----------5-----5------------|
--5-----------------5---------------|
------------------------------------|
------------------------------------|


  ^   PM  ^          ^
  E.  E.  Q    Q     E
---------------0--------|
------------------------|
--5---7---9---------14--|
--5---5---7---------12--|
--5---5---5----------5--|
--5---7---8---------13--|


   ^   ^
   E   H        Q.
-----------------------|
-----------------------|
---L--12--------L------|
---L--14--------L------|
---L---5--------L------|
---L--13--------L------|


  ^   PM  ^
  E.  E.  Q    Q.
---------------0------|
----------------------|
--5---7---9-----------|
--5---5---7-----------|
--5---5---0-----------|
--5---7---8-----------|


   |--3--|  |-3-|
   E  E  E  E   Q    Q    Q
-------------------------------|
-------------------------------|
------------5-------------L----|
---------5----------------L----|
------9-------------------L----|
--13-----------13---------L----|


  ^   PM  ^          ^
  E.  E.  Q    Q     E
---------------0--------|
------------------------|
--5---7---9---------14--|
--5---5---7---------12--|
--5---5---5----------5--|
--5---7---8---------13--|


   ^   ^
   E   H        Q.
-----------------------|
-----------------------|
---L--12--------L------|
---L--14--------L------|
---L---5--------L------|
---L--13--------L------|


   ^               ^
   E.  S  S  S E   E.  S  S   S   E
-------7s-9-10-9-------9-10s-12s-14--|
---8--------------10-----------------|
---5---------------0-----------------|
--10---------------------------------|
-------------------------------------|
--10--------------12-----------------|


   ^    ^   ^
   E.   E.  Q.     S E  S
--14---10---5--------L----|
--12----8---2--------L----|
---0----0---0--------L----|
------------5--------L----|
---5--------------------x-|
------------------------x-|


  S S S  E  S T  T S E  S S  S S S S
--0-7-9-10----7h-9---7---------------|
---------0--------------7--------0---|
---------5--5------------------5-----|
----------------------------10-------|
-------------------x------5--------x-|
---------5---------x---------------x-|


  S S  S S S S S S E   S S S  S S S
---------------------------7--------|
------10-------7---8--10-----10-----|
----5--------5-----5---7--------5---|
--5--------5-------5---7------------|
-----------------x----------------x-|
---------8-------x-------7--------x-|


  S  E   E  S S S  E   E    S  S  S S
--0--9--10--9-9---12------------------|
----10--10------------12s--10-10-10---|
---------5-------------5--------------|
-----------------------5--------------|
----------------x-------------------x-|
---------5------x-------------------x-|


  S S S E  S S S S S S S S E  S
-------------0-------------0----|
------7----------7-----2--------|
--5-5------5-------5-----5------|
--------5------------5----------|
---------------x--------------x-|
---------------x--------------x-|


  S S  S   E   S  S S  S   S  S  E   S  S   S
--0-7h-9-7g9-----10---10s-12-10---------9h-10-|
-----------0-----------------10--------10-----|
----------------------------------------------|
----------10--10--------------------10--------|
-----------9--------x-----------------------x-|
--------------------x-----------13----------x-|


  S S  S S S S S S E  S S S S S S
--9-------------------------------|
------10-------7---8--7-------7---|
-------------5-----5--7-----------|
----5------5-------5--7-----7-----|
-----------------x--------7-----x-|
---------8-------x------7-------x-|


  E  S S S S S S E  S E  S S  S
--------------------------------|
-----------------7--------------|
--7--5-------5------7------7h-9-|
-----------5-------------5------|
---------9-----x------5-------x-|
-------5-------x--------------x-|


  S  S S S S S S S  E  S E  S S S
----------------------------------|
--7h-8-7-----8-----10---------8---|
-------------5------5--7------5---|
-----------5---5-------5----5-----|
-----------------x--------------x-|
---------8-------x-------7------x-|


  S  S  S E.  S E  Q    E  S
------------------------0----|
-----------------------------|
--7s-9p-5-5---7----9---------|
--5-------5---5----7---------|
----------5---5-x--5-------x-|
----------5---7-x--8-------x-|


                           ^
  S  Q     E  E  E.  S S S S
--L------------------------0-|
-----------------7---------7-|
----14----12-----------5---5-|
----12----14-----5---5---5-9-|
-----5-----5--x--9---------x-|
----13----13--x--5---------x-|


  v
  S S S  S  S S S S  E  S  S S S S S
--0----------------------------------|
--7-------------8---10---------------|
--5---5-------5---------9--------9---|
--9-5------10------------------5-----|
------------------x----------5-----x-|
--------10--------x-------12-------x-|


  E  S E  S S  S  S S S S S E  S
--0-------------------------0----|
---------------------------------|
-----7------7h-9p-5-------5------|
----------5---------5-9----------|
-------5-------x--------7------x-|
---------------x---------------x-|


  S S S E.  S E  Q    E  S
----------------------0----|
---------------------------|
----5---5---7----9---------|
------9-5---5----7---------|
--7-----5---5-x--5-------x-|
--------5---7-x--8-------x-|


                             ^
  S  Q     E  E   E.  S S S  S
--L---------------0---0------0-|
-----------------10-------5-10-|
----14----16------5-----5----5-|
----12----14-------------------|
-----5-----5--x--------------x-|
----13----13--x---5----------x-|


   v
   E.   E  S S  S  S E   E  S S  S
---0---------7s-9-10-9--------9-10h-|
--10----8---------------10----------|
---5----5----------------0----------|
-------10---------------------------|
-----------x----------------x-------|
-------10--x------------12--x-------|


                          ^ v ^
   S   E   E.   S E  Q    S S S
--12s-14--14---10----5----5-5-5-|
----------12----8----2----2-2-2-|
-----------0----0----0----0-0-0-|
---------------------5----5-5-5-|
-----------5------x-----------x-|
------------------x-----------x-|


  S S S  E  S T  T S E  S S  S S S S
--0-7-9-10----7h-9---7---------------|
---------0--------------7--------0---|
---------5--5------------------5-----|
----------------------------10-------|
-------------------x------5--------x-|
---------5---------x---------------x-|


  S S  S S S S S S E   S S S  S S S
---------------------------7--------|
------10-------7---8--10-----10-----|
----5--------5-----5---7--------5---|
--5--------5-------5---7------------|
-----------------x----------------x-|
---------8-------x-------7--------x-|


  |--3--|
  S  S  S S  S  S  S S  S  S S  S  E  S  S S
----------9-10p-9----------------------------|
-------10---------10-----------10~------10---|
--5h-9---------------9p-7p-5-------------5---|
-----------------------------9--------5------|
------------------------x----------5-------x-|
-------------5----------x------------------x-|


  S  S  S  E  S S S S S S S S E  S
----------------0-------------0----|
--7h-8p-7~----------7-----2--------|
--------------5-------5-----5------|
-----------5------------5----------|
------------------x--------------x-|
------------------x--------------x-|


  S S  S   E   S  S S  S   S  S  E   S  S   S
--0-7h-9-7g9-----10---10s-12-10---------9h-10-|
-----------0-----------------10--------10-----|
----------------------------------------------|
----------10--10--------------------10--------|
-----------9--------x-----------------------x-|
--------------------x-----------13----------x-|


  S S  S S S S S S E  S S S S S S
--9-------------------------------|
------10-------7---8--7-------7---|
-------------5-----5--7-----------|
----5------5-------5--7-----7-----|
-----------------x--------7-----x-|
---------8-------x------7-------x-|


  E  S S S S S S E  S E  S S  S
--------------------------------|
-----------------7--------------|
--7--5-------5------7------7h-9-|
-----------5-------------5------|
---------9-----x------5-------x-|
-------5-------x--------------x-|


  S  S S S S S S S  E  S E  S S S
----------------------------------|
--7h-8-7-----8-----10---------8---|
-------------5------5--7------5---|
-----------5---5-------5----5-----|
-----------------x--------------x-|
---------8-------x-------7------x-|


  S  S  S E.  S E  Q    E  S
------------------------0----|
-----------------------------|
--7s-9p-5-5---7----9---------|
--5-------5---5----7---------|
----------5---5-x--5-------x-|
----------5---7-x--8-------x-|


                           ^
  S  Q     E  E  E.  S S S S
--L------------------------0-|
-----------------7---------7-|
----14----12-----------5---5-|
----12----14-----5---5---5-9-|
-----5-----5--x--9---------x-|
----13----13--x--5---------x-|


  v
  S S S  S  S S S S  E  S  S S S S S
--0----------------------------------|
--7-------------8---10---------------|
--5---5-------5---------9--------9---|
--9-5------10------------------5-----|
------------------x----------5-----x-|
--------10--------x-------12-------x-|


  E  S E  S S  S  S S S S S E  S
--0-------------------------0----|
---------------------------------|
-----7------7h-9p-5-------5------|
----------5---------5-9----------|
-------5-------x--------7------x-|
---------------x---------------x-|


  S S S E.  S E  Q    E  S
----------------------0----|
---------------------------|
----5---5---7----9---------|
------9-5---5----7---------|
--7-----5---5-x--5-------x-|
--------5---7-x--8-------x-|


                             ^
  S  Q     E  E   E.  S S S  S
--L---------------0---0------0-|
-----------------10-------5-10-|
----14----16------5-----5----5-|
----12----14-------------------|
-----5-----5--x--------------x-|
----13----13--x---5----------x-|


   v
   E.   E  S S  S  S E   E  S S  S
---0---------7s-9-10-9--------9-10h-|
--10----8---------------10----------|
---5----5----------------0----------|
-------10---------------------------|
-----------x----------------x-------|
-------10--x------------12--x-------|


                          ^ v ^
   S   E   E.   S E  Q    S S S
--12s-14--14---10----5----5-5-5-|
----------12----8----2----2-2-2-|
-----------0----0----0----0-0-0-|
---------------------5----5-5-5-|
-----------5------x-----------x-|
------------------x-----------x-|


  ^ v ^       T    T
  S S S S  S  S    S S S S S  S  S S S S
--5-5-5---------<>12---L---3p-2p-0-------|
--2-2-2---------<>12-L-5-----------0-----|
--0-0-0---------<>12-L-5-----------------|
--5-5-5----------------5-------------5---|
---------------------x-----------------x-|
--------5h-8-10------x---5-------------x-|


            T    T
  E.  S  S  S    S S S  S  S S  S   S S  S
--9-----------<>12---L----------------9----|
--7-----------<>12-L-----------10S-12---10-|
--5-----------<>12-L---------9-------------|
---------------------9S---10---------------|
--5----------------x---------------------x-|
------5h-8-10------x----5----------------x-|


               T    T
  S S  S S  S  S    S S S S S  S  S S S S
-----------------<>12---L---3p-2p-0-------|
--L--------------<>12-L-5-----------0-----|
----9------------<>12-L-5-----------------|
------10----------------5-------------5---|
----------------------x-----------------x-|
---------5h-8-10------x---5-------------x-|


            T    T        ^
  E.  S  S  S    S S S S  S  S S  S   S S
--9-----------<>12---L---10p-7---10S-12---|
--7-----------<>12-L-5----8----8----------|
--5-----------<>12-L-5----7---------------|
---------------------5--------------------|
--5----------------x--------------------x-|
------5h-8-10------x---5----------------x-|


                    ^    v
   S S  S  S   S S  S S  S S  S   S  S   S  S
-------10----------10---10---14p-10-----------|
--10----------------5----5----------14p-10----|
-----5-----------5-------------------------10-|
----------------------------------------------|
----------------------x----5------------------|
----------12h-13------x-----------------------|


                   ^   v
   S S  S  S   S S S S S S S  S  S S  S S
-------------------0---0---7S-9-----------|
-------12----------0---0--------10--------|
-----5-----------5-----------------9------|
--10---------------------------------10-9-|
---------------------x---5--------------x-|
----------12h-13-----x------------------x-|


                ^   v
   S E  S   S S S S S S S S S  S  S S
-----7----------7---7---7-------------|
----------------0---0-----8------10---|
--------------5-------------7S-9------|
--10----------------------------------|
------------------x-----------------x-|
--------8h-10-----x---5-------------x-|


               ^   v
   E.  S  S  S S S S S  S  S  S  S  S S
----------------------------------------|
----------------------------------------|
---5-----------5---5---10p-9p-7p-5h-9---|
--10-----------5---5--------------------|
-----------------x--------------------x-|
-------5h-8-10---x---5----------------x-|


               ^   v
  S E  S  S  S S S S S S  S S  S S S
-------------------------------------|
-------------------------------------|
---------------5---5-------------5---|
--7------------7---7--------5h-7-----|
-----------------x-----5h-7--------x-|
----5--5h-8-10---x---5-------------x-|


                 ^   v   ^
  S S  S S  S  S S S E   S  S S  S   S S
--0---------------------10p-7---10S-12---|
-------------------------8----8----------|
----5h-7---------7---7---7---------------|
-----------------5---5-------------------|
-------------------x-------------------x-|
---------8-10-10---x-------------------x-|


                    ^    v
   S S  S  S   S S  S S  S S  S  S  S  S   S
-------10----------10---10---------10-12s-14-|
--10----------------5----5---10-12-----------|
-----5-----------5---------------------------|
---------------------------------------------|
----------------------x----5-----------------|
----------12h-13------x----------------------|


                     ^    v
   E     S   S  S S  S S  S S  E  S  S S S
---------------------0----0----------------|
--14b~--12~---------12---12---10--8p-7-----|
------------------5--------------------5---|
-------------------------------------------|
-----------------------x----5------------x-|
------------12-13------x-----------------x-|


                ^   v
  S S S S   S S S S S S S S S  S  S S
------7---------7---7---7-------------|
--7-8-----------0---0-----8------10---|
--------------5-------------7S-9------|
--------------------------------------|
------------------x-----------------x-|
--------8h-10-----x---5-------------x-|


               ^   v
   E.  S  S  S S S S S  S  S  S  S  S S
----------------------------------------|
----------------------------------------|
---5-----------5---5---10p-9p-7p-5h-9---|
--10-----------5---5--------------------|
-----------------x--------------------x-|
-------5h-8-10---x---5----------------x-|


               ^   v
  S E  S  S  S S S S S S  S S  S S S
-------------------------------------|
-------------------------------------|
---------------5---5-------------5---|
--7------------7---7--------5h-7-----|
-----------------x-----5h-7--------x-|
----5--5h-8-10---x---5-------------x-|


                 ^   v   ^
  S S  S S  S  S S S E   S  S S  S   S S
--0---------------------10p-7---10S-12---|
-------------------------8----8----------|
----5h-7---------7---7---7---------------|
-----------------5---5-------------------|
-------------------x-------------------x-|
---------8-10-10---x-------------------x-|


                    ^    v
   S S  S  S   S S  S S  S S  S  S  S  S   S
-------10----------10---10---------10-12s-14-|
--10----------------5----5---10-12-----------|
-----5-----------5---------------------------|
---------------------------------------------|
----------------------x----5-----------------|
----------12h-13------x----------------------|


                     ^    v
   E     S   S  S S  S S  S S  E  S  S S S
---------------------0----0----------------|
--14b~--12~---------12---12---10--8p-7-----|
------------------5--------------------5---|
-------------------------------------------|
-----------------------x----5------------x-|
------------12-13------x-----------------x-|


              T    T
  S S S S  S  S    S S S S S  S  S S S S
------7---------<>12---L---3p-2p-0-------|
--7-8-----------<>12-L-5-----------0-----|
----------------<>12-L-5-----------------|
-----------------------5-------------5---|
---------------------x-----------------x-|
--------5h-8-10------x---5-------------x-|


            T    T
  E.  S  S  S    S S S  S  S S  S   S S  S
--9-----------<>12---L----------------9----|
--7-----------<>12-L-----------10S-12---10-|
--5-----------<>12-L---------9-------------|
---------------------9S---10---------------|
--5----------------x---------------------x-|
------5h-8-10------x----5----------------x-|


               T    T
  S S  S S  S  S    S S S S S  S  S S S S
-----------------<>12---L---3p-2p-0-------|
--L--------------<>12-L-5-----------0-----|
----9------------<>12-L-5-----------------|
------10----------------5-------------5---|
----------------------x-----------------x-|
---------5h-8-10------x---5-------------x-|


            T    T        ^
  E.  S  S  S    S S S S  S  S S  S   S S
--9-----------<>12---L---10p-7---10S-12---|
--7-----------<>12-L-5----8----8----------|
--5-----------<>12-L-5----7---------------|
---------------------5--------------------|
--5----------------x--------------------x-|
------5h-8-10------x---5----------------x-|


                    ^    v
   S S  S  S   S S  S S  S S  S   S  S   S  S
-------10----------10---10---14p-10-----------|
--10----------------5----5----------14p-10----|
-----5-----------5-------------------------10-|
----------------------------------------------|
----------------------x----5------------------|
----------12h-13------x-----------------------|


                      ^   v
   S S  S  S   S S    S S S  E   Q    S
-------------------<>12---0-------------|
-------12----------<>12---0-------------|
-----5-----------5--------------17------|
--10----------------------------17------|
------------------------x-------------x-|
----------12h-13--------x---12--------x-|


  S S S  E  S T  T S E  S S  S S S S
--0-7-9-10----7h-9---7---------------|
---------0--------------7--------0---|
---------5--5------------------5-----|
----------------------------10-------|
-------------------x------5--------x-|
---------5---------x---------------x-|


  S S  S S S S S S E   S S S  S S S
---------------------------7--------|
------10-------7---8--10-----10-----|
----5--------5-----5---7--------5---|
--5--------5-------5---7------------|
-----------------x----------------x-|
---------8-------x-------7--------x-|


  S  E   E  S S S  E   E    S  S  S S
--0--9--10--9-9---12------------------|
----10--10------------12s--10-10-10---|
---------5-------------5--------------|
-----------------------5--------------|
----------------x-------------------x-|
---------5------x-------------------x-|


  S S S E  S S S S S S S S E  S
-------------0-------------0----|
------7----------7-----2--------|
--5-5------5-------5-----5------|
--------5------------5----------|
---------------x--------------x-|
---------------x--------------x-|


  S S  S   E   S  S S  S   S  S  E   S  S   S
--0-7h-9-7g9-----10---10s-12-10---------9h-10-|
-----------0-----------------10--------10-----|
----------------------------------------------|
----------10--10--------------------10--------|
-----------9--------x-----------------------x-|
--------------------x-----------13----------x-|


  S S  S S S S S S E  S S S S S S
--9-------------------------------|
------10-------7---8--7-------7---|
-------------5-----5--7-----------|
----5------5-------5--7-----7-----|
-----------------x--------7-----x-|
---------8-------x------7-------x-|


  E  S S S S S S E  S E  S S  S
--------------------------------|
-----------------7--------------|
--7--5-------5------7------7h-9-|
-----------5-------------5------|
---------9-----x------5-------x-|
-------5-------x--------------x-|


  S  S S S S S S S  E  S E  S S S
----------------------------------|
--7h-8-7-----8-----10---------8---|
-------------5------5--7------5---|
-----------5---5-------5----5-----|
-----------------x--------------x-|
---------8-------x-------7------x-|


  S  S  S E.  S E  Q    E  S
------------------------0----|
-----------------------------|
--7s-9p-5-5---7----9---------|
--5-------5---5----7---------|
----------5---5-x--5-------x-|
----------5---7-x--8-------x-|


                           ^
  S  Q     E  E  E.  S S S S
--L------------------------0-|
-----------------7---------7-|
----14----12-----------5---5-|
----12----14-----5---5---5-9-|
-----5-----5--x--9---------x-|
----13----13--x--5---------x-|


  v
  S S S  S  S S S S  E  S  S S S S S
--0----------------------------------|
--7-------------8---10---------------|
--5---5-------5---------9--------9---|
--9-5------10------------------5-----|
------------------x----------5-----x-|
--------10--------x-------12-------x-|


  E  S E  S S  S  S S S S S E  S
--0-------------------------0----|
---------------------------------|
-----7------7h-9p-5-------5------|
----------5---------5-9----------|
-------5-------x--------7------x-|
---------------x---------------x-|


  S S S E.  S E  Q    E  S
----------------------0----|
---------------------------|
----5---5---7----9---------|
------9-5---5----7---------|
--7-----5---5-x--5-------x-|
--------5---7-x--8-------x-|


                             ^
  S  Q     E  E   E.  S S S  S
--L---------------0---0------0-|
-----------------10-------5-10-|
----14----16------5-----5----5-|
----12----14-------------------|
-----5-----5--x--------------x-|
----13----13--x---5----------x-|


   v
   E.   E  S S  S  S E   E  S S  S
---0---------7s-9-10-9--------9-10h-|
--10----8---------------10----------|
---5----5----------------0----------|
-------10---------------------------|
-----------x----------------x-------|
-------10--x------------12--x-------|


   S   E   E.   S E   Q.     S
--12s-14--14---10----12------L-|
----------12----8----10------L-|
-----------0----0-----0------L-|
----------------------5------L-|
-----------5------x------------|
------------------x------------|


     NHT  T    NH     NH     NHT  T    NH
     S S  S    S S    S S    S S  S    S S S
-------9-----------------------9-------------|
---------10----------------------10----------|
---------------------------------------------|
-----------------x-<>12------------------L-x-|
------------<>12------------------L-<>12-----|
--<>12------------------L-<>12---------------|


     NHT  T    NH     NH     NHT  T    NH
     S S  S    S S    S S    S S  S    S S S
-------9-----------------------9-------------|
---------10----------------------10----------|
---------------------------------------------|
-----------------x-<>12------------------L-x-|
------------<>12------------------L-<>12-----|
--<>12------------------L-<>12---------------|


     NHT T    NH     NH     NHT T    NH
     S S S    S S    S S    S S S    S S S
-------7----------------------7---------------|
---------8----------------------8-------------|
------------------<>12------------------------|L-<>
-----------<>12-x---------------L-<>12-L-x----|
--<>12-----------------L-<>12-----------------|
----------------------------------------------|


     NHT T    NH     NH     NHT T    NH
     S S S    S S    S S    S S S    S S S
-------7----------------------7---------------|
---------8----------------------8-------------|
------------------<>12------------------------|L-<>
-----------<>12-x---------------L-<>12-L-x----|
--<>12-----------------L-<>12-----------------|
----------------------------------------------|


     NHT  T    NH     NH     NHT  T    NH
     S S  S    S S    S S    S S  S    S S S
-------9-----------------------9-------------|
---------10----------------------10----------|
---------------------------------------------|
-------------------<>12------------------L-x-|
------------<>12-x----------------L-<>12-----|
--<>12------------------L-<>12---------------|


     NHT  T    NH     NH     NHT  T    NH
     S S  S    S S    S S    S S  S    S S S
-------9-----------------------9-------------|
---------10----------------------10----------|
---------------------------------------------|
-----------------x-<>12------------------L-x-|
------------<>12------------------L-<>12-----|
--<>12------------------L-<>12---------------|


     NHT T    NH     NH     NHT T    NH
     S S S    S S    S S    S S S    S S S
-------7----------------------7---------------|
---------8----------------------8-------------|
------------------<>12------------------------|L-<>
-----------<>12-x---------------L-<>12-L-x----|
--<>12-----------------L-<>12-----------------|
----------------------------------------------|


     NHT T    NH     NH     NHT T    NH
     S S S    S S    S S    S S S    S S S
-------7----------------------7---------------|
---------8----------------------8-------------|
------------------<>12------------------------|L-<>
-----------<>12-x---------------L-<>12-L-x----|
--<>12-----------------L-<>12-----------------|
----------------------------------------------|


     T           T      T         NH       NH
     S   S  S    S S    S   S     S S S    S
-----9h-10--L----9---------------------------|
-----------------------10h-12p---10----------|
---------------------------------------------|
-------------------x-<>12--------------------|
--------------<>12--------------------L-<>12-|
--<>12----------------------L--<>12----------|


     NH       NH     NH     NHT       NH   T
     S S S    S S    S S    S S  S    S S  S
------------------------------9p-L----7-------|
----------------------------L-------------10--|p
----------------------------------------------|
----------------x-<>12------------------L--x--|
-----------<>12------------------L-<>12-------|
--<>12-----------------L-<>12-----------------|


     T        NH      NH     T        NH
     S S S    S  S    S S    S S S    S S S
----------------------------------------------|
-----7---L----8h-L---10------7----------------|
-------------------<>12-------------------x---|
-----------<>12--x-----------------<>12-L-----|
--<>12------------------L-<>12----------------|
----------------------------------------------|


     NH       NH     NH     NHT       NH
     S S S    S S    S S    S S  S    S  S S
------------------------------3p-L----2p-L-0-|
----------------------------L----------------|
------------------<>12---------------------L-|
-----------<>12-x----------------L-<>12--L-x-|
--<>12-----------------L-<>12----------------|
---------------------------------------------|


     NH       T      T        NH       NH
     S S S    S S    S  S     S S S    S S S
---------L----5------------------------------|
-----3----------L----3p-0h----3--------------|
---------------------------------------------|
----------------x-<>12-------------------L-x-|
-----------<>12---------------------<>12-----|
--<>12------------------L--<>12--------------|


     NH  T    NH     T      NHT       NH
     S S S    S S    S S    S S  S    S  S S
-------L----------------------5p-L----3p-L-2--|p
---------2------L----3------------------------|
----------------------------------------------|
----------------x-<>12-------------------L-x--|
-----------<>12--------------------<>12-------|
--<>12-----------------L-<>12-----------------|


     T         T      T       NH        NH
     S  S S    S S    S  S    S  S S    S S S
----------L-----------------------------------|
-----3h-5------7-L----3p-0----3h-5------------|
-------------------<>12-----------------------|L
------------<>12-x-------------------<>12-L-x-|
--<>12-------------------L-<>12---------------|
----------------------------------------------|


     NH       NH     NH     NHT       NH
     S S S    S S    S S    S S  S    S  S S
---------------------------------------------|
----------------------------L-5S-L----7S-L-8-|
------------------<>12---------------------L-|
-----------<>12-x------------------<>12--L-x-|
--<>12-----------------L-<>12----------------|
---------------------------------------------|


     T        T       T         NH       NH
     S S S    S  S    S   S     S S S    S S
----10---L----9--L---------------------------|
---------------------10h-12p---10------------|
---------------------------------------------|
-----------------x-<>12--------------------L-|
-----------<>12-----------------------<>12---|
--<>12--------------------L--<>12------------|


     NH       NH     NH     NHT      T   T
     S S S    S S    S S    S S S    S S S
------------------------------9-L----7-L-5----|
----------------------------L-----------------|
----------------------------------------------|
----------------x-<>12-----------------L-x----|>
-----------<>12-------------------<>12--------|
--<>12-----------------L-<>12-----------------|


     T        T      T      T        NH
     S S S    S S    S S    S S S    S S S
----------------------------------------------|
-----7---L----8-L---10-L----7-----------------|
------------------<>12------------------------|L-<>
-----------<>12-x-----------------<>12-L-x----|
--<>12-----------------L-<>12-----------------|
----------------------------------------------|


     NH       NH     NH     NHT       NH
     S S S    S S    S S    S S  S    S  S S
------------------------------3p-L----2p-L-0-|
----------------------------L----------------|
------------------<>12---------------------L-|
-----------<>12-x----------------L-<>12--L-x-|
--<>12-----------------L-<>12----------------|
---------------------------------------------|


     NH       T      T        NH       NH
     S S S    S S    S  S     S S S    S S S
---------L----5------------------------------|
-----3----------L----3p-0h----3--------------|
---------------------------------------------|
----------------x-<>12-------------------L-x-|
-----------<>12---------------------<>12-----|
--<>12------------------L--<>12--------------|


     NH  T    NH     T      NHT       NH
     S S S    S S    S S    S S  S    S  S S
-------L----------------------5p-L----3p-L-2--|p
---------2------L----3------------------------|
----------------------------------------------|
----------------x-<>12-------------------L-x--|
-----------<>12--------------------<>12-------|
--<>12-----------------L-<>12-----------------|


     T         T      T       NH        NH
     S  S S    S S    S  S    S  S S    S S S
----------L-----------------------------------|
-----3h-5------7-L----3p-0----3h-5------------|
-------------------<>12-----------------------|L
------------<>12-x-------------------<>12-L-x-|
--<>12-------------------L-<>12---------------|
----------------------------------------------|


     NH       NH     NH     NH       NH
     S S S    S S    S S    S S S    S S S
----------------------------------------------|
----------------------------L---L------L------|
------------------<>12------------------------|L-<>
-----------<>12-x-----------------<>12-L-x----|
--<>12-----------------L-<>12-----------------|
----------------------------------------------|


     NHT  T    NH     NH     NHT  T    NH
     S S  S    S S    S S    S S  S    S S S
-------9-----------------------9-------------|
---------10----------------------10----------|
---------------------------------------------|
-----------------x-<>12------------------L-x-|
------------<>12------------------L-<>12-----|
--<>12------------------L-<>12---------------|


     NHT  T    NH     NH     NHT  T    NH
     S S  S    S S    S S    S S  S    S S S
-------9-----------------------9-------------|
---------10----------------------10----------|
---------------------------------------------|
-----------------x-<>12------------------L-x-|
------------<>12------------------L-<>12-----|
--<>12------------------L-<>12---------------|


     NHT T    NH     NH     NHT T    NH
     S S S    S S    S S    S S S    S S S
-------7----------------------7---------------|
---------8----------------------8-------------|
------------------<>12------------------------|L-<>
-----------<>12-x---------------L-<>12-L-x----|
--<>12-----------------L-<>12-----------------|
----------------------------------------------|


     NHT T    NH     NH     NHT T    NH
     S S S    S S    S S    S S S    S S S
-------7----------------------7---------------|
---------8----------------------8-------------|
------------------<>12------------------------|L-<>
-----------<>12-x---------------L-<>12-L-x----|
--<>12-----------------L-<>12-----------------|
----------------------------------------------|


     NHT  T    NH     NH     NHT  T    NH
     S S  S    S S    S S    S S  S    S S S
-------9-----------------------9-------------|
---------10----------------------10----------|
---------------------------------------------|
-----------------x-<>12------------------L-x-|
------------<>12------------------L-<>12-----|
--<>12------------------L-<>12---------------|


     NHT  T    NH     NH     NHT  T    NH
     S S  S    S S    S S    S S  S    S S S
-------9-----------------------9-------------|
---------10----------------------10----------|
---------------------------------------------|
-----------------x-<>12------------------L-x-|
------------<>12------------------L-<>12-----|
--<>12------------------L-<>12---------------|


     NHT T    NH     NH     NHT T    NH
     S S S    S S    S S    S S S    S S S
-------7----------------------7---------------|
---------8----------------------8-------------|
------------------<>12------------------------|L-<>
-----------<>12-x---------------L-<>12-L-x----|
--<>12-----------------L-<>12-----------------|
----------------------------------------------|


     NHT T    NH     NH     NHT T    NH
     S S S    S S    S S    S S S    S S S
-------7----------------------7---------------|
---------8----------------------8-------------|
------------------<>12------------------------|L-<>
-----------<>12-x---------------L-<>12-L-x----|
--<>12-----------------L-<>12-----------------|
----------------------------------------------|


     hlv
     NH
     W
----------------------||
----------------------||
----------------------||
----------------------||
----------------------||
--<>12----------------||


Duration Legend
---------------
W - whole
H - half
Q - quarter
E - 8th
S - 16th
T - 32nd
X - 64th
. - note dotted
|-n-|  - n-tuplets


Tablature Legend
----------------
L - tied note
x - dead note
g - grace note
(n) - ghost note
> - accentuded note
NH - natural harmonic
AH - artificial harmonic
TH - tapped harmonic
SH - semi harmonic
PH - pitch harmonic
h - hammer on
p - pull off
b - bend
br - bendRelease
pb - preBend
pbr - preBendRelease
brb - bendReleaseBend
\n/ - tremolo bar dip
\n - tremolo bar dive
-/n - tremolo bar Release up
/n\ - tremolo bar inverted dip
/n - tremolo bar return
-\n - tremolo bar Release down
S - shift slide
s - legato slide
/ -  slide into from below or out of upwards
\ -  slide into from above or out of downwards
~ - vibrato
W - wide vibrato
tr - trill
TP - tremolo picking
T - tapping
S - slap
P - pop
< - fade in
^ - brush up
v - brush down
comments
print report bad tab
28 comments total. Showing first comments.
+1 reply
Pedalboard wrote on February 5 2008, 04:51 pm

Oh...my...god.

Is it against my religion to bow down to you?

+4 reply
alexng83 wrote on February 12 2008, 02:56 pm

great tab but the tuning should be ECDGAD

+4 reply
jayarh wrote on February 28 2008, 09:48 pm

ECDGAD is open strings. but with capo on the fifth fret, it turns into AFGCAD.

great work on the tabs!

I want to post or [tab]
guest
You may want to rate the tab now too:
select rating
Please do not post tabs as comments. Select "correction" instead!