Oops, an error
Loading. Please wait.

I-Empire Bass Tab

ver2
ver2

Album

More versions @911Tabs.com
651 views 3 this week
no commentswrite comment
1 2 3 4 5
please rate
Autoscroll
+/-
esc
set tempo
stop
Hey! There's an official Ultimate Guitar app which is ideal
for learning songs when you're away from computer. Get the app
WARNING: You are trying to view
                                    content from Ultimate-Guitar.com
                                    in an unauthorized application,
                                    which is prohibited.

                                    Please use an official Ultimate
                                    Guitar Tabs application for iPhone,
                                    iPad or Android to access legitimate
                                    chords, guitar, bass, and drum tabs
                                    from Ultimate-Guitar.com database.

                                    Type "ultimate guitar tabs" in Apple
                                    App Store's or Android Market's
                                    search to find the application.
1.	Call to Arms
One of my favorite songs off of the new album, enjoy!  Im 100% sure that the notes used 
this tab are correct

~ = let note ring
h = hammer on
r = rest


Intro                keep playing this riff until verse
-----     --------------------------------------------------|
-----     --------------------------------------------------|
-7~--     -77----77----77----77----77----77----77-----------|
-----     ----0-----0-----0-----0-----0-----0-----0---------|

Verse (listen to learn the groove)
---------------------------------------|
---------------------------------------|
-77---77---77--------------------------|
----0----0-----6h7~--------------------|   x4

Verse Variation
---------------------------------------|
---------------------------------------|
-77---77---77--r----r------------------|
----0----0--------0---0----------------|   x2

Verse
---------------------------------------|
---------------------------------------|
-77---77---77--------------------------|
----0----0-----6h7~--------------------|   x4


Chorus
---------------------------------------------|
---------------------------------------------|
-77777777------------44444444----------------|
-----------55555555------------4h5555555-----|  x2


Interlude                keep playing this until verse
-----     --------------------------------------------------|
-----     --------------------------------------------------|
-7~--     -77----77----77----77----77----77----77-----------|
-----     ----0-----0-----0-----0-----0-----0-----0---------|


Verse
---------------------------------------|
---------------------------------------|
-77---77---77--------------------------|
----0----0-----6h7~--------------------|   x4

Chorus
----------------------------------------------------|
----------------------------------------------------|
-77---77---77---------------44444444----------------|
----0----0------4h55555555------------4h5555555-----|  x 4

Bridge              keep playing this until outro
-----     --------------------------------------------------|
-----     --------------------------------------------------|
-7~--     -77----77----77----77----77----77----77-----------|
-----     ----0-----0-----0-----0-----0-----0-----0---------|


Outro 4:00     play this until end of song
----------------------------------------------|
----------------------------------------------|
-77---77---77--------------44444444-----------|
----0----0------4h5~-----------------4h5~-----|

End on
-------|
-------|
-7~----|
-------|
2.	Everything's Magic
Verse
G|---------------------------------------------------------------------------|
D|---------------------------------------------------------------------------|
A|-----------------------------5/3-3-3-3/777--3-3-3------5/3-3-3-3/555/3-3-3-|
E|----1--1--1-----3/1--1--1--------------------------------------------------|

G|---------------------------------------------------------------------------|
D|---------------------------------------------------------------------------|
A|-----------------------------5/3-3-3-3/777--3-3-3------5/3-3-3-3/555/3-3-3-|
E|----3/1--1--1-----3/1--1--1------------------------------------------------|

Chorus
G|---------------------------------------------------------------------|
D|---------------------------------------------------------------------|
A|--3333333333333333-----------------------------------------888888888-|
E|------------------5555555555555555-3333333333333333-1111111----------|

it`s 12 not 1-2-   !!!!
G|------------------------------------------------------------------------------------------|
D|------------------------------------------------------------------------------------------|
A|--7777777777777777-8888888888888888-12121212121212121212121212121212-5-5-5-5555555555-3~~-|
E|------------------------------------------------------------------------------------------|

Verse
G|-----------------------------------------------------------------------|
D|-----------------------------------------------------------------------|
A|-----------------------------5/3-3-3/777--3-3-3------5/3-3-3/555/3-3-3-|
E|----1--1--1-----3/1--1--1----------------------------------------------|

G|---------------------------------------------------------------------------|
D|---------------------------------------------------------------------------|
A|-----------------------------5/3-3-3-3/777--3-3-3------5/3-3-3-3/555/3-3-3-|
E|----3/1--1--1-----3/1--1--1------------------------------------------------|

Chorus
G|---------------------------------------------------------------------|
D|---------------------------------------------------------------------|
A|--3333333333333333-----------------------------------------888888888-|
E|------------------5555555555555555-3333333333333333-1111111----------|

it`s 12 not 1-2-   !!!!
G|------------------------------------------------------------------------------------------|
D|------------------------------------------------------------------------------------------|
A|--7777777777777777-8888888888888888-12121212121212121212121212121212-5-5-5-5555555555-3~~-|
E|------------------------------------------------------------------------------------------|

Bridge
G|------------------------------------------------------------------------|
D|------------------------------------------------------------------------|
A|--3333333333333335------------------------------------------------------|
E|-------------------555555555555555555-3333333333333335-1111111111111111-|

Chorus
G|---------------------------------------------------------------------|
D|---------------------------------------------------------------------|
A|--3333333333333333-----------------------------------------888888888-|
E|------------------5555555555555555-3333333333333355-1111111----------|

it`s 12 not 1-2-   !!!!
G|--------------------------------------------------------------------------------------|
D|--------------------------------------------------------------------------------------|
A|--7777777777777766-8888888888888888-12121212121212121212121212121212-5-5-5-5555555555-|
E|--------------------------------------------------------------------------------------|
3.	Breathe
There is almost no bass in this song, so I tabbed out the keyboard part. sounds good if 
playing along with the song.

Keyboard/Synth Part- It's the Intro/Verses/Bridge
G:----------------------|
D:----------------------|
A:--0---2--0--2--0--4-5-|
E:----------------------|

G:-----------------------|
D:-----------------------|
A:--0x16-5x16------------|
E:-----------------------|

Believe it or not that's it.

   4. Love Like Rockets
Intro
|-------------------------------------------|
|-------------------------------------------|
|--5~----7~----9~----10~--------------------|
|-------------------------------------------|

1:16
Verse
|-------------------------------------------|
|-------------------------------------------|
|--55-55-5--77-77-7--99-99-9--1010-1010-10--|
|-------------------------------------------|

2:16
Chorus
|-------------------------------------------|
|--4---4-5---5-7--7-5-----------------------| x2
|---5-----5-----5----5----------------------|
|-------------------------------------------|

2:39
Pre-Verse
|--------11-12---12-14--14h16-12------------|
|--/16-12-----12------12--------12\---------|
|-------------------------------------------|
|-------------------------------------------|

2:55
Verse

3:18
Chorus

Post-Chorus
3:41
|-------------------------------------------|
|--/12~-------------------------------------|
|-------------------------------------------|
|-------------------------------------------|

Outro
3:49
|-------------------------------------------|
|-------------------------------------------| till end
|--55555555--99--77777777--99999999---------|
|---------------------------------33333333--|

5.	Sirens

/=slide up     h=hammer on

\=slide off    p=pull off


Verse
G---7--7-7--7--7-7--7--7--9--9--6--|
D-55-55-5-99-99-9-77-77-77-77-77-7-| x6
A----------------------------------|
E----------------------------------|

Pre-chorus
G-------------------------------------------------|
D-------------------------------------------------| x4
A-----99-9-----1010-10------12-121212121212121212-|
E-222/-----333/--------5555/----------------------|

Chorus
G--------------------------------------------------------------------|
D--------------------------------------------------------------------| x2
A-5555555555555557-----------------2222222222222225------------------|
E------------------333333333333323------------------3333333333333335-|

Verse x6

Pre-chorus x4

Chorus x2

Bridge
G---------------------------------------------------7--7-7--7--7-7--7--7-7---------|
D-5---/9---9h11-7---7-5-4-5---/9---9h11-7----55-4-55-55-5-99-99-9-77-77-7----------|
A-------------------------------------------------------------------------00000000-|
E----------------------------------------------------------------------------------|

---7--7-7--7--7-7--7--7-7-----------------|
-55-55-5-99-99-9-77-77-7-777777777777797\-|
------------------------------------------|
------------------------------------------|

Chorusx4

End on
G----|
D----|
A-5--|
E----|

6.	Secret Crowds
 Intro: 0:27

(its 17 not 1 7)
G|---------------------------------------------------|
D|---------------------------------------------------|
A|------------1/17-17-17-17-17-17-17-17-17-17-17-17--|
E|---------------------------------------------------|

slide down from the 17 straight onto
G|-----------------------------------------------------------------------|
D|-----------------------------------------------------------------------|
A|-------------------------9/-5-5-555/4-444------------------------------|x7
E|------------------------------------------3----------------------------|

Verse 0:56 if i had my own world

G|-----------------------------------------------------------------------|
D|-----------------------------------------------------------------------|
A|--5~----4/7~----5/9/5~------4/10~---10h12--5---------------------------|
E|-----------------------------------------------------------------------|





1:21

G|-----------------------------------------------------------------------|
D|-----------------------------------------------------------------------|
A|--555555555555---7777777777--55555555555555h4/10101010101010101010h12--|
E|-----------------------------------------------------------------------|

1:34
G|-----------------------------------------------------------------------|
D|-----------------------------------------------------------------------|
A|--555555555555---7777777777--99999999999999h4/10101010101010101010/5---|
E|-----------------------------------------------------------------------|

Chorus 1:45

G|-----------------------------------------------------------------------|
D|-----------------------------------------------------------------------|
A|--555555555555555555555555--------------10101010101010101010-----------|x2
E|--------------------------555555555555---------------------------------|

G|-----------------------------------------------------------------------|
D|-----------------------------------------------------------------------|
A|--555555555555555555555555--7777777777--10101010101010101010-----------|
E|-----------------------------------------------------------------------|


G|-----------------------------------------------------------------------|
D|-----------------------------------------------------------------------|
A|--555555555555555555555555--------------10101010101010101010-----------|
E|--------------------------555555555555---------------------------------|


Pre verse

G|-----------------------------------------------------------------------|
D|-----------------------------------------------------------------------|
A|-------------------------9/-5-5-555/4-444------------------------------|x7
E|------------------------------------------3----------------------------|

Verse again

then chorus

then little bridge with no bass just tom singing and atom on drums then 

4:03

(its 17 not 1 7)
G|---------------------------------------------------|
D|---------------------------------------------------|
A|------------1/17-17-17-17-17-17-17-17-17-17-17-17--|
E|---------------------------------------------------|

then continue wid the chorus and finish on

G|---------------------------------------------------|
D|---------------------------------------------------|
A|------------5~~~~~~--------------------------------|
E|---------------------------------------------------|
7.	Star of Bethlehem
 G|---------------------------------------------------------------------------|
D|---------------------------------------------------------------------------|
A|-0-0-0-0-0-0-0-0-2-2-2-2-2-2-2-2-4-4-4-4-4-4-4-4-5-5-5-5-5-5-5-4-----------|
E|---------------------------------------------------------------------------|x2

Verse 

G|---------------------------------------------------------------------------|
D|---------------------------------4-4-4-4-4-4-4/5---------------------------|
A|-0-0-0-0-0-0-0-0-2-2-2-2-2-2-2-2-----------------5-5-5-5-5-5-4-------------|
E|---------------------------------------------------------------------------|

G|---------------------------------------------------------------------------|
D|---------------------------------------------------------------------------|
A|-0-0-0-0-0-0-0-0-2-2-2-2-2-2-2-2-----------------5-5-5-5-5-5-4-------------|
E|---------------------------------2-2-2-2-2-2-2-2---------------------------|

G|---------------------------------------------------------------------------|
D|---------------------------------4-4-4-4-4-4-4/5---------------------------|
A|-0-0-0-0-0-0-0-0-2-2-2-2-2-2-2-2-----------------5-5-5-5-5-5-4-------------|
E|---------------------------------------------------------------------------|

G|---------------------------------------------------------------------------|
D|---------------------------------------------------------------------------|
A|-0-0-0-0-0-0-0-0-2-2-2-2-2-2-2-2-----------------5-5-5-5-5-5-4-------------|
E|---------------------------------2-2-2-2-2-2-2-2---------------------------|

Pre-Chorus) 

G|---------------------------------------------------------------------------|
D|---------------------------------0~----------------------------------------|
A|-0~------------------------------------------------------------------------|
E|---------------------------------------------------------------------------|x2

Chorus 

G|---------------------------------------------------------------------------|
D|---------------------------------------------------------------------------|
A|-0-0-0-0-0-0-0-0-2-2-2-2-2-2-2-2-4-4-4-4-4-4-4-4-5-5-5-5-5-5-5-4-----------|
E|---------------------------------------------------------------------------|x2

Verse 

G|---------------------------------------------------------------------------|
D|---------------------------------4-4-4-4-4-4-4/5---------------------------|
A|-0-0-0-0-0-0-0-0-2-2-2-2-2-2-2-2-----------------5-5-5-5-5-5-4-------------|
E|---------------------------------------------------------------------------|

G|---------------------------------------------------------------------------|
D|---------------------------------------------------------------------------|
A|-0-0-0-0-0-0-0-0-2-2-2-2-2-2-2-2-----------------5-5-5-5-5-5-4-------------|
E|---------------------------------2-2-2-2-2-2-2-2---------------------------|

G|---------------------------------------------------------------------------|
D|---------------------------------4-4-4-4-4-4-4/5---------------------------|
A|-0-0-0-0-0-0-0-0-2-2-2-2-2-2-2-2-----------------5-5-5-5-5-5-4-------------|
E|---------------------------------------------------------------------------|

G|---------------------------------------------------------------------------|
D|---------------------------------------------------------------------------|
A|-0-0-0-0-0-0-0-0-2-2-2-2-2-2-2-2-----------------5-5-5-5-5-5-4-------------|
E|---------------------------------2-2-2-2-2-2-2-2---------------------------|

Pre-Chorus 

G|---------------------------------------------------------------------------|
D|---------------------------------0~----------------------------------------|
A|-0~------------------------------------------------------------------------|
E|---------------------------------------------------------------------------|x2

Chorus 

G|---------------------------------------------------------------------------|
D|---------------------------------------------------------------------------|
A|-0-0-0-0-0-0-0-0-2-2-2-2-2-2-2-2-4-4-4-4-4-4-4-4-5-5-5-5-5-5-5-4-----------|
E|---------------------------------------------------------------------------|x4

Interlude 

G|---------------------------------2~----------------------------------------|
D|-------------------------------------------------2~------------------------|
A|-4~--------------5~--------------------------------------------------------|
E|---------------------------------------------------------------------------|

G|-6~--------------7~------------------2~------------------------------------|
D|-------------------------------------------------2~------------------------|
A|-~-------------------------------------------------------------------------|
E|---------------------------------------------------------------------------|x3

Final Choruses 
G|---------------------------------------------------------------------------|
D|---------------------------------------------------------------------------|
A|-0-0-0-0-0-0-0-0-2-2-2-2-2-2-2-2-4-4-4-4-4-4-4-4-5-5-5-5-5-5-5-4-----------|
E|---------------------------------------------------------------------------|x8

End 

G|---------------------------------------------------------------------------|
D|---------------------------------------------------------------------------|
A|-0~---0~---0~--------------------------------------------------------------|
E|---------------------------------------------------------------------------|

8.	True Love
 Note: For the intro, you can just like an open A ring out constantly, I just think it
slightly better by playing a D as well

Enjoy playing this song :)

INTRO
G|-------------------------------------------|
D|-------------------------------------------|
A|0~---------------5~------------------------|
D|-------------------------------------------|

PRE VERSE - 1.52
G|-------------------------------------------|
D|-------------------------------------------|
A|00000000222222224444444455555554-----------|
D|-------------------------------------------| x2

VERSE x2 - 2.07
G|-------------------------------------------|
D|----------------4~-------------------------|
A|0~------2~--------------5~-----------------|
D|-------------------------------------------|

G|-------------------------------------------|
D|-------------------------------------------|
A|0~------2~--------------5~-----------------|
D|----------------4~-------------------------|

PRE CHORUS - 2.37
G|-------------------------------------------|
D|-------------------------------------------|
A|0~---------------5~------------------------|
D|-------------------------------------------| x2

CHORUS - 2.52
G|-------------------------------------------|
D|-------------------------------------------|
A|00000000222222224444444455555554-----------|
D|-------------------------------------------| x2

VERSE x2 - 3.07
G|-------------------------------------------|
D|----------------44444444-------------------|
A|0000000022222222--------55555555-----------|
D|-------------------------------------------|

G|-------------------------------------------|
D|-------------------------------------------|
A|0000000022222222--------55555555-----------|
D|----------------44444444-------------------|


PRE CHORUS - 3.37
G|-------------------------------------------|
D|-------------------------------------------|
A|0~---------------5~------------------------|
D|-------------------------------------------| x2

CHORUS - 3.52
G|-------------------------------------------|
D|-------------------------------------------|
A|00000000222222224444444455555554-----------|
D|-------------------------------------------| x4

BRIDGE - 4.22
G|-------------------------------------------|
D|-------------------------------------------|
A|4~----5~----0~-----7~----------------------|
D|-------------------------------------------| x4

CHORUS - 4.52
G|-------------------------------------------|
D|-------------------------------------------|
A|00000000222222224444444455555554-----------|
D|-------------------------------------------| x8

ENDING - 5.52
G|-------------------------------------------|
D|-------------------------------------------|
A|0--0--0------------------------------------|
D|-------------------------------------------|
9.	Lifeline
 INTRO (x2)
G|-------------------------------------------------------------------------|
D|-------------------------------------------------------------------------|
A|-2/45555555555555555-4444444444444444-2222222222222222-------------------|
E|-------------------------------------------------------3333333333333333--|

  VERSE (x2)
G|-------------------------------------------------------------------------|
D|-------------------------------------------------------------------------|
A|-2/45555555555555555-4444444444444444-2222222222222222-------------------|
E|-------------------------------------------------------3333333333333333--|

  CHORUS (x4)
G|-------------------------------------------------------------------------|
D|-------------------------------------------------------------------------|
A|-2/45555555555555555-4444444444444444-2222222222222222-------------------|
E|-------------------------------------------------------3333333333333333--|

  INTERLUDE (x2)
G|-------------------------------------------------------------------------|
D|-------------------------------------------------------------------------|
A|-2/45555555555555555-4444444444444444-2222222222222222-------------------|
E|-------------------------------------------------------3333333333333333--|

  VERSE (x2)
G|-------------------------------------------------------------------------|
D|-------------------------------------------------------------------------|
A|-2/45555555555555555-4444444444444444-2222222222222222-------------------|
E|-------------------------------------------------------3333333333333333--|

  CHORUS (x4)
G|-------------------------------------------------------------------------|
D|-------------------------------------------------------------------------|
A|-2/45555555555555555-4444444444444444-2222222222222222-------------------|
E|-------------------------------------------------------3333333333333333--|

  OUTRO (x4)
G|-------------------------------------------------------------------------|
D|-------------------------------------------------------------------------|
A|-2/45555555555555555-4444444444444444-2222222222222222-------------------|
E|-------------------------------------------------------3333333333333333--|

  END
G|---------|
D|---------|
A|---5~~---|
E|---------|

10.	Jumping Rooftops
 NO BASS
11.	Rite of Spring
 Intro:
no bass


Verses:
G|---------------------------------|
D|---------------------------------|
A|-7-7-7-7-7-7-7-7-0-0-0-0-0-0-0-0-| x4
E|---------------------------------|


Chorus:
G|---------------------------------|
D|---------------------------------|
A|-4-4-4-4-2-2-2-2-0-0-0-0-0-0-0-0-| x3
E|---------------------------------|

G|---------------------------|
D|---------------------------|
A|-4-4-4-4-2-2-2-2-0-0-0-0-0-|
E|---------------------------|

12.	Heaven
 Intro:

(0:29)

G|---------------------------------|
D|---------------------------------| repeat until
A|--------------55555--------------|
E|-55555---------------------------|

(1:22) (i havent done the exact right amount of notes hopefully u can pick up the rhythm

G|-----------------------------------------------------------------------|
D|-----------------------------------------------------------------------|
A|-----------------555555555555-44444444444-22222222222/14-14-14-14-14-14|
E|-55555555555555--------------------------------------------------------|

then
(1:49) Verse "i will run the streets and hostile lands"

G|-----------------------------------------------------------------------|
D|-----------------------------------------------------------------------|
A|-----------------555555555555-999999999999-777777777-555555555555555555|
E|-55555555555555--------------------------------------------------------|

then
(2:15) first let a 5 on A ring then back to

G|---------------------------------|
D|---------------------------------| repeat until
A|--------------55555--------------|
E|-55555---------------------------|

(2:42)

G|-----------------------------------------------------------------------|
D|-----------------------------------------------------------------------|
A|-----------------555555555555-44444444444-22222222222/14-14-14-14-14-14|
E|-55555555555555--------------------------------------------------------|

and then verse "do you see the .... beneath the clouds

G|-----------------------------------------------------------------------|
D|-----------------------------------------------------------------------|
A|-----------------555555555555-999999999999-777777777-555555555555555555|
E|-55555555555555--------------------------------------------------------|

then chorus

G|---------------------------------|
D|---------------------------------| repeat until
A|--------------55555--------------|
E|-55555---------------------------|

BRIDGE (4:01) but dont come in until (4:15)

G|-----------------------------------------------------------------------|
D|-----------------------------------------------------------------------|
A|-------------------------------555555555555555-------------------------|
E|-55555555555555555555555555555-----------------55555555555555555-------|

then resume to outro of song

(4:41) "if u see a light break through the clouds"

G|-----------------------------------------------------------------------|
D|-----------------------------------------------------------------------|
A|-----------------555555555555-44444444444-22222222222/14-14-14-14-14-14|
E|-55555555555555--------------------------------------------------------|

then


G|-----------------------------------------------------------------------|
D|-----------------------------------------------------------------------|
A|-----------------555555555555-999999999999-777777777-555555555555555555|
E|-55555555555555--------------------------------------------------------|

then "PLEASE STAY.....DONT GO, IVE GOT YOU NOW"
G|-----------------------------------------------------------------------|
D|-----------------------------------------------------------------------|
A|-----------------555555555555-44444444444-22222222222/14-14-14-14-14-14|
E|-55555555555555--------------------------------------------------------|

finish on


G|---------------------------------|
D|---------------------------------|
A|---------------------------------|
E|-----5~--------------------------|

comments
We did not receive enough feedback on this tab! Please rate:
print report bad tab
1 2 3 4 5
I want to post or [tab]
guest
You may want to rate the tab now too:
select rating
Please do not post tabs as comments. Select "correction" instead!