Oops, an error
Loading. Please wait.

We Dont Need To Whisper Tab

ver1
ver1

Album

More versions @911Tabs.com
13,752 views 24 this week
14 commentsread comments
1 2 3 4 5
accurate
x 23
add to favorites launch autoscroll
font size
0
reset
Autoscroll
+/-
esc
set tempo
stop
Contributor
Difficulty
intermediate
WARNING: You are trying to view
                                    content from Ultimate-Guitar.com
                                    in an unauthorized application,
                                    which is prohibited.

                                    Please use an official Ultimate
                                    Guitar Tabs application for iPhone,
                                    iPad or Android to access legitimate
                                    chords, guitar, bass, and drum tabs
                                    from Ultimate-Guitar.com database.

                                    Type "ultimate guitar tabs" in Apple
                                    App Store's or Android Market's
                                    search to find the application.
____________________________________________________________________________
Angels & Airwaves - We Don't Need To Whisper
----------------------------------------------------------------------------
Tabbed by: fencingguitar_1
Email: fencingguitar_12@yahoo.com

Howdy Yall.
This is an incredible album and I am amazed that no one has tabbed it in it's entirety. 
listen closely to the album if you think I have something tabbed that you don't think 
there before you go and rate this tab one. Thanx, and happy playing!

Legend
#~    - Let Note ring
...   - Palm Muting
(#)   - Harmonic
+     - Staccato (Immeadiately mute note)
A/B   - Slide from Note A to Note B
A-h-B - Hammer-on from Note A to Note B
A-p-B - Pull-off from Note A to Note B
>>>>  - Play softer
<<<<  - Play louder (crescendo)
v     - Vibrato (Bend up and down quickly)
//////- Pickslide
b     - Bend
vb    - Vibrato and bend (basically just vibrato alot)

UPDATE (6-26-06) Fixed Part of Distraction, and It Hurts
____________________________________________________________________________
01 - Valkyrie Missile
----------------------------------------------------------------------------

All Guitars Standard Tuning

Amazing synth organ intro + Tom and Atom's coolio discussion (0.00-1.11)

Gtr 1 Intro (x3)(1.11-1.30)
Basically the same as the bass part below, with a good bit of effects.

Bass Intro (Let all open A's ring out) (x8)
G|-------------------------------------------------------------------------|
D|---12------12\14\16---12---12-11-12---9---9----9\7-----------------------|
A|-0----0-0-----------0----0--------------0---0----------------------------|
E|-------------------------------------------------------------------------|

Gtr 1 Intro B (x2)

(Tremolo pick below notes for a long time, heavy flanger and delay)
(Note, this isn't exact, these are just the basic notes being played,
it's really hard to tell exactly what's going on)
E|------------------|
B|------------------|
G|------------------|
D|------------------|
A|---------5----4---|
E|-5--5-------------|


Verse A (2 Bars per Guitar) (x4)

Gtr 1
e|-------------------------------------------------------------------------|
B|-------------------------------------------------------------------------|
G|-------------------------------------------------------------------------|
D|-7~---------------------------------7~-----------------------------------|
A|-x----------------------------------x------------------------------------|
E|-5~---------------------------------5~--5---5----5----5---5----5---------|

Gtr 2
e|-------------------------------------------------------------------------|
B|-------------------------------------------------------------------------|
G|--------------------------------------9--9--7--7--6--6-------------------|
D|7~------------------------------------------------------7--7-----7-------|
A|0~------------------------------------------------------------0----------|
E|-------------------------------------------------------------------------|


Gtr 1
e|-------------------------------------------------------------------------|
B|-------------------------------------------------------------------------|
G|-------------------------------------------------------------------------|
D|-7~---------------------------------7~-----------------------------------|
A|-x----------------------------------x------------------------------------|
E|-5~---------------------------------5~--5---5----5----5---5----5---------|

Gtr 2
e|-------------------------------------------------------------------------|
B|-------------------------------------------------------------------------|
G|-----6--6~--------------------------6--6-------------4~------------------|
D|7~----------7~----------------------------7--7-------------------------7-|
A|0~----------------------------------------------0--0~--------------------|
E|-------------------------------------------------------------------------|


Chorus (x1)

Gtrs 1 & 2    Bass (Each * means the note is hit 8 times)
E|---|        G|-----------------------------------|
B|---|        D|7-7-7-7----------------------------|
G|---|        A|*-*-*-*-5-5-5-5---------5-5-5---5--|
D|7~-|        E|--------*-*-*-*-5-5-5-5-*-*-*------|
A|x--|                          * * * *         + (immeadiately mute note)
E|5~-|

Intro B (the tremolo picking) (x2)
E|------------------|
B|------------------|
G|------------------|
D|------------------|
A|---------5----4---|
E|-5--5-------------|

Verse (x4)
Gtr 1
e|-------------------------------------------------------------------------|
B|-------------------------------------------------------------------------|
G|-------------------------------------------------------------------------|
D|-7~---------------------------------7~-----------------------------------|
A|-x----------------------------------x------------------------------------|
E|-5~---------------------------------5~--5---5----5----5---5----5---------|

Gtr 2
e|-------------------------------------------------------------------------|
B|-------------------------------------------------------------------------|
G|--------------------------------------9--9--7--7--6--6-------------------|
D|7~------------------------------------------------------7--7-----7-------|
A|0~------------------------------------------------------------0----------|
E|-------------------------------------------------------------------------|


Gtr 1
e|-------------------------------------------------------------------------|
B|-------------------------------------------------------------------------|
G|-------------------------------------------------------------------------|
D|-7~---------------------------------7~-----------------------------------|
A|-x----------------------------------x------------------------------------|
E|-5~---------------------------------5~--5---5----5----5---5----5---------|

Gtr 2
e|-------------------------------------------------------------------------|
B|-------------------------------------------------------------------------|
G|-----6--6~--------------------------6--6-------------4~------------------|
D|7~----------7~----------------------------7--7-------------------------7-|
A|0~----------------------------------------------0--0~--------------------|
E|-------------------------------------------------------------------------|

Chorus (x1)
Gtrs 1 & 2    Bass (Each * means the note is hit 8 times)
E|---|        G|-----------------------------------|
B|---|        D|7-7-7-7----------------------------|
G|---|        A|*-*-*-*-5-5-5-5---------5-5-5---5--|
D|7~-|        E|--------*-*-*-*-5-5-5-5-*-*-*------|
A|x--|                          * * * *         + (immeadiately mute note)
E|5~-|


Now the Outro Begins

Outro A
Gtr 2 (Heavy Delay) (x8)
e|-------------------------------|
B|-------------------------------|
G|--14-14-14-14-16-16-13-13------|
D|-------------------------------|
A|-------------------------------|
E|-------------------------------|

Gtr 1 Each bar represents one of Gtr 2's riffs)
e|--|--|--|--|--|--|--------|--------|
B|--|--|--|--|--|--|--------|--------|
G|--|--|--|--|--|--|99999999|99999999|
D|7~|--|7~|--|7~|--|99999999|99999999|
A|x-|--|x-|--|x-|--|77777777|77777777|
E|5~|--|5~|--|5~|--|00000000|00000000|
pm                  ........ ........

Outro B
Gtr 2 continues messing around with the same notes

Gtr 1 Outro B Riff 1 (x6)
e|-------------------------------------------------------------------------|
B|-------------------------------------------------------------------------|
G|-------------------------------------------------------------------------|
D|-11--12---11---7--9---12---11---11---------------------------------------|
A|-x---x----x----x--x---x----x----x----------------------------------------|
E|-9---10-/-9----5-/7---10-/-9----9----------------------------------------|
                                  +

Gtr 1 Outro B Riff 2 (x1)
e|--------------------------------|----------------------------------------|
B|--------------------------------|----------------------------------------|
G|--------------------------------|----------------------------------------|
D|-11--12-/-11---9-/-9---7-/-9--9-|---11--12-/-11---7-/-9---7-/-9----------|
A|-x---x----x----x---x---x---x--x-|---x---x----x----x---x---x---x----------|
E|-9---10-/-9----5-/-7---5-/-7--7-|---9---10-/-9----5-/-7---5-/-7----------|


Ending Notes
Gtr 2
e|--------|
b|-15-----|
G|----14~-|
D|--------|
A|--------|
E|--------|

Gtr 1
e|--------|
b|--------|
G|--------|
D|12-/-7~-|
A|x----x--|
E|10-/-5~-|


____________________________________________________________________________
02-Distraction
----------------------------------------------------------------------------

All guitars standard tuning

Intro

Piano transcribed for guitar (x until chorus)
e|--12--12--12--12--10--10--10--10--|
B|--13--13--13--13--13--13--13--12--|
G|----------------------------------|
D|----------------------------------|
A|----------------------------------|
E|----------------------------------|

Gtr. 1 (fades in)(x until chorus)(Delay)
e|--8------8------8------8---------|
B|-----8-8----8-8----8-8----8-8----|
G|---------------------------------|
D|---------------------------------|
A|---------------------------------|
E|---------------------------------|

Gtr. 2
e|----------------------------|
B|----------------------------|
G|----10-9--10-9--10-9--9-7-5-|
D|----------------------------|
A|----------------------------|
E|----------------------------|
                  >>>>>>>>>>>
Play these notes
softer as you go every time.


Chorus ( x2)
Gtrs 1 & 2 (Both with Chorus effect, I assume)
e|-----------------------------------------------------------------------|
B|-----------------------------------------------------------------------|
G|-9-9-9-9-9-5-7-7-7-7-7-7-9-7-5-5-5-5-5-9-9-7-7-7-7-7-7-7-9-10-9--------|
D|-x-x-x-x-x-x-x-x-x-x-x-x-x-x-x-x-x-x-x-x-x-x-x-x-x-x-x-x-x-x--x--------|
A|-7-7-7-7-7-3-5-5-5-5-5-5-7-5-3-3-3-3-3-7-7-5-5-5-5-5-5-5-7-8--7--------|
E|-----------------------------------------------------------------------|


Verse (x8)
The piano intro
e|--12--12--12--12--10--10--10--10-----------------------------------------|
B|--13--13--13--13--13--13--13--12-----------------------------------------|
G|-------------------------------------------------------------------------|
D|-------------------------------------------------------------------------|
A|-------------------------------------------------------------------------|
E|-------------------------------------------------------------------------|

Chorus (x2)
Gtrs 1 & 2 (Both with Chorus effect, I assume)
e|-------------------------------------------------------------------------|
B|-------------------------------------------------------------------------|
G|-9-9-9-9-9-5-7-7-7-7-7-7-9-7-5-5-5-5-5---9-9-7-7-7-7-7-7-7-9-10-9--------|
D|-x-x-x-x-x-x-x-x-x-x-x-x-x-x-x-x-x-x-x---x-x-x-x-x-x-x-x-x-x-x--x--------|
A|-7-7-7-7-7-3-5-5-5-5-5-5-7-5-3-3-3-3-3---7-7-5-5-5-5-5-5-5-7-8--7--------|
E|-------------------------------------------------------------------------|

Verse (x8)
The piano intro
e|--12--12--12--12--10--10--10--10-----------------------------------------|
B|--13--13--13--13--13--13--13--12-----------------------------------------|
G|-------------------------------------------------------------------------|
D|-------------------------------------------------------------------------|
A|-------------------------------------------------------------------------|
E|-------------------------------------------------------------------------|

Chorus (x2)
Gtrs 1 & 2 (Both with Chorus effect, I assume)
e|-------------------------------------------------------------------------|
B|-------------------------------------------------------------------------|
G|-9-9-9-9-9-5-7-7-7-7-7-7-9-7-5-5-5-5-5---9-9-7-7-7-7-7-7-7-9-10-9--------|
D|-x-x-x-x-x-x-x-x-x-x-x-x-x-x-x-x-x-x-x---x-x-x-x-x-x-x-x-x-x-x--x--------|
A|-7-7-7-7-7-3-5-5-5-5-5-5-7-5-3-3-3-3-3---7-7-5-5-5-5-5-5-5-7-8--7--------|
E|-------------------------------------------------------------------------|

Bridge

Guitar 1 (x1)
E|-----------------------------------------|
B|-----------------------------------------|
G|--10-9--9-7--7-9-9-10--9--9-7--7-9-9-10--|
D|-----------------------------------------|
A|-----------------------------------------|
E|-----------------------------------------|

Guitar 2 (x8)
E|-----------------------|
B|----8---8---8---8------|
G|--99--99--99--99-------|
D|-----------------------|
A|-----------------------|
E|-----------------------|


Chorus (x2)
Gtrs 1 & 2 (Both with Chorus effect, I assume)
e|-------------------------------------------------------------------------|
B|-------------------------------------------------------------------------|
G|-9-9-9-9-9-5-7-7-7-7-7-7-9-7-5-5-5-5-5---9-9-7-7-7-7-7-7-7-9-10-9--------|
D|-x-x-x-x-x-x-x-x-x-x-x-x-x-x-x-x-x-x-x---x-x-x-x-x-x-x-x-x-x-x--x--------|
A|-7-7-7-7-7-3-5-5-5-5-5-5-7-5-3-3-3-3-3---7-7-5-5-5-5-5-5-5-7-8--7--------|
E|-------------------------------------------------------------------------|

Outro
Piano transcribed for guitar (x until end of song)
e|--12--12--12--12--10--10--10--10--|
B|--13--13--13--13--13--13--13--12--|
G|----------------------------------|
D|----------------------------------|
A|----------------------------------|
E|----------------------------------|

Gtr. 1 (x until end of song)(Delay)
e|--8------8------8------8---------|
B|-----8-8----8-8----8-8----8-8----|
G|---------------------------------|
D|---------------------------------|
A|---------------------------------|
E|---------------------------------|

Gtr. 2 (x until end of song)
e|----------------------------|
B|----------------------------|
G|----10-9--10-9--10-9--9-7-5-|
D|----------------------------|
A|----------------------------|
E|----------------------------|


____________________________________________________________________________
Do It For Me Now
----------------------------------------------------------------------------
Standard Tuning

Intro (Tabbed For Synthesizer)(Repeat for whole of Intro and both Verses)
e|----------------------------------|
B|----------------------------------|
G|----------------------------------|
D|--7-7-7-7-7--7-77-7---------------|
A|----------------------------------|
E|----------------------------------|


Gtr Intro (x3)(Flanger + Delay)(11=one 11th fret)
e|----------------------------------------------------------------------|
B|----------------------------------------------------------------------|
G|----------------------------------------------------------------------|
D|---11-11-11-11-11-11-11-11-9-9-11-11-77777777777777777777777777777777-|
A|----------------------------------------------------------------------|
E|----------------------------------------------------------------------|
Pm   (.).  .  .  .  .  .  . (.).(.) . (.)..............................
(.)indicates emphasis palm mute

Verse
Synth Intro (x16)
Gtr Intro (x4)(Come in on eighth synth intro)
e|----------------------------------------------------------------------|
B|----------------------------------------------------------------------|
G|----------------------------------------------------------------------|
D|---11-11-11-11-11-11-11-11-9-9-11-11-77777777777777777777777777777777-|
A|----------------------------------------------------------------------|
E|----------------------------------------------------------------------|
Pm   (.).  .  .  .  .  .  . (.).(.) . (.)..............................
(.)indicates emphasis palm mute


Chorus
Gtr (x4)
e|----------------------------------------|
B|----------------------------------------|
G|----------------------------------------|
D|-7~-------------9~----------------------|
A|-7~-------------7~----------------------|
E|-5~-------------5~----------------------|

Synth (x4)
e|--17~----------14---19---17~------------|
B|-------15--17---------------------------|
G|--14~----------11---16---14~------------|
D|-------12--14---------------------------|
A|----------------------------------------|
E|----------------------------------------|

Bridge
Synth (Continue Until Singing comes in)
e|-----------------------------------|
B|-------2--------2--------2-------2-|
G|--2--4----2--4-----2--4----2--4----|
D|-----------------------------------|
A|-----------------------------------|
E|-----------------------------------|


Gtr Intro ()(Continue until end of song)
e|----------------------------------------------------------------------|
B|----------------------------------------------------------------------|
G|----------------------------------------------------------------------|
D|---11-11-11-11-11-11-11-11-9-9-11-11-77777777777777777777777777777777-|
A|----------------------------------------------------------------------|
E|----------------------------------------------------------------------|
Pm   (.).  .  .  .  .  .  . (.).(.) . (.)..............................

Ending Chord
e|------|
B|------|
G|--6~--|
D|--7~--|
A|--7~--|
E|--5~--|

____________________________________________________________________________
The Adventure
----------------------------------------------------------------------------
Standard Tuning

Intro
Gtr 1
e|-------------------------------------------------------------------------|
B|-------------------------------------------------------------------------|
G|-----11-------11-----11------11------11---------11-----11-------11-------|
D|--9------9-9------8------8-8------------------------8-----8-8------------|
A|---------------------------------11------11-11---------------------------|
E|-------------------------------------------------------------------------|

Gtr 2 (fading in)(delay)
e|-------------------------------------------------------------------------|
B|-------------------------------------------------------------------------|
G|-------------------------------------------------------------------------|
D|---------8----------9-8---------8----------9-8---------------------------|
A|--9-9-9-----9-8-8-8------9-9-9-----9-8-8-8-------------------------------|
E|-------------------------------------------------------------------------|
PM  . . .     . . . .      . . .     . . . .

Intro B
Gtr. 1 Intro B Riff A (x2)(Heavy reverb and delay)
e|-------------------------------------------------------------------------|
B|-------------------------------------------------------------------------|
G|--11-11-11-9-9-9-8-8---9-9-9-8-8-8-------9-9-9-8-8-8---------------------|
D|-----------------------------------9-9---------------9-9-----------------|
A|---------------------------------------------------------9--7-7-7-6-6----|
E|-------------------------------------------------------------------------|

Gtr. 1 Intro B Riff B (x1)
e|---------------------------------------------------------|
B|---------------------------------------------------------|
G|--11--------11--------11/13---9-------9-------8----------|
D|-----9-9-9-----9-9-9------------9-9-9---9-9-9---9-9--(x2)|
A|---------------------------------------------------------|
E|---------------------------------------------------------|
PM     . . .     . . .            . . .   . . .   . .

Gtr. 1 Intro B Riff A (x1)
e|-------------------------------------------------------------------------|
B|-------------------------------------------------------------------------|
G|--11-11-11-9-9-9-8-8---9-9-9-8-8-8-------9-9-9-8-8-8---------------------|
D|-----------------------------------9-9---------------9-9-----------------|
A|---------------------------------------------------------9--7-7-7-6-6----|
E|-------------------------------------------------------------------------|

Gtr. 2
(Each bar represents one completion of a Gtr. 1 Bar
e|-------------|------------|------------|------------|
B|-------------|------------|------------|------------|
G|----9~-------|----9~------|----9~------|----9~------|
D|-6~-9~-9~-4~-|-6~-9~-9~-4~|-6~-9~-9~-4~|-6~-9~-9~-4~|
A|-6~-7~-9~-4~-|-6~-7~-9~-4~|-6~-7~-9~-4~|-6~-7~-9~-4~|
E|-4~----7~-2~-|-4~----7~-2~|-4~----7~-2~|-4~----7~-2~|


Verse (x1)
e|-------------|------------|------------|------------|
B|-------------|------------|------------|------------|
G|----9~-------|----9~------|----9~------|----9~------|
D|-6~-9~-9~-4~-|-6~-9~-9~-4~|-6~-9~-9~-4~|-6~-9~-9~-4~|
A|-6~-7~-9~-4~-|-6~-7~-9~-4~|-6~-7~-9~-4~|-6~-7~-9~-4~|
E|-4~----7~-2~-|-4~----7~-2~|-4~----7~-2~|-4~----7~-2~|


Chorus
Gtr 1 (x2)
e|-------------------------------------------------------------------------|
B|-------------------------------------------------------------------------|
G|-----11-------11-----11------11------11---------11-----11-------11-------|
D|--9------9-9------8------8-8------------------------8-----8-8------------|
A|---------------------------------11------11-11---------------------------|
E|-------------------------------------------------------------------------|

Post-Chorus
Gtr. 1 (x2)
e|-------------------------------------------------------------------------|
B|-------------------------------------------------------------------------|
G|--11-11-11-9-9-9-8-8---9-9-9-8-8-8-------9-9-9-8-8-8---------------------|
D|-----------------------------------9-9---------------9-9-----------------|
A|---------------------------------------------------------9--7-7-7-6-6----|
E|-------------------------------------------------------------------------|

Gtr 2 (x1)
e|-------------|------------|
B|-------------|------------|
G|----9~-------|----9~------|
D|-6~-9~-9~-4~-|-6~-9~-9~-4~|
A|-6~-7~-9~-4~-|-6~-7~-9~-4~|
E|-4~----7~-2~-|-4~----7~-2~|

Verse(x1)
e|-------------|------------|------------|------------|
B|-------------|------------|------------|------------|
G|----9~-------|----9~------|----9~------|----9~------|
D|-6~-9~-9~-4~-|-6~-9~-9~-4~|-6~-9~-9~-4~|-6~-9~-9~-4~|
A|-6~-7~-9~-4~-|-6~-7~-9~-4~|-6~-7~-9~-4~|-6~-7~-9~-4~|
E|-4~----7~-2~-|-4~----7~-2~|-4~----7~-2~|-4~----7~-2~|

Chorus
Gtr 1 (x6)
e|-------------------------------------------------------------------------|
B|-------------------------------------------------------------------------|
G|-----11-------11-----11------11------11---------11-----11-------11-------|
D|--9------9-9------8------8-8------------------------8-----8-8------------|
A|---------------------------------11------11-11---------------------------|
E|-------------------------------------------------------------------------|


Bridge (x6)
e|-------------------------------------------------------------------------|
B|-------------------------------------------------------------------------|
G|-------------------------------------------------------------------------|
D|--9~-----9~-----9~------9~-----------------------------------------------|
A|--9~-----7~-----6~------x------------------------------------------------|
E|------------------------9~-----------------------------------------------|

Outro A
Gtr 1 (x8)(Complete once per Gtr 2 chord)
e|-----------------------|
B|--12--12----14---14-14-|
G|---------11------------|
D|-----------------------|
A|-----------------------|
E|-----------------------|

Gtr 2(x2)
e|-------------|------------|
B|-------------|------------|
G|----9~-------|----9~------|
D|-6~-9~-9~-4~-|-6~-9~-9~-4~|
A|-6~-7~-9~-4~-|-6~-7~-9~-4~|
E|-4~----7~-2~-|-4~----7~-2~|


Outro B
Gtr 1 (x8)(Complete once per Gtr 2 chord)
e|-----------------------|
B|--12--12----14---14-14-|
G|---------11------------|
D|-----------------------|
A|-----------------------|
E|-----------------------|

Gtr 2 (x2)
e|--------------------------------|
B|--------------------------------|
G|--------------------------------|
D|-9-9-999-9-9-999-6-6-666-9-9-999|
A|-9-9-999-9-9-999-6-6-666-9-9-999|
E|-7-7-777-6-6-666-4-4-444-6-6-666|


Outro C
Gtr 1 (Fade out till end of song)
e|-------------------------------------------------------------------------|
B|-------------------------------------------------------------------------|
G|-------------------------------------------------------------------------|
D|---------8----------9-8---------8----------9-8---------------------------|
A|--9-9-9-----9-8-8-8------9-9-9-----9-8-8-8-------------------------------|
E|-------------------------------------------------------------------------|
PM  . . .     . . . .      . . .     . . . .

____________________________________________________________________________
A Little's Enough
----------------------------------------------------------------------------
Standard Tuning

Synth Strings Intro : E A F# A

Verse
Gtr (Delay)
e|-------------------------------------------------------|
B|----9-h-10------9-h-10------9-h-12-----9-h-10-cont'd---|
G|--9----------9-----------9----------9----------below---|
D|-------------------------------------------------------|
A|-------------------------------------------------------|
E|-------------------------------------------------------|

e|-------------------------------------------|
B|--rest----9-h-10----------9-h-12-----9-h-10|
G|--------9---------------9----------9-------|
D|-------------------------------------------|
A|-------------------------------------------|
E|-------------------------------------------|

Chorus A
Gtr. 1 (x1)(Pretty quiet, but I swear it's there, it's definately what the bass is doing))
e|---------------------------------------------------------------|
B|---------------------------------------------------------------|
G|--------------------------------6~--6~--4~--4~--6~--6~--4~--4~-|
D|4~--4~--2~--2~--4~--4~--2~--2~--x---x---x---x---x---x---x---x--|
A|x---x---x---x---x---x---x---x---4~--4~--2~--2~--4~--4~--2~--2~-|
E|2~--2~--0~--0~--2~--2~--0~--0~---------------------------------|

Gtr. 2 (Repeats this note alot, and into the next verse and Chorus A
D|-9~-|

Post-Chorus (Delay)
E|---------------------------------------|
B|---------------------------------------|
G|---------------------------------------|
D|---------------------------------------|
A|-00000000------2222---------------0000-|
E|----------4444------22222222-0000------|
pm ........ .... .... ........ .... .....

Verse
Gtr (Delay)
e|-------------------------------------------------------|
B|--rest----------9-h-10------9-h-12-----9-h-10-cont'd---|
G|-------------9-----------9----------9----------below---|
D|-------------------------------------------------------|
A|-------------------------------------------------------|
E|-------------------------------------------------------|

e|-------------------------------------------|
B|--rest----9-h-10----------9-h-12-----9-h-10|
G|--------9---------------9----------9-------|
D|-------------------------------------------|
A|-------------------------------------------|
E|-------------------------------------------|

Chorus A
Gtr. 1 (x1)
e|---------------------------------------------------------------|
B|---------------------------------------------------------------|
G|--------------------------------6~--6~--4~--4~--6~--6~--4~--4~-|
D|4~--4~--2~--2~--4~--4~--2~--2~--x---x---x---x---x---x---x---x--|
A|x---x---x---x---x---x---x---x---4~--4~--2~--2~--4~--4~--2~--2~-|
E|2~--2~--0~--0~--2~--2~--0~--0~---------------------------------|


Chorus B
Gtr. 1 (x2)
e|----------------------------------------------------------------|
B|----------------------------------------------------------------|
G|--------------------------------------------------------7-7-7-7-|
D|--7-7--7~---7-7--6-6--6~---6-6--4-4--4~---4-4--2-2-2-2--x-x-x-x-|
A|--x-x--x----x-x--x-x--x----x-x--x-x--x----x-x--x-x-x-x--5-5-5-5-|
E|--5-5--5~---5-5--4-4--4~---4-4--2-2--2~---2-2--0-0-0-0----------|


Bridge
Gtr. 2  (Heavy delay)
e|-------------------------------------------------------------------------|
B|----10-10-x-10--12-10-10-x-10--------------14-14-14-10-10-10-12-12-12-9v-|
G|-----------------------------\----------/--------------------------------|
D|---------------------Repeat that until-this happens----------------------|
A|-------------------------------------------------------------------------|
E|-------------------------------------------------------------------------|

Chorus B
Gtr. 1 (x4)  Gtr. 2 Repeats bridge underneath
e|----------------------------------------------------------------|
B|----------------------------------------------------------------|
G|--------------------------------------------------------7-7-7-7-|
D|--7-7--7~---7-7--6-6--6~---6-6--4-4--4~---4-4--2-2-2-2--x-x-x-x-|
A|--x-x--x----x-x--x-x--x----x-x--x-x--x----x-x--x-x-x-x--5-5-5-5-|
E|--5-5--5~---5-5--4-4--4~---4-4--2-2--2~---2-2--0-0-0-0----------|

Ending Chord
e|----|
B|----|
G|----|
D|-7~-|
A|-x--|
E|-5~-|


____________________________________________________________________________
The War
----------------------------------------------------------------------------
All Guitars DROP D (DADGBE)

Intro A

Gtr. 1 (x12)
e|-------------------------------------------------------------------------|
B|-------------------------------------------------------------------------|
G|-------------------------------------------------------------------------|
D|-------------7-------5-------4-------------------------------------------|
A|--4-h-5-5-5---5-5-5---5-5-5---5-5-5--------------------------------------|
D|-------------------------------------------------------------------------|

Gtr. 2 (Hit a chord for every two completions of Gtr. 1's riff)
(Very Quiet)
e|----|----|----|----|----|----|
B|----|----|----|----|----|----|
G|----|----|----|----|----|----|
D|----|----|----|----|----|----|
A|-0~-|-5~-|-0~-|-5~-|-4~-|-2~-|
D|-0~-|-5~-|-0~-|-5~-|-4~-|-2~-|


Intro B
GTR
e|-------------------------------------------------------------------------|
B|-------------------------------------------------------------------------|
G|-------------------------------------------------------------------------|
D|-------------------------------------------------------------------------|
A|-0000-0000-7777-0000-0000-7777-9999-9999-5555-0000-7777--55-5------------|
D|-0000-0000-7777-0000-0000-7777-9999-9999-5555-0000-7777--55-5------------|
PM                                                         ..


Verse
GTR 3  (Acoustic) (Flanger, and Low EQ)(x2)
e|---------------------------------|
B|---------------------------------|
G|-2-22-22-2-22-22-2-22-22-2-22-22-|
D|-0-00-00-0-00-00-0-00-00-0-00-00-|
A|-0-00-00-0-00-00-0-00-00-0-00-00-|
D|-0-00-00-4-44-44-5-55-55-5-55-55-|


Pre-Chorus
Gtr. 1 (x8)
e|----------------------|
B|----------------------|
G|-7-7-7-7--7-7-7-7--7-7|
D|-x-x-x-x--x-x-x-x--x-x|
A|-5-5-5-5--5-5-5-5--5-5|
D|----------------------|

Bass (Just so you know the progression)
Ryan (Bass) is in Drop D, too, by the way
Low D|0000-0000-00-5555-5555-55-9999-9999-99-5555-5555-55|

Chorus(x2)(This kind of chorus seem familiar to anyone?)
Gtr. 1
e|-------------------------------------|
B|-------------------------------------|
G|-77777777-77777777-77777777-77777777-|
D|-xxxxxxxx-xxxxxxxx-xxxxxxxx-xxxxxxxx-|
A|-55555555-55555555-55555555-55555555-|
D|-------------------------------------|


Gtr. 2
e|-------------------------------------|
B|-------------------------------------|
G|-77777777-77777777-99999999-77777777-|
D|-xxxxxxxx-xxxxxxxx-77777777-55555555-|
A|-55555555-55555555-77777777-55555555-|
D|-00000000-00000000-77777777-55555555-|


Post-Chorus
GTR
e|-------------------------------------------------------------------------|
B|-------------------------------------------------------------------------|
G|-------------------------------------------------------------------------|
D|-------------------------------------------------------------------------|
A|-0000-0000-7777-0000-0000-7777-9999-9999-5555-0000-7777--55-5------------|
D|-0000-0000-7777-0000-0000-7777-9999-9999-5555-0000-7777--55-5------------|
PM                                                         ..

Verse

GTR 3  (Acoustic) (Flanger, and Low EQ)(x2)
e|---------------------------------|
B|---------------------------------|
G|-2-22-22-2-22-22-2-22-22-2-22-22-|
D|-0-00-00-0-00-00-0-00-00-0-00-00-|
A|-0-00-00-0-00-00-0-00-00-0-00-00-|
D|-0-00-00-4-44-44-5-55-55-5-55-55-|


Pre-Chorus
Gtr. 1 (x8)
e|----------------------|
B|----------------------|
G|-7-7-7-7--7-7-7-7--7-7|
D|-x-x-x-x--x-x-x-x--x-x|
A|-5-5-5-5--5-5-5-5--5-5|
D|----------------------|

Chorus(x2)
Gtr. 1
e|-------------------------------------|
B|-------------------------------------|
G|-77777777-77777777-77777777-77777777-|
D|-xxxxxxxx-xxxxxxxx-xxxxxxxx-xxxxxxxx-|
A|-55555555-55555555-55555555-55555555-|
D|-------------------------------------|


Gtr. 2
e|-------------------------------------|
B|-------------------------------------|
G|-77777777-77777777-99999999-77777777-|
D|-xxxxxxxx-xxxxxxxx-77777777-55555555-|
A|-55555555-55555555-77777777-55555555-|
D|-00000000-00000000-77777777-55555555-|


Bridge
e|----|
B|----|
G|----|
D|-0~-|
A|-0~-|
D|-0~-|

Gtr. 1 (x12)
e|----------------------|
B|----------------------|
G|-7-7-7-7--7-7-7-7--7-7|
D|-x-x-x-x--x-x-x-x--x-x|
A|-5-5-5-5--5-5-5-5--5-5|
D|----------------------|

Chorus(x4)
Gtr. 1
e|-------------------------------------|
B|-------------------------------------|
G|-77777777-77777777-77777777-77777777-|
D|-xxxxxxxx-xxxxxxxx-xxxxxxxx-xxxxxxxx-|
A|-55555555-55555555-55555555-55555555-|
D|-------------------------------------|


Gtr. 2
e|-------------------------------------|
B|-------------------------------------|
G|-77777777-77777777-99999999-77777777-|
D|-xxxxxxxx-xxxxxxxx-77777777-55555555-|
A|-55555555-55555555-77777777-55555555-|
D|-00000000-00000000-77777777-55555555-|

Post-Chorus (x2)
GTR
e|-------------------------------------------------------------------------|
B|-------------------------------------------------------------------------|
G|-------------------------------------------------------------------------|
D|-------------------------------------------------------------------------|
A|-0000-0000-7777-0000-0000-7777-9999-9999-5555-0000-7777--55-5------------|
D|-0000-0000-7777-0000-0000-7777-9999-9999-5555-0000-7777--55-5------------|
PM                                                         ..


Ending Chord
e|----|
B|----|
G|----|
D|-0~-|
A|-0~-|
D|-0~-|


____________________________________________________________________________
The Gift
----------------------------------------------------------------------------
All Guitars Standard Tuning

Intro/Verse (x12)
Gtr. 1 (Delay, Reverb, More Delay)
e|-----------------------------------------|
B|-----------------------------------------|
G|--11-x-x-x-11-x-x-x-11-x-x-13--9-x-8-----|
D|--------------------------------------9--|
A|-----------------------------------------|
E|-----------------------------------------|

Gtr. 2 (At the beginning of every one of Gtr 1's riffs)(delay)
e|-x-xx-x-x-|
B|-x-xx-x-x-|
G|-x-xx-x-x-|
D|-x-xx-x-x-|
A|-x-xx-x-x-|
E|-x-xx-x-x-|


Pre-chorus (x4)
Gtr. 1 (Delay)
e|----------------------------|
B|----------------------------|
G|----------------------------|
D|----------------------------|
A|-6--6--7-7-7----------------|
E|---------------7---7--9-9-9-|

Chorus(x2)
Gtr.1
e|--------------------------------------------------------|
B|--------------------------------------------------------|
G|--11--11-11-11-11--9--9-9-9-9---8--8-8-8-8---9--9-9-9-9-|
D|--x---x--x--x--x---x--x-x-x-x---x--x-x-x-x---x--x-x-x-x-|
A|--9---9--9--9--9---7--7-7-7-7---6--6-6-6-6---7--7-7-7-7-|
E|--------------------------------------------------------|

Intro/Verse (x10)
Gtr. 1 (Delay, Reverb, More Delay)
e|-----------------------------------------|
B|-----------------------------------------|
G|--11-x-x-x-11-x-x-x-11-x-x-13--9-x-8-----|
D|--------------------------------------9--|
A|-----------------------------------------|
E|-----------------------------------------|

Gtr. 2 (At the beginning of every one of Gtr 1's riffs)(delay)
e|-x-xx-x-x-|
B|-x-xx-x-x-|
G|-x-xx-x-x-|
D|-x-xx-x-x-|
A|-x-xx-x-x-|
E|-x-xx-x-x-|


Pre-chorus (x4)
Gtr. 1 (Delay)
e|----------------------------|
B|----------------------------|
G|----------------------------|
D|----------------------------|
A|-6--6--7-7-7----------------|
E|---------------7---7--9-9-9-|


Chorus(x4)
Gtr.1
e|--------------------------------------------------------|
B|--------------------------------------------------------|
G|--11--11-11-11-11--9--9-9-9-9---8--8-8-8-8---9--9-9-9-9-|
D|--x---x--x--x--x---x--x-x-x-x---x--x-x-x-x---x--x-x-x-x-|
A|--9---9--9--9--9---7--7-7-7-7---6--6-6-6-6---7--7-7-7-7-|
E|--------------------------------------------------------|


Pre-chorus (x4)
Gtr. 1 (Delay)
e|----------------------------|
B|----------------------------|
G|----------------------------|
D|----------------------------|
A|-6--6--7-7-7----------------|
E|---------------7---7--9-9-9-|


Chorus(x4)
Gtr.1
e|--------------------------------------------------------|
B|--------------------------------------------------------|
G|--11--11-11-11-11--9--9-9-9-9---8--8-8-8-8---9--9-9-9-9-|
D|--x---x--x--x--x---x--x-x-x-x---x--x-x-x-x---x--x-x-x-x-|
A|--9---9--9--9--9---7--7-7-7-7---6--6-6-6-6---7--7-7-7-7-|
E|--------------------------------------------------------|


Outro Riff (x6)
Gtr 1 (Delay)
e|-------------------------------------------------------------------------|
B|-------------------------------------------------------------------------|
G|---11-h-13---11-h-13---11-h-13---11-h-13---8-h-9---8-h-9---8-h-9---9-p-8-|
D|-9---------9---------9---------9---------9-------9-------9-------9-------|
A|-------------------------------------------------------------------------|
E|-------------------------------------------------------------------------|


____________________________________________________________________________
08 - It Hurts
----------------------------------------------------------------------------
Intro A
Gtr. 1 (x2)
e|-------------------------------------------------|
B|-14----------14----------14----------14----------|
G|-------14----------14----------14----------14----|
D|----11----11----12----12----14----14----12----12-|
A|-------------------------------------------------|
E|-------------------------------------------------|

AB Connector
Gtr. 2
e|-----|
B|-----|
G|-----|
D|-7-7-|
A|-x-x-|
E|-5-5-|

Intro B
Gtr. 1 (x2)
e|-------------------------------------------------------------------------|
B|-------------------------------------------------------------------------|
G|-------14--------14--------10--------10--------9--------9--------9------9|
D|--11--------11--------12--------12--------11-------11-------9-------9----|
A|0----0----0----0----0----0----0----0----0----0---0----0---0---0---0---0--|
E|-------------------------------------------------------------------------|

AB Connector
Gtr. 2
e|-----|
B|-----|
G|-----|
D|-7-7-|
A|-x-x-|
E|-5-5-|


Intro B
Gtr. 1 (x2)
e|---------------------------------------------------------------|
B|---------------------------------------------------------------|
G|------14-------14------10-------10------9-------9------9-----9-|
D|-11------11-11----12------12-12----11-----11-11----9-----9-9---|
A|---------------------------------------------------------------|
E|---------------------------------------------------------------|

BC Connector
Gtr. 2
e|-------------|
B|-------------|
G|-------------|
D|-7---7---7-7-|
A|-x---x---x-x-|
E|-5---5---5-5-|

Intro C (It Hurts, it hurts...)
Gtr. 2 (x2)
e|-------------------------------------|
B|-------------------------------------|
G|-22222222-44444444----------77777777-|
D|-22222222-44444444-44444444-77777777-|
A|-00000000-22222222-44444444-55555555-|
E|-------------------22222222----------|

Pre-Verse
Gtr. 1 (x1) (Flanger, Compressor)
e|-9-----------------------9-----------------------------------------------|
B|---10---12---10-12-10-12---10---12---10-12-10-12---14--------12--14------|
G|------9-----------------------9-----------------------14---9--------14---|
D|-------------------------------------------------------------------------|
A|-------------------------------------------------------------------------|
E|-------------------------------------------------------------------------|

Gtr. 2 (x2) (Flanger (Heavy))
e|-------------------------------------------------------------------------|
B|-------------------------------------------------------------------------|
G|-------------------------------------------------------------------------|
D|-77777777-66666666-1111111111111111-99999999-----------------------------|
A|-xxxxxxxx-xxxxxxxx-x-x-x-x-x-x-x-x--xxxxxxxx-----------------------------|
E|-55555555-44444444-9-9-9-9-9-9-9-9--77777777-----------------------------|

Verse
Gtr. 2 (x4)(Flanger (Heavy))
e|-------------------------------------------------------------------------|
B|-------------------------------------------------------------------------|
G|-------------------------------------------------------------------------|
D|-77777777-66666666-1111111111111111-99999999-----------------------------|
A|-xxxxxxxx-xxxxxxxx-x-x-x-x-x-x-x-x--xxxxxxxx-----------------------------|
E|-55555555-44444444-9-9-9-9-9-9-9-9--77777777-----------------------------|

Chorus
Gtr. 1 (x1)
e|-------------------------------------------------------------------------|
B|-14----------14----------14----------14----------14----------------------|
G|-------14----------14----------14----------14-----------Continued--------|
D|----------------12----12----------------14----14---------Below-----------|
A|----12-----12---------------12----12-------------------------------------|
E|-------------------------------------------------------------------------|

e|-------------------------------------------------|
B|-14----------14----------14----------14----------|
G|-------14----------14----------14----------14----|
D|----------------12----12----------------14----14-|
A|----------------------------12----12-------------|
E|---14------14------------------------------------|

Gtr. 2 (Very Quiet) (x1)
e|-------------------------------------------------------------------------|
B|-------------------------------------------------------------------------|
G|----------77777777----------99999999----------77777777----------999999999|
D|-77777777-77777777-77777777-99999999-44444444-77777777-77777777-999999999|
A|-77777777-55555555-77777777-77777777-44444444-55555555-77777777-777777777|
E|-55555555----------55555555----------22222222----------55555555----------|

Post-Chorus
Gtr. 2 (x2)
e|-------------------------------------|
B|-------------------------------------|
G|-22222222-44444444----------77777777-|
D|-22222222-44444444-44444444-77777777-|
A|-00000000-22222222-44444444-55555555-|
E|-------------------22222222----------|

Verse
Gtr. 2 (x4)(Flanger (Heavy))
e|-------------------------------------------------------------------------|
B|-------------------------------------------------------------------------|
G|-------------------------------------------------------------------------|
D|-77777777-66666666-1111111111111111-99999999-----------------------------|
A|-xxxxxxxx-xxxxxxxx-x-x-x-x-x-x-x-x--xxxxxxxx-----------------------------|
E|-55555555-44444444-9-9-9-9-9-9-9-9--77777777-----------------------------|


Chorus
Gtr. 1 (x1)
e|-------------------------------------------------------------------------|
B|-14----------14----------14----------14----------14----------------------|
G|-------14----------14----------14----------14-----------Continued--------|
D|----------------12----12----------------14----14---------Below-----------|
A|----12-----12---------------12----12-------------------------------------|
E|-------------------------------------------------------------------------|

e|-------------------------------------------------|
B|-14----------14----------14----------14----------|
G|-------14----------14----------14----------14----|
D|----------------12----12----------------14----14-|
A|----------------------------12----12-------------|
E|---14------14------------------------------------|

Gtr. 2 (Very Quiet) (x1)
e|-------------------------------------------------------------------------|
B|-------------------------------------------------------------------------|
G|----------77777777----------99999999----------77777777----------999999999|
D|-77777777-77777777-77777777-99999999-44444444-77777777-77777777-999999999|
A|-77777777-55555555-77777777-77777777-44444444-55555555-77777777-777777777|
E|-55555555----------55555555----------22222222----------55555555----------|


Bridge A
Gtr. 1 (x4)
e|-------------------------------------------------------------------------|
B|-------------------------------------------------------------------------|
G|-------14--------14--------10--------10--------9--------9--------9------9|
D|--11--------11--------12--------12--------11-------11-------9-------9----|
A|0----0----0----0----0----0----0----0----0----0---0----0---0---0---0---0--|
E|-------------------------------------------------------------------------|


Bridge A-B Connector
Gtr. 2
e|-----|
B|-----|
G|-----|
D|-7-7-|
A|-x-x-|
E|-5-5-|


Bridge B
Gtr. 1 (x1)
e|-------------------------------------------------------------------------|
B|-14----------14----------14----------14----------14----------------------|
G|-------14----------14----------14----------14-----------Continued--------|
D|----------------12----12----------------14----14---------Below-----------|
A|----12-----12---------------12----12-------------------------------------|
E|-------------------------------------------------------------------------|

e|-------------------------------------------------|
B|-14----------14----------14----------14----------|
G|-------14----------14----------14----------14----|
D|----------------12----12----------------14----14-|
A|----------------------------12----12-------------|
E|---14------14------------------------------------|


Gtr. 2 (x1) (Reverb and Sustain)
e|-------------------------------------------------------------------------|
B|-------------------------------------------------------------------------|
G|-2~vb-----2vb--/--14vb--/---2vb------------------------------------------|
D|---------------------------------/////////////////-----------------------|
A|------2-0------------------------/////////////////-----------------------|
E|---------------------------------/////////////////-----------------------|

Chorus
Gtr. 1 (x1)
e|-------------------------------------------------------------------------|
B|-14----------14----------14----------14----------14----------------------|
G|-------14----------14----------14----------14-----------Continued--------|
D|----------------12----12----------------14----14---------Below-----------|
A|----12-----12---------------12----12-------------------------------------|
E|-------------------------------------------------------------------------|

e|-------------------------------------------------|
B|-14----------14----------14----------14----------|
G|-------14----------14----------14----------14----|
D|----------------12----12----------------14----14-|
A|----------------------------12----12-------------|
E|---14------14------------------------------------|

Gtr. 2 (A little louder now)(x1)
e|-------------------------------------------------------------------------|
B|-------------------------------------------------------------------------|
G|----------77777777----------99999999----------77777777----------9999~----|
D|-77777777-77777777-77777777-99999999-44444444-77777777-77777777-9999~----|
A|-77777777-55555555-77777777-77777777-44444444-55555555-77777777-7777~----|
E|-55555555----------55555555----------22222222----------55555555----------|

Post-Chorus
Gtr. 2 (x4)
e|-------------------------------------|
B|-------------------------------------|
G|-22222222-44444444----------77777777-|
D|-22222222-44444444-44444444-77777777-|
A|-00000000-22222222-44444444-55555555-|
E|-------------------22222222----------|

Outro
Gtr. 1 (x1) (Flanger, Compressor)(Fade)
e|-9-----------------------9-----------------------------------------------|
B|---10---12---10-12-10-12---10---12---10-12-10-12---14--------12--14------|
G|------9-----------------------9-----------------------14---9--------14---|
D|-------------------------------------------------------------------------|
A|-------------------------------------------------------------------------|
E|-------------------------------------------------------------------------|

Gtr. 2 (x2) (Flanger (Heavy)(Fade faster than GTR1)
e|-------------------------------------------------------------------------|
B|-------------------------------------------------------------------------|
G|-------------------------------------------------------------------------|
D|-77777777-66666666-1111111111111111-99999999-----------------------------|
A|-xxxxxxxx-xxxxxxxx-x-x-x-x-x-x-x-x--xxxxxxxx-----------------------------|
E|-55555555-44444444-9-9-9-9-9-9-9-9--77777777-----------------------------|

____________________________________________________________________________
09 - Good Day
----------------------------------------------------------------------------

Intro/Verse(x6)
Gtr. 1 (Those notes are elevens, not ones)
e|---------------------------------------------------------|
B|---------------------------------------------------------|
G|---------------------------------------------------------|
D|-9999999-11111111111111-13-111111111111111111111111131111|
A|---------------------------------------------------------|
E|---------------------------------------------------------|
PM ....... .............. .. ..............................

Synthesizer
e|-------7-----------9-------11-------7--|
B|--7----------7-------------------------|
G|---------------------------------------|
D|---------------------------------------|
A|---------------------------------------|
E|---------------------------------------|

Pre-chorus
(I really can't hear a guitar here, just bass and some bassy synthesizer-stuff, which is 
by the way, but this is what I play when I play along with the song)(x2)
e|----------------------------------|
B|----------------------------------|
G|----------------------------------|
D|--99999~--88888~--66666~--88888~--|
A|--xxxxx---xxxxx---xxxxx---xxxxx---|
E|--77777~--66666~--44444~--66666~--|

Chorus
Gtr. 1(x1)
e|----|
B|----|
G|----|
D|-9~-|
A|-9~-|
E|-7~-|

Gtr. 3 (Acoustic) (x1)
e|-----------------------------------------|
B|-----------------------------------------|
G|-----------------------------------------|
D|-9~---9~---9~---9~---6~---6~---9~---9~---|
A|-9~---9~---9~---9~---6~---6~---9~---9~---|
E|-7~---7~---6~---6~---4~---4~---6~---6~---|

Post-Chorus (x2)
Gtr. 1 (Elevens, not ones)
e|---------------------------------------------------------|
B|---------------------------------------------------------|
G|---------------------------------------------------------|
D|-9999999-11111111111111-13-111111111111111111111111131111|
A|---------------------------------------------------------|
E|---------------------------------------------------------|
PM ....... .............. .. ..............................

Verse (x4)
Gtr. 1 (Elevens, not ones)
e|---------------------------------------------------------|
B|---------------------------------------------------------|
G|---------------------------------------------------------|
D|-9999999-11111111111111-13-111111111111111111111111131111|
A|---------------------------------------------------------|
E|---------------------------------------------------------|
PM ....... .............. .. ..............................

Synthesizer
e|-------7-----------9-------11-------7--|
B|--7----------7-------------------------|
G|---------------------------------------|
D|---------------------------------------|
A|---------------------------------------|
E|---------------------------------------|


Pre-chorus
(I really can't hear a guitar here, just bass and some bassy synthesizer-stuff, which is 
by the way, but this is what I play when I play along with the song)(x2)
e|----------------------------------|
B|----------------------------------|
G|----------------------------------|
D|--99999~--88888~--66666~--88888~--|
A|--xxxxx---xxxxx---xxxxx---xxxxx---|
E|--77777~--66666~--44444~--66666~--|

Chorus
Gtr. 1(x1)
e|----|
B|----|
G|----|
D|-9~-|
A|-9~-|
E|-7~-|

Gtr. 2 (Soft EQ) (x2)
e|-------------------------------------------------|
B|-------------------------------------------------|
G|-------------------------------------------------|
D|-9~-9~-9~-9~-9~-9~-9~-9~-6~-6~-6~-6~-9~-9~-9~-9~-|
A|-9~-9~-9~-9~-9~-9~-9~-9~-6~-6~-6~-6~-9~-9~-9~-9~-|
E|-7~-7~-7~-7~-6~-6~-6~-6~-4~-4~-4~-4~-6~-6~-6~-6~-|


Bridge A
Gtr. 2 (Soft EQ) (x2)
e|-------------------------------------------------|
B|-------------------------------------------------|
G|-------------------------------------------------|
D|-9~-9~-9~-9~-9~-9~-9~-9~-6~-6~-6~-6~-9~-9~-9~-9~-|
A|-9~-9~-9~-9~-9~-9~-9~-9~-6~-6~-6~-6~-9~-9~-9~-9~-|
E|-7~-7~-7~-7~-6~-6~-6~-6~-4~-4~-4~-4~-6~-6~-6~-6~-|

Bridge B
Gtr. 1 (Delay)(x2)
e|-14-14-12-12-11-11-9-11-9---7-7----7-7-----------------------------------|
B|-------------------------5-5----5-5--------------------------------------|
G|--------------------------------------11-11-9-9-8-8-6-6-8-8----4-4----4-4|
D|------------------------------------------------------------2-2-----2-2--|
A|-------------------------------------------------------------------------|
E|-------------------------------------------------------------------------|


Outro Chorus (x4)
Gtr. 2
e|-------------------------------------------------------------------------|
B|-------------------------------------------------------------------------|
G|-------------------------------------------------------------------------|
D|-9-9-9-9-9-9-9-9-9-9-9-9-9-9-9-9-6-6-6-6-6-6-6-6-9-9-9-9-9-9-9-9---------|
A|-9-9-9-9-9-9-9-9-9-9-9-9-9-9-9-9-6-6-6-6-6-6-6-6-9-9-9-9-9-9-9-9---------|
E|-7-7-7-7-7-7-7-7-6-6-6-6-6-6-6-6-4-4-4-4-4-4-4-4-6-6-6-6-6-6-6-6---------|

Gtr 1 (Delay)
e|-14-14-12-12-11-11-9-11-9---7-7----7-7-----------------------------------|
B|-------------------------5-5----5-5--------------------------------------|
G|--------------------------------------11-11-9-9-8-8-6-6-8-8----4-4----4-4|
D|------------------------------------------------------------2-2-----2-2--|
A|-------------------------------------------------------------------------|
E|-------------------------------------------------------------------------|


Ending Chord
E|----|
B|----|
G|----|
D|-9~-|
A|-9~-|
E|-7~-|


____________________________________________________________________________
10 - Start The Machine
----------------------------------------------------------------------------


Toy Piano Intro (x2)
e|-------------------------------------|
B|----------4--------4-----------------|
G|-8--8-6---4---4----4--6--4--4---4----|
D|-4--------4--------2--------2--------|
A|-------------------------------------|
E|-------------------------------------|


Intro B (x4)
Toy Piano
e|-------------------------|
B|-------------------------|
G|--4--4--4--3--6--6--6--3-|
D|--x--x--x--x--x--x--x--x-|
A|--2--2--2--1--4--4--4--1-|
E|-------------------------|

Bass Underneath The Piano
G|-------------------------|
D|-------------------------|
A|--22222211----44444411---|
E|-------------------------|


Verse(x4)
Bass
G|-------------------------------------|
D|-------------------------------------|
A|-66666666-77777777-22222222----------|
E|----------------------------22222222-|

Chorus (Once again, I struggle to hear guitar, but this is the progression that the synth is doing)
e|---------------------------------------------------|
B|---------------------------------------------------|
G|-4~-4~---------4~--4~--4~-4~-----------------------|
D|-4~-4~--4~--4~-4~--4~--4~-4~---2~---2~---4~---4~---|
A|-2~-2~--4~--4~-2~--2~--1~-1~---2~---2~---4~---4~---|
E|--------2~--2~-----------------0~---0~---2~---2~---|

Post-Chorus (x2)
Toy Piano
e|-------------------------------------|
B|----------4--------4-----------------|
G|-8--8-6---4---4----4--6--4--4---4----|
D|-4--------4--------2--------2--------|
A|-------------------------------------|
E|-------------------------------------|

Verse(x4)
Bass
G|-------------------------------------|
D|-------------------------------------|
A|-66666666-77777777-22222222----------|
E|----------------------------22222222-|

Chorus (Once again, I struggle to hear guitar, but this is the progression that the synth is doing)
e|---------------------------------------------------|
B|---------------------------------------------------|
G|-4~-4~---------4~--4~--4~-4~-----------------------|
D|-4~-4~--4~--4~-4~--4~--4~-4~---2~---2~---4~---4~---|
A|-2~-2~--4~--4~-2~--2~--1~-1~---2~---2~---4~---4~---|
E|--------2~--2~-----------------0~---0~---2~---2~---|


Bridge A (x4)
Gtr. 1
e|-------------------------------------|
B|-------------------------------------|
G|-44444444-66666666-------------------|
D|-44444444-66666666-66666666-99999999-|
A|-22222222-44444444-66666666-77777777-|
E|-------------------44444444-00000000-|
PM ........ ........ ........ ........

Gtr. 2 (Delay)
e|---------------------------------------------------------------|
B|-7-7-7-----------------------------7-7-7---------5-5-5-5-5-5-5-|
G|-------4-4-4-4-4-4~---4-4-4-4-4-4--------4-4-4-4---------------|
D|---------------------------------------------------------------|
A|---------------------------------------------------------------|

Bridge B (If Love's the Word) (x4)
Gtr. 1
e|------------------------------------|
B|------------------------------------|
G|-4444444444444444-------------------|
D|-4444444444444444-44444444-99999999-|
A|-2222222222222222-44444444-77777777-|
E|------------------22222222-00000000-|

Gtr. 2
e|------------------------------------|
B|------------------------------------|
G|-4~------4~-------------------------|
D|-4~------4~-------4~-------9~-------|
A|-2~------2~-------4~-------7~-------|
E|------------------2~-------0~-------|

From here until the end of the song, the bass does this:
G|-----|
D|-----|
A|-2-2-|
E|-----|

Outro
Toy Piano (x2)
e|-------------------------------------|
B|----------4--------4-----------------|
G|-8--8-6---4---4----4--6--4--4---4----|
D|-4--------4--------2--------2--------|
A|-------------------------------------|
E|-------------------------------------|


Outro B
Bass
G|-----|
D|-----|
A|-2-2-|
E|-----|


___________________________________________________________________________

Thus ends the journey. There you go guys, this has taken me four and-a-half days, so 
be generous. Listen carefully to the album when you're playing along, and support AVA by 
the album, not just illegally downloading it. Thanks so much, seeya later!

Please e-mail any comments or questions to fencingguitar_12@yahoo.com
comments
print report bad tab
14 comments total. Showing first comments.
0 reply
megarocker7 wrote on June 9 2006, 01:37 pm

Fricken great tab. You even added some bass lines and piano parts on some of the songs. I didn't go through every song but the ones I did go through(The Adventure, A Little's Enough, and It Hurts) sound spot on. 5 stars dude!

0 reply
the_deviant wrote on June 9 2006, 03:52 pm

In distraction arent there meant to be slides in the chorus

e||---------------------------------
B||---------------------------------
G||---------------------------------
D||-9-9-9-9-9-9-//-10-7-7.....------
A||-x-x-x-x-x-x-xx-x--x-x.....------
E||-7-7-7-7-7-7-//-8--5-5.....------ etc, thats the way i play it and it sounds pretty good.

0 reply
Spawn3323 wrote on June 9 2006, 06:19 pm

this is a well good tab,
u should add "the machine" to it too that wood be cool, i worked out most parts for it but wood be cool to have all of it.

5 stars

I want to post or [tab]
guest
You may want to rate the tab now too:
select rating
Please do not post tabs as comments. Select "correction" instead!