Oops, an error
Loading. Please wait.

We Dont Need To Whisper Tab

ver2
ver2

Album

More versions @911Tabs.com
1,041 views 1 this week
9 commentsread comments
1 2 3 4 5
worth learning
x 8
Autoscroll
+/-
esc
set tempo
stop
Contributor
Hey! There's an official Ultimate Guitar app which is ideal
for learning songs when you're away from computer. Get the app
WARNING: You are trying to view
                                    content from Ultimate-Guitar.com
                                    in an unauthorized application,
                                    which is prohibited.

                                    Please use an official Ultimate
                                    Guitar Tabs application for iPhone,
                                    iPad or Android to access legitimate
                                    chords, guitar, bass, and drum tabs
                                    from Ultimate-Guitar.com database.

                                    Type "ultimate guitar tabs" in Apple
                                    App Store's or Android Market's
                                    search to find the application.
--------------------------------------------------------------------------------------------------
			ANGELS AND AIRWAVES-WE DONT NEED TO WHISPHER
--------------------------------------------------------------------------------------------------
THIS IS THE ANGELS AND AIRWAVES NEW ABLUM THE TRACK LIST IN AS BELOW
1.Valkyrie Missile
2.Distraction
3.Do It for Me Now
4.The Adventure
5.A Little's Enough
6.The War
7.The Gift
8.It Hurts
9.Good Day
10.Start the Machine
Also the demo song 
Demo. Wrecked Him 

tab by andociompa
legend at bottom

1.Valkyrie Missile
--------------------------------------------------------------------------------------------------
around 2:05 - 2:15
theres a really quiet hard to hear guitar doing something like this:

E|----------|
B|----------|
G|-----7766-| it plays this decently fast/ up down palm mute
D|-7777-----|
A|----------|
E|----------|
   ********

2:15 - 2:41 and 3:56 - 4:22
guitar 1 intro/chorus

E|--------------------------------------------------------------------|
B|--------------------------------------------------------------------|
G|-----------------7777777766666666----------------7777777766666666---|
D|-7777777777777777----------------7777777777777777-------------------|
A|--------------------------------------------------------------------|
E|--------------------------------------------------------------------|
   ****************************************************************
continued..
E|--------------------------------------------------------------------|
B|--------------------------------------------------------------------|
G|-----------------7777777766666666-----------------7777777766666666--|
D|-0000000000000000-----------------0000000000000000------------------|
A|--------------------------------------------------------------------|
E|--------------------------------------------------------------------|
   *****************************************************************

guitar 2 intro/chorus

E|---------------------------------------------------------------------|
B|---------------------------------------------------------------------|
G|---------------------------------------------------------------------|
D|---------------------------------------------------------------------|
A|-000000000000000000000000000000000000000000000000000000000000000000--|
E|---------------------------------------------------------------------|
   ******************************************************************

continued..
E|---------------------------------------------------------------------|
B|---------------------------------------------------------------------|
G|---------------------------------------------------------------------|
D|---------------------------------0000000000000000000000000000000000--|
A|---------------------------------------------------------------------|
E|-00000000000000000000000000000000------------------------------------|
   ******************************************************************

2:41 - 3:31 and 4:22 - 5:12
guitar 1 verse

E|-----------------------------|
B|-----------------------------|
G|-----------------------------|
D|-7~-------------7~------7~---|
A|-0~-------------0~------0~---|
E|-5~-------------5~------4~---|

                                       "EVERYONE, EVERONE WILL LISTEN...."
guitar 2 verse

E|-----------------------------|
B|-----------------------------|
G|-66--------------99776-----4-|
D|----77-----------------------|
A|-------0~---------------0~---|
E|-----------------------------|


3:31 - 3:55 and 5:13 - 5:38
both guitars pre-chorus

E|-----------------------------|
B|-----------------------------|
G|-----------------------------|     "IF ONLY YOU'LL HOLD ON....."
D|-7~~~------------------------|
A|-0~~~------------------------|
E|-5~~~------------------------|

5:39 - 6:03
guitar 1 EPIC OUTRO PART 1

E|-------------------------------------------------------------|
B|-------------------------------------------------------------|
G|----------------------------9--------------------------------|
D|-7~~------7~~------7~~------999999999999999999999999////////-|
A|-0~~------0~~------0~~------777777777777777777777777////////-|
E|-5~~------5~~------5~~------000000000000000000000000////////-|
                               ***********************

5:39 - 6:30
guitar 2 EPIC OUTRO
with a cool guitar effect/ maybe delay or something

E|-------------------------|
B|-------------------------|
G|-1414141414-1616-131313--|
D|-------------------------|
A|-------------------------|
E|-------------------------|

6:04 - 6:30
guitar 1 EPIC OUTRO PART 2
E|-------------------------------------------------|-----------------------|
B|-------------------------------------------------|-----------------------|
G|-------------------------------------------------|-----------------------|
D|-12/11--7/9--12/11--11---12/11--7/9--12/11--11-x3|-12/11--7/9--7/9--9----|
A|-x--x---x-x--x--x---x----x--x---x-x--x--x---x----|-x--x---x-x--x-x--x----|
E|-10/9---5/7--10/9---9----10/9---5/7--10/9---9----|-10/9---5/7--5/7--7----|

continued...
E|------------------------------|
B|------------------------------|
G|------------------------------|
D|-12/11-7/9--7/9--11--7~~~-----|
A|-x--x--x-x--x-x--x---0~~~-----|    
E|-10/9--5/7--5/7--9---5~~~-----|

2.Distraction
----------------------------------------------------------------------------------------------------------
Intro:

E|-12-12-12-12-12-12-12-12-10-10-10-10-10-10-10-10--|
B|-13-13-13-13-13-13-13-13-13-13-13-13-13-13-13-13--|
G|--------------------------------------------------|
D|--------------------------------------------------|
A|--------------------------------------------------|
E|--------------------------------------------------|

Fade in:

E|--8--8--8--8--8--------|
B|---8--8--8--8--8-------|
G|-----------------10-9--|
D|-----------------------|
A|-----------------------|
E|-----------------------|

Pre-Verse "I'll be your distraction" (1:09)

E|---------------------------------------------------|
B|---------------------------------------------------|
G|--99999999--77777777--55555555--10-10-10-9-9-10-9--|
D|--xxxxxxxx--xxxxxxxx--xxxxxxxx--x--x--x--x-x-x--x--|
A|--77777777--55555555--33333333--8--8--8--7-7-8--7--|
E|---------------------------------------------------|

Verse: (1:30)

E|-12-12-12-12-12-12-12-12-10-10-10-10-10-10-10-10--|
B|-13-13-13-13-13-13-13-13-13-13-13-13-13-13-13-13--|
G|--------------------------------------------------|
D|--------------------------------------------------|
A|--------------------------------------------------|
E|--------------------------------------------------|

Chorus: (2:13)

E|-------------------------------------------------|
B|-------------------------------------------------|
G|--99999999--77777777--55555555--10-10-10-9-9-10--|
D|--xxxxxxxx--xxxxxxxx--xxxxxxxx--x--x--x--x-x-x---|
A|--77777777--55555555--33333333--8--8--8--7-7-8---|
E|-------------------------------------------------|

Verse: (2:34)

E|-12-12-12-12-12-12-12-12-10-10-10-10-10-10-10-10--|
B|-13-13-13-13-13-13-13-13-13-13-13-13-13-13-13-13--|
G|--------------------------------------------------|
D|--------------------------------------------------|
A|--------------------------------------------------|
E|--------------------------------------------------|

Chorus: (3:17)

E|-------------------------------------------------|
B|-------------------------------------------------|
G|--99999999--77777777--55555555--10-10-10-9-9-10--|
D|--xxxxxxxx--xxxxxxxx--xxxxxxxx--x--x--x--x-x-x---|
A|--77777777--55555555--33333333--8--8--8--7-7-8---|
E|-------------------------------------------------|

Interlude: (3:38)

Guitar 1:

E|-----------------------------------------|
B|-----------------------------------------|
G|--10-9--9-7--7-9-9h10--9--9-7--7-9-9h10--|
D|-----------------------------------------|
A|-----------------------------------------|
E|-----------------------------------------|

Guitar 2:

E|-------------------|
B|----8---8---8---8--|
G|--99--99--99--99---|
D|-------------------|
A|-------------------|
E|-------------------|

Chorus: (3:59)

E|-------------------------------------------------|
B|-------------------------------------------------|
G|--99999999--77777777--55555555--10-10-10-9-9-10--|
D|--xxxxxxxx--xxxxxxxx--xxxxxxxx--x--x--x--x-x-x---|
A|--77777777--55555555--33333333--8--8--8--7-7-8---|
E|-------------------------------------------------|

Bridge: "I'll be, I'll be yours" (4:42)

E|--8--8--8--8--8--------|
B|---8--8--8--8--8-------|
G|-----------------10-9--|
D|-----------------------|
A|-----------------------|
E|-----------------------|


3.Do It for Me Now
---------------------------------------------------------------------------------------------------
Intro 
e|----------------------------------------|
B|----------------------------------------|
G|----------------------------------------|
D|--7-7-7-7-7--7-7--7-7--7----------------|
A|----------------------------------------|
E|----------------------------------------|

Then the guitar comes in.
I've figured it out to be a delay.
Also use a wah pedal n slowly move it all the way back and forth
while tremelo palm mute picking the notes. Add some rhythm.

e|----------------------------------------|
B|----------------------------------------|
G|----------------------------------------|
D|--11-11-11-11-11-11-11-11-9-9-11-7------| 
A|----------------------------------------|
E|----------------------------------------| 

Verse 
e|----------------------------------------|
B|----------------------------------------|
G|----------------------------------------|
D|-7-7-7-7-7--7-7--7-7--7-----------------|
A|----------------------------------------|
E|----------------------------------------|

then guitar comes in
"where the guy grabs the girl and gives her his hand"
e|----------------------------------------|
B|----------------------------------------|
G|----------------------------------------|
D|--11-11-11-11-11-11-11-11-9-9-11-7------|
A|----------------------------------------|
E|----------------------------------------|


Chorus
"and i dont know"
Guitar
e|----------------------------------------|
B|----------------------------------------|
G|----------------------------------------|
D|-7~---7-7-7-7---------------------------|
A|-7~---7-7-7-7---------------------------|
E|-5~---5-5-5-5---------------------------|

e|----------------------------------------|
B|----------------------------------------|
G|-9~---9-9-9-9---------------------------|
D|-7~---7-7-7-7---------------------------|
A|-5~---5-5-5-5---------------------------|
E|----------------------------------------|

e|--17~----------14---19---17~------------|
B|-------15--17---------------------------|
G|--14~----------11---16---14~------------|
D|-------12--14---------------------------|
A|----------------------------------------|
E|----------------------------------------|

Back to intro with morse code and guitar

Verse 2

Chorus

Bridge

"Now just hold on, hold on to me"

e|--9---7-9----7-9----7-9---------10-------10--------9-------9---------|
B|---10-----10-----10-----10--x4-----10-10-----10-10---10-10----10-10--|
G|---------------------------------------------------------------------|
D|---------------------------------------------------------------------|
A|---------------------------------------------------------------------|
E|---------------------------------------------------------------------|

Guitar
e|----------------------------------------|
B|----------------------------------------|
G|----------------------------------------|
D|--11-11-11-11-11-11-11-11-9-9-11-7------|
A|----------------------------------------|
E|----------------------------------------|

Keeps doing it just guitar and then ends on
e|-----------------------------------------|
B|-----------------------------------------|
G|---6~------------------------------------|
D|---7~------------------------------------|
A|---7~------------------------------------|
E|---5~------------------------------------|

4.The Adventure
-------------------------------------------------------------------------------------------------------
Intro:
e|------------------|------------------|-------------------|---------------|
B|------------------|------------------|-------------------|---------------|
G|----11---------11-|----11--------11--|----11----------11-|---11-------11-|
D|-9------9---9-----|-8------8---8-----|-------------------|-8----8---8----|
A|------------------|------------------|-11-----11---11----|---------------|
E|------------------|------------------|-------------------|---------------|

e|------------------|------------------|-------------------|---------------|
B|------------------|------------------|-------------------|---------------|
G|----11---------11-|----11--------11--|----11----------11-|---11-------11-|
D|-9------9---9-----|-8------8---8-----|-------------------|-8----8---8----|
A|------------------|------------------|-11-----11---11----|---------------|
E|------------------|------------------|-------------------|---------------|

e|------------------|------------------|-------------------|---------------|
B|------------------|------------------|-------------------|---------------|
G|----11---------11-|----11--------11--|----11----------11-|---11-------11-|
D|-9------9---9-----|-8------8---8-----|-------------------|-8----8---8----|
A|------------------|------------------|-11-----11---11----|---------------|
E|------------------|------------------|-------------------|---------------|

e|------------------|------------------|-------------------|---------------|
B|------------------|------------------|-------------------|---------------|
G|----11---------11-|----11--------11--|----11----------11-|---11-------11-|
D|-9------9---9-----|-8------8---8-----|-------------------|-8----8---8----|
A|------------------|------------------|-11-----11---11----|---------------|
E|------------------|------------------|-------------------|---------------|

e|------------------|------------------|-------------------|---------------|
B|------------------|------------------|-------------------|---------------|
G|----11---------11-|----11--------11--|----11----------11-|---11-------11-|
D|-9------9---9-----|-8------8---8-----|-------------------|-8----8---8----|
A|------------------|------------------|-11-----11---11----|---------------|
E|------------------|------------------|-------------------|---------------|

e|------------------|------------------|-------------------|---------------|
B|------------------|------------------|-------------------|---------------|
G|----11---------11-|----11--------11--|----11----------11-|---11-------11-|
D|-9------9---9-----|-8------8---8-----|-------------------|-8----8---8----|
A|------------------|------------------|-11-----11---11----|---------------|
E|------------------|------------------|-------------------|---------------|

Pre-verse: With heavy Delay.

e|--------------------|-------------------|-----------------|--------------|
B|--------------------|-------------------|-----------------|--------------|
G|-11-11-11-9-9-9-8-8-|-9-9-9-8-8-8-------|-9-9-9-8-8-8-----|--------------|
D|--------------------|-------------9-9---|-------------9-9-|--------------|
A|--------------------|-------------------|-----------------|-7----6-------|
E|--------------------|-------------------|-----------------|------------7-|

e|--------------------|-------------------|-----------------|--------------|
B|--------------------|-------------------|-----------------|--------------|
G|-11-11-11-9-9-9-8-8-|-9-9-9-8-8-8-------|-9-9-9-8-8-8-----|--------------|
D|--------------------|-------------9-9---|-------------9-9-|--------------|
A|--------------------|-------------------|-----------------|-7----6-------|
E|--------------------|-------------------|-----------------|------------7-|

e|----------------------------|------------------------|
B|----------------------------|------------------------|
G|-11--X--X--11--X--X--11--13-|-9--X--X--9--X--X--9--X-|
D|----------------------------|------------------------|
A|----------------------------|------------------------|
E|----------------------------|------------------------|

e|----------------------------|------------------------|
B|----------------------------|------------------------|
G|-11--X--X--11--X--X--11--13-|-9--X--X--9--X--X--9--X-|
D|----------------------------|------------------------|
A|----------------------------|------------------------|
E|----------------------------|------------------------|

e|--------------------|-------------------|-----------------|--------------|
B|--------------------|-------------------|-----------------|--------------|
G|-11-11-11-9-9-9-8-8-|-9-9-9-8-8-8-------|-9-9-9-8-8-8-----|--------------|
D|--------------------|-------------9-9---|-------------9-9-|--------------|
A|--------------------|-------------------|-----------------|-7----6-------|
E|--------------------|-------------------|-----------------|------------7-|


Verse:

Guitar 1 only strums these chords once each. Listen for timing.
e|-----|-----|-----|-----|
B|-----|-----|-----|-----|
G|-----|--9--|-----|-----|Play whole thing 4 times over.
D|--6--|--9--|--9--|--6--|
A|--6--|--7--|--9--|--x--|
E|--4--|-----|--7--|--4--|

Chorus:

e|------------------|------------------|-------------------|---------------|
B|------------------|------------------|-------------------|---------------|
G|----11---------11-|----11--------11--|----11----------11-|---11-------11-|
D|-9------9---9-----|-8------8---8-----|-------------------|-8----8---8----|
A|------------------|------------------|-11-----11---11----|---------------|
E|------------------|------------------|-------------------|---------------|

e|------------------|------------------|-------------------|---------------|
B|------------------|------------------|-------------------|---------------|
G|----11---------11-|----11--------11--|----11----------11-|---11-------11-|
D|-9------9---9-----|-8------8---8-----|-------------------|-8----8---8----|
A|------------------|------------------|-11-----11---11----|---------------|
E|------------------|------------------|-------------------|---------------|

Post Chorus:
e|--------------------|-------------------|-----------------|--------------|
B|--------------------|-------------------|-----------------|--------------|
G|-11-11-11-9-9-9-8-8-|-9-9-9-8-8-8-------|-9-9-9-8-8-8-----|--------------|
D|--------------------|-------------9-9---|-------------9-9-|--------------|
A|--------------------|-------------------|-----------------|-7----6-------|
E|--------------------|-------------------|-----------------|------------7-|

e|--------------------|-------------------|-----------------|--------------|
B|--------------------|-------------------|-----------------|--------------|
G|-11-11-11-9-9-9-8-8-|-9-9-9-8-8-8-------|-9-9-9-8-8-8-----|--------------|
D|--------------------|-------------9-9---|-------------9-9-|--------------|
A|--------------------|-------------------|-----------------|-7----6-------|
E|--------------------|-------------------|-----------------|------------7-|


Verse:

Guitar 1 only strums these chords once each. Listen for timing.
e|-----|-----|-----|-----|
B|-----|-----|-----|-----|
G|-----|--9--|-----|-----|Play whole thing 4 times over.
D|--6--|--9--|--9--|--6--|
A|--6--|--7--|--9--|--x--|
E|--4--|-----|--7--|--4--|

Chorus:

e|------------------|------------------|-------------------|---------------|
B|------------------|------------------|-------------------|---------------|
G|----11---------11-|----11--------11--|----11----------11-|---11-------11-|
D|-9------9---9-----|-8------8---8-----|-------------------|-8----8---8----|
A|------------------|------------------|-11-----11---11----|---------------|
E|------------------|------------------|-------------------|---------------|

e|------------------|------------------|-------------------|---------------|
B|------------------|------------------|-------------------|---------------|
G|----11---------11-|----11--------11--|----11----------11-|---11-------11-|
D|-9------9---9-----|-8------8---8-----|-------------------|-8----8---8----|
A|------------------|------------------|-11-----11---11----|---------------|
E|------------------|------------------|-------------------|---------------|

e|------------------|------------------|-------------------|---------------|
B|------------------|------------------|-------------------|---------------|
G|----11---------11-|----11--------11--|----11----------11-|---11-------11-|
D|-9------9---9-----|-8------8---8-----|-------------------|-8----8---8----|
A|------------------|------------------|-11-----11---11----|---------------|
E|------------------|------------------|-------------------|---------------|

e|------------------|------------------|-------------------|---------------|
B|------------------|------------------|-------------------|---------------|
G|----11---------11-|----11--------11--|----11----------11-|---11-------11-|
D|-9------9---9-----|-8------8---8-----|-------------------|-8----8---8----|
A|------------------|------------------|-11-----11---11----|---------------|
E|------------------|------------------|-------------------|---------------|

e|------------------|------------------|-------------------|---------------|
B|------------------|------------------|-------------------|---------------|
G|----11---------11-|----11--------11--|----11----------11-|---11-------11-|
D|-9------9---9-----|-8------8---8-----|-------------------|-8----8---8----|
A|------------------|------------------|-11-----11---11----|---------------|
E|------------------|------------------|-------------------|---------------|

e|------------------|------------------|-------------------|---------------|
B|------------------|------------------|-------------------|---------------|
G|----11---------11-|----11--------11--|----11----------11-|---11-------11-|
D|-9------9---9-----|-8------8---8-----|-------------------|-8----8---8----|
A|------------------|------------------|-11-----11---11----|---------------|
E|------------------|------------------|-------------------|---------------|

Bridge:

"I cannot live, I can't breathe.. unless, you do this with me.."
e|------------------|-----------------|-----------------|-----------------|
B|------------------|-----------------|-----------------|-----------------|
G|------------------|-----------------|-----------------|-----------------|
D|--9-9-9-9-9-9-9-9-|-9-9-9-9-9-9-9-9-|-9-9-9-9-9-9-9-9-|-9-9-9-9-9-9-9-9-|
A|--9-9-9-9-9-9-9-9-|-7-7-7-7-7-7-7-7-|-6-6-6-6-6-6-6-6-|-x-x-x-x-x-x-x-x-|
E|------------------|-----------------|-----------------|-9-9-9-9-9-9-9-9-|

e|------------------|-----------------|-----------------|-----------------|
B|------------------|-----------------|-----------------|-----------------|
G|------------------|-----------------|-----------------|-----------------|
D|--9-9-9-9-9-9-9-9-|-9-9-9-9-9-9-9-9-|-9-9-9-9-9-9-9-9-|-9-9-9-9-9-9-9-9-|
A|--9-9-9-9-9-9-9-9-|-7-7-7-7-7-7-7-7-|-6-6-6-6-6-6-6-6-|-x-x-x-x-x-x-x-x-|
E|------------------|-----------------|-----------------|-9-9-9-9-9-9-9-9-|

e|------------------|-----------------|-----------------|-----------------|
B|------------------|-----------------|-----------------|-----------------|
G|------------------|-----------------|-----------------|-----------------|
D|--9-9-9-9-9-9-9-9-|-9-9-9-9-9-9-9-9-|-9-9-9-9-9-9-9-9-|-9-9-9-9-9-9-9-9-|
A|--9-9-9-9-9-9-9-9-|-7-7-7-7-7-7-7-7-|-6-6-6-6-6-6-6-6-|-x-x-x-x-x-x-x-x-|
E|------------------|-----------------|-----------------|-9-9-9-9-9-9-9-9-|

e|------------------|-----------------|-----------------|-----------------|
B|------------------|-----------------|-----------------|-----------------|
G|------------------|-----------------|-----------------|-----------------|
D|--9-9-9-9-9-9-9-9-|-9-9-9-9-9-9-9-9-|-9-9-9-9-9-9-9-9-|-9-9-9-9-9-9-9-9-|
A|--9-9-9-9-9-9-9-9-|-7-7-7-7-7-7-7-7-|-6-6-6-6-6-6-6-6-|-x-x-x-x-x-x-x-x-|
E|------------------|-----------------|-----------------|-9-9-9-9-9-9-9-9-|

e|------------------|-----------------|-----------------|-----------------|
B|------------------|-----------------|-----------------|-----------------|
G|------------------|-----------------|-----------------|-----------------|
D|--9-9-9-9-9-9-9-9-|-9-9-9-9-9-9-9-9-|-9-9-9-9-9-9-9-9-|-9-9-9-9-9-9-9-9-|
A|--9-9-9-9-9-9-9-9-|-7-7-7-7-7-7-7-7-|-6-6-6-6-6-6-6-6-|-x-x-x-x-x-x-x-x-|
E|------------------|-----------------|-----------------|-9-9-9-9-9-9-9-9-|

e|------------------|-----------------|-----------------|-----------------|
B|------------------|-----------------|-----------------|-----------------|
G|------------------|-----------------|-----------------|-----------------|
D|--9-9-9-9-9-9-9-9-|-9-9-9-9-9-9-9-9-|-9-9-9-9-9-9-9-9-|-9-9-9-9-9-9-9-9-|
A|--9-9-9-9-9-9-9-9-|-7-7-7-7-7-7-7-7-|-6-6-6-6-6-6-6-6-|-x-x-x-x-x-x-x-x-|
E|------------------|-----------------|-----------------|-9-9-9-9-9-9-9-9-|

Final Chorus:

e|------------------|---------------|------------------|-------------------|
B|------------------|---------------|------------------|-------------------|
G|------------------|---------------|------------------|-------------------|
D|-9-(9)(9)(9)(9)(9)|-8-(8)(8)(8)(8)|-6-(6)(6)(6)(6)(6)|-8-(8)(8)(8)(8)(8)-|
A|-9-(9)(9)(9)(9)(9)|-9-(9)(9)(9)(9)|-6-(6)(6)(6)(6)(6)|-9-(9)(9)(9)(9)(9)-|
E|-7-(7)(7)(7)(7)(7)|-6-(6)(6)(6)(6)|-4-(4)(4)(4)(4)(4)|-6-(6)(6)(6)(6)(6)-|

e|------------------|---------------|------------------|-------------------|
B|------------------|---------------|------------------|-------------------|
G|------------------|---------------|------------------|-------------------|
D|-9-(9)(9)(9)(9)(9)|-8-(8)(8)(8)(8)|-6-(6)(6)(6)(6)(6)|-8-(8)(8)(8)(8)(8)-|
A|-9-(9)(9)(9)(9)(9)|-9-(9)(9)(9)(9)|-6-(6)(6)(6)(6)(6)|-9-(9)(9)(9)(9)(9)-|
E|-7-(7)(7)(7)(7)(7)|-6-(6)(6)(6)(6)|-4-(4)(4)(4)(4)(4)|-6-(6)(6)(6)(6)(6)-|

e|------------------|---------------|------------------|-------------------|
B|------------------|---------------|------------------|-------------------|
G|------------------|---------------|------------------|-------------------|
D|-9-(9)(9)(9)(9)(9)|-8-(8)(8)(8)(8)|-6-(6)(6)(6)(6)(6)|-8-(8)(8)(8)(8)(8)-|
A|-9-(9)(9)(9)(9)(9)|-9-(9)(9)(9)(9)|-6-(6)(6)(6)(6)(6)|-9-(9)(9)(9)(9)(9)-|
E|-7-(7)(7)(7)(7)(7)|-6-(6)(6)(6)(6)|-4-(4)(4)(4)(4)(4)|-6-(6)(6)(6)(6)(6)-|

e|------------------|---------------|------------------|-------------------|
B|------------------|---------------|------------------|-------------------|
G|------------------|---------------|------------------|-------------------|
D|-9-(9)(9)(9)(9)(9)|-8-(8)(8)(8)(8)|-6-(6)(6)(6)(6)(6)|-8-(8)(8)(8)(8)(8)-|
A|-9-(9)(9)(9)(9)(9)|-9-(9)(9)(9)(9)|-6-(6)(6)(6)(6)(6)|-9-(9)(9)(9)(9)(9)-|
E|-7-(7)(7)(7)(7)(7)|-6-(6)(6)(6)(6)|-4-(4)(4)(4)(4)(4)|-6-(6)(6)(6)(6)(6)-|

End On:

E|-----|
B|-----|
G|-----|
D|--9--|
A|--9--|
E|--7--|

Outro:

e---------------------------|
B---------------------------|
G---------------------------|
D---------------------------|
A---------------------------|
E---------------------------|

Guitar Two's Parts:

Intro: Fades in, with heavy delay.

|------------------------|----------------------|
|------------------------|----------------------|
|-------8---------9---8--|---------8--------9-8-|
|--9-9-----9-8-8---------|---9--9----9-8-8------| x A lot
|------------------------|----------------------|
|------------------------|----------------------|
PM . . .   . . .  .   .      .  .  . . . .  . .

Pre-Verse:

e|------------------|---------------|------------------|-------------------|
B|------------------|---------------|------------------|-------------------|
G|------------------|-9-(9)(9)(9)(9)|------------------|-------------------|
D|-6-(6)(6)(6)(6)(6)|-9-(9)(9)(9)(9)|-9-(9)(9)(9)(9)(9)|-4-(4)(4)(4)(4)(4)-|
A|-6-(6)(6)(6)(6)(6)|-7-(7)(7)(7)(7)|-9-(9)(9)(9)(9)(9)|-4-(4)(4)(4)(4)(4)-|
E|-4-(4)(4)(4)(4)(4)|---------------|-7-(7)(7)(7)(7)(7)|-2-(2)(2)(2)(2)(2)-|

e|------------------|---------------|------------------|-------------------|
B|------------------|---------------|------------------|-------------------|
G|------------------|-9-(9)(9)(9)(9)|------------------|-------------------|
D|-6-(6)(6)(6)(6)(6)|-9-(9)(9)(9)(9)|-9-(9)(9)(9)(9)(9)|-4-(4)(4)(4)(4)(4)-|
A|-6-(6)(6)(6)(6)(6)|-7-(7)(7)(7)(7)|-9-(9)(9)(9)(9)(9)|-4-(4)(4)(4)(4)(4)-|
E|-4-(4)(4)(4)(4)(4)|---------------|-7-(7)(7)(7)(7)(7)|-2-(2)(2)(2)(2)(2)-|

e|------------------|---------------|------------------|-------------------|
B|------------------|---------------|------------------|-------------------|
G|------------------|-9-(9)(9)(9)(9)|------------------|-------------------|
D|-6-(6)(6)(6)(6)(6)|-9-(9)(9)(9)(9)|-9-(9)(9)(9)(9)(9)|-4-(4)(4)(4)(4)(4)-|
A|-6-(6)(6)(6)(6)(6)|-7-(7)(7)(7)(7)|-9-(9)(9)(9)(9)(9)|-4-(4)(4)(4)(4)(4)-|
E|-4-(4)(4)(4)(4)(4)|---------------|-7-(7)(7)(7)(7)(7)|-2-(2)(2)(2)(2)(2)-|

e|------------------|---------------|------------------|-------------------|
B|------------------|---------------|------------------|-------------------|
G|------------------|-9-(9)(9)(9)(9)|------------------|-------------------|
D|-6-(6)(6)(6)(6)(6)|-9-(9)(9)(9)(9)|-9-(9)(9)(9)(9)(9)|-4-(4)(4)(4)(4)(4)-|
A|-6-(6)(6)(6)(6)(6)|-7-(7)(7)(7)(7)|-9-(9)(9)(9)(9)(9)|-4-(4)(4)(4)(4)(4)-|
E|-4-(4)(4)(4)(4)(4)|---------------|-7-(7)(7)(7)(7)(7)|-2-(2)(2)(2)(2)(2)-|

Verse:

e|------------------|---------------|------------------|-------------------|
B|------------------|---------------|------------------|-------------------|
G|------------------|-9-(9)(9)(9)(9)|------------------|-------------------|
D|-6-(6)(6)(6)(6)(6)|-9-(9)(9)(9)(9)|-9-(9)(9)(9)(9)(9)|-4-(4)(4)(4)(4)(4)-|
A|-6-(6)(6)(6)(6)(6)|-7-(7)(7)(7)(7)|-9-(9)(9)(9)(9)(9)|-4-(4)(4)(4)(4)(4)-|
E|-4-(4)(4)(4)(4)(4)|---------------|-7-(7)(7)(7)(7)(7)|-2-(2)(2)(2)(2)(2)-|

e|------------------|---------------|------------------|-------------------|
B|------------------|---------------|------------------|-------------------|
G|------------------|-9-(9)(9)(9)(9)|------------------|-------------------|
D|-6-(6)(6)(6)(6)(6)|-9-(9)(9)(9)(9)|-9-(9)(9)(9)(9)(9)|-4-(4)(4)(4)(4)(4)-|
A|-6-(6)(6)(6)(6)(6)|-7-(7)(7)(7)(7)|-9-(9)(9)(9)(9)(9)|-4-(4)(4)(4)(4)(4)-|
E|-4-(4)(4)(4)(4)(4)|---------------|-7-(7)(7)(7)(7)(7)|-2-(2)(2)(2)(2)(2)-|

e|------------------|---------------|------------------|-------------------|
B|------------------|---------------|------------------|-------------------|
G|------------------|-9-(9)(9)(9)(9)|------------------|-------------------|
D|-6-(6)(6)(6)(6)(6)|-9-(9)(9)(9)(9)|-9-(9)(9)(9)(9)(9)|-4-(4)(4)(4)(4)(4)-|
A|-6-(6)(6)(6)(6)(6)|-7-(7)(7)(7)(7)|-9-(9)(9)(9)(9)(9)|-4-(4)(4)(4)(4)(4)-|
E|-4-(4)(4)(4)(4)(4)|---------------|-7-(7)(7)(7)(7)(7)|-2-(2)(2)(2)(2)(2)-|

e|------------------|---------------|------------------|-------------------|
B|------------------|---------------|------------------|-------------------|
G|------------------|-9-(9)(9)(9)(9)|------------------|-------------------|
D|-6-(6)(6)(6)(6)(6)|-9-(9)(9)(9)(9)|-9-(9)(9)(9)(9)(9)|-4-(4)(4)(4)(4)(4)-|
A|-6-(6)(6)(6)(6)(6)|-7-(7)(7)(7)(7)|-9-(9)(9)(9)(9)(9)|-4-(4)(4)(4)(4)(4)-|
E|-4-(4)(4)(4)(4)(4)|---------------|-7-(7)(7)(7)(7)(7)|-2-(2)(2)(2)(2)(2)-|

Chorus:

E|--19-----19-|
B|------19----|
G|------------|
D|------------| Play 4 times
A|------------|
E|------------|

Post Chorus:

e|------------------|---------------|------------------|-------------------|
B|------------------|---------------|------------------|-------------------|
G|------------------|-9-(9)(9)(9)(9)|------------------|-------------------|
D|-6-(6)(6)(6)(6)(6)|-9-(9)(9)(9)(9)|-9-(9)(9)(9)(9)(9)|-4-(4)(4)(4)(4)(4)-|
A|-6-(6)(6)(6)(6)(6)|-7-(7)(7)(7)(7)|-9-(9)(9)(9)(9)(9)|-4-(4)(4)(4)(4)(4)-|
E|-4-(4)(4)(4)(4)(4)|---------------|-7-(7)(7)(7)(7)(7)|-2-(2)(2)(2)(2)(2)-|

e|------------------|---------------|------------------|-------------------|
B|------------------|---------------|------------------|-------------------|
G|------------------|-9-(9)(9)(9)(9)|------------------|-------------------|
D|-6-(6)(6)(6)(6)(6)|-9-(9)(9)(9)(9)|-9-(9)(9)(9)(9)(9)|-4-(4)(4)(4)(4)(4)-|
A|-6-(6)(6)(6)(6)(6)|-7-(7)(7)(7)(7)|-9-(9)(9)(9)(9)(9)|-4-(4)(4)(4)(4)(4)-|
E|-4-(4)(4)(4)(4)(4)|---------------|-7-(7)(7)(7)(7)(7)|-2-(2)(2)(2)(2)(2)-|

Verse:

e|------------------|---------------|------------------|-------------------|
B|------------------|---------------|------------------|-------------------|
G|------------------|-9-(9)(9)(9)(9)|------------------|-------------------|
D|-6-(6)(6)(6)(6)(6)|-9-(9)(9)(9)(9)|-9-(9)(9)(9)(9)(9)|-4-(4)(4)(4)(4)(4)-|
A|-6-(6)(6)(6)(6)(6)|-7-(7)(7)(7)(7)|-9-(9)(9)(9)(9)(9)|-4-(4)(4)(4)(4)(4)-|
E|-4-(4)(4)(4)(4)(4)|---------------|-7-(7)(7)(7)(7)(7)|-2-(2)(2)(2)(2)(2)-|

e|------------------|---------------|------------------|-------------------|
B|------------------|---------------|------------------|-------------------|
G|------------------|-9-(9)(9)(9)(9)|------------------|-------------------|
D|-6-(6)(6)(6)(6)(6)|-9-(9)(9)(9)(9)|-9-(9)(9)(9)(9)(9)|-4-(4)(4)(4)(4)(4)-|
A|-6-(6)(6)(6)(6)(6)|-7-(7)(7)(7)(7)|-9-(9)(9)(9)(9)(9)|-4-(4)(4)(4)(4)(4)-|
E|-4-(4)(4)(4)(4)(4)|---------------|-7-(7)(7)(7)(7)(7)|-2-(2)(2)(2)(2)(2)-|

e|------------------|---------------|------------------|-------------------|
B|------------------|---------------|------------------|-------------------|
G|------------------|-9-(9)(9)(9)(9)|------------------|-------------------|
D|-6-(6)(6)(6)(6)(6)|-9-(9)(9)(9)(9)|-9-(9)(9)(9)(9)(9)|-4-(4)(4)(4)(4)(4)-|
A|-6-(6)(6)(6)(6)(6)|-7-(7)(7)(7)(7)|-9-(9)(9)(9)(9)(9)|-4-(4)(4)(4)(4)(4)-|
E|-4-(4)(4)(4)(4)(4)|---------------|-7-(7)(7)(7)(7)(7)|-2-(2)(2)(2)(2)(2)-|

e|------------------|---------------|------------------|-------------------|
B|------------------|---------------|------------------|-------------------|
G|------------------|-9-(9)(9)(9)(9)|------------------|-------------------|
D|-6-(6)(6)(6)(6)(6)|-9-(9)(9)(9)(9)|-9-(9)(9)(9)(9)(9)|-4-(4)(4)(4)(4)(4)-|
A|-6-(6)(6)(6)(6)(6)|-7-(7)(7)(7)(7)|-9-(9)(9)(9)(9)(9)|-4-(4)(4)(4)(4)(4)-|
E|-4-(4)(4)(4)(4)(4)|---------------|-7-(7)(7)(7)(7)(7)|-2-(2)(2)(2)(2)(2)-|

Chorus:

E|--19-----19-|
B|------19----|
G|------------| Play 12 times
D|------------|
A|------------|
E|------------|

Bridge:

E|-------------------------|
B|-------------------------|
G|-------------------------|
D|-------------------------|
A|-------------------------|
E|-------------------------|


Final Chorus:
e|------------------|---------------|------------------|-------------------|
B|------------------|---------------|------------------|-------------------|
G|------------------|---------------|------------------|-------------------|
D|-9-(9)(9)(9)(9)(9)|-8-(8)(8)(8)(8)|-6-(6)(6)(6)(6)(6)|-8-(8)(8)(8)(8)(8)-|
A|-9-(9)(9)(9)(9)(9)|-9-(9)(9)(9)(9)|-6-(6)(6)(6)(6)(6)|-9-(9)(9)(9)(9)(9)-|
E|-7-(7)(7)(7)(7)(7)|-6-(6)(6)(6)(6)|-4-(4)(4)(4)(4)(4)|-6-(6)(6)(6)(6)(6)-|

e|------------------|---------------|------------------|-------------------|
B|------------------|---------------|------------------|-------------------|
G|------------------|---------------|------------------|-------------------|
D|-9-(9)(9)(9)(9)(9)|-8-(8)(8)(8)(8)|-6-(6)(6)(6)(6)(6)|-8-(8)(8)(8)(8)(8)-|
A|-9-(9)(9)(9)(9)(9)|-9-(9)(9)(9)(9)|-6-(6)(6)(6)(6)(6)|-9-(9)(9)(9)(9)(9)-|
E|-7-(7)(7)(7)(7)(7)|-6-(6)(6)(6)(6)|-4-(4)(4)(4)(4)(4)|-6-(6)(6)(6)(6)(6)-|

e|------------------|---------------|------------------|-------------------|
B|------------------|---------------|------------------|-------------------|
G|------------------|---------------|------------------|-------------------|
D|-9-(9)(9)(9)(9)(9)|-8-(8)(8)(8)(8)|-6-(6)(6)(6)(6)(6)|-8-(8)(8)(8)(8)(8)-|
A|-9-(9)(9)(9)(9)(9)|-9-(9)(9)(9)(9)|-6-(6)(6)(6)(6)(6)|-9-(9)(9)(9)(9)(9)-|
E|-7-(7)(7)(7)(7)(7)|-6-(6)(6)(6)(6)|-4-(4)(4)(4)(4)(4)|-6-(6)(6)(6)(6)(6)-|

e|------------------|---------------|------------------|-------------------|
B|------------------|---------------|------------------|-------------------|
G|------------------|---------------|------------------|-------------------|
D|-9-(9)(9)(9)(9)(9)|-8-(8)(8)(8)(8)|-6-(6)(6)(6)(6)(6)|-8-(8)(8)(8)(8)(8)-|
A|-9-(9)(9)(9)(9)(9)|-9-(9)(9)(9)(9)|-6-(6)(6)(6)(6)(6)|-9-(9)(9)(9)(9)(9)-|
E|-7-(7)(7)(7)(7)(7)|-6-(6)(6)(6)(6)|-4-(4)(4)(4)(4)(4)|-6-(6)(6)(6)(6)(6)-|

End On:

E|-----|
B|-----|
G|-----|
D|--9--|
A|--9--|
E|--7--|


Outro:

|------------------------|----------------------|
|------------------------|----------------------|
|-------8---------9---8--|---------8--------9-8-|
|--9-9-----9-8-8---------|---9--9----9-8-8------| x A lot
|------------------------|----------------------|
|------------------------|----------------------|
PM . . .   . . .  .   .      .  .  . . . .  . .

5.A Little's Enough
------------------------------------------------------------------------------------------------------
Intro Riff " When All Is Said and Done..."
e|--------------------------|--------------------------------|
b|----9-10-----(9)-(10)-----|---9-10----(9)-(10)----(9)-(10)-|
g|--9-------(9)-------------|-9------(9)---------(9)---------|
d|--------------------------|--------------------------------|
a|--------------------------|--------------------------------|
E|--------------------------|--------------------------------|

e|-------------------------------------|---------------------|
b|----10-12-----(10)-(12)----(10)-(12)-|---9-10----(9)-(10)--|
g|--9--------(9)----------(9)----------|-9------(9)----------|
d|-------------------------------------|---------------------|
a|-------------------------------------|---------------------|
E|-------------------------------------|---------------------|

e|----------------------|------------------------------------|
b|----9-10-----(9)-(10)-|---10-12-----(10)-(12)----9-10------|
g|--9-------(9)---------|-9--------(9)-----------9-----------|
d|----------------------|------------------------------------|
a|----------------------|------------------------------------|
E|----------------------|------------------------------------|


Riff 2 All Notes Ring Out "I, I Can Do Anything..."
e|--------------------------|------------------------|
b|--------------------------|------------------------|
g|------2----2------2-----2-|-----2-----2----2-----2-|
d|--------------------------|------------------------|
a|--------------------------|------------------------|
E|--2-2---2-2---2-2---2-2---|-0-0---0-0---0-0---0-0--|
                                                     |x2
e|--------------------------|------------------------|
b|--------------------------|------------------------|
g|--------------------------|------------------------|
d|--4-4---------------4-4---|-2-2---------------2-2--|
a|--x-x---------------x-x---|-x-x---------------x-x--|
E|--2-2---------------2-2---|-0-0---------------0-0--|


e|--------------------------|------------------------|
b|--------------------------|------------------------|
g|------2----2------2-----2-|-----2-----2----2-----2-|
d|--------------------------|------------------------|
a|--4-4---4-4---4-4---4-4---|-2-2---2-2---2-2---2-2--|
E|--------------------------|------------------------|
                                                     |x2
e|--------------------------|------------------------|
b|--------------------------|------------------------|
g|--------------------------|------------------------|
d|-11-11-------------11-11--|-9-9----------------9-9-|
a|-x--x---------------x-x---|-x-x----------------x-x-|
E|-9--9---------------9-9---|-7-7----------------7-7-|



Guitar Break
e|--------------|-----------|------------|-------------|
b|--------------|-----------|------------|-------------|
g|--------------|-----------|------------|-------------|
d|--------------|-----------|------2-----|-------------|
a|-0--0--0--0---|0--0--2--2-|--0-0----0--|-0--0--2--2--|
E|--5--5--5--5--|-4--4--4--4|-2---2--2--2|--4--4--4--4-|
   xx xx xx xx   xx xx xx xx               xx xx xx xx 

e|--------------|-----------|------------|-------------|
b|--------------|-----------|------------|-------------|
g|--------------|-----------|------------|-------------|
d|---------2----|-----------|------2-----|-------------|
a|---0-0-----0--|0--0--2--2-|--0-0----0--|-0--0---2----|
E|-5-----5--5-5-|-4--4--4--4|-2---2--2--2|--2--4--4----|
                 xx xx xx xx               xx xx xx

Verse " Green Trees Were The First Sign..."
e|--------------------------|------------------------|
b|--------------------------|------------------------|
g|------2----2------2-----2-|-----2-----2----2-----2-|
d|--------------------------|------------------------|
a|--------------------------|-0-0---0-0---0-0--0-0---|
E|--2-2---2-2---2-2---2-2---|------------------------|
                                                      x2
e|--------------------------|------------------------|
b|--------------------------|------------------------|
g|------2----2-------2----2-|-----2-----2----2-----2-|
d|--------------------------|------------------------|
a|--------------------------|-0-0---0-0---0-0--0-0---|
E|--0-0---0-0---0-0---0-0---|------------------------|


Riff 2 "I, I Can Do Anything..."
e|--------------------------|------------------------|
b|--------------------------|------------------------|
g|------2----2------2-----2-|-----2-----2----2-----2-|
d|--------------------------|------------------------|
a|--------------------------|------------------------|
E|--2-2---2-2---2-2---2-2---|-0-0---0-0---0-0---0-0--|
                                                     |x2
e|--------------------------|------------------------|
b|--------------------------|------------------------|
g|--------------------------|------------------------|
d|--4-4---------------4-4---|-2-2---------------2-2--|
a|--x-x---------------x-x---|-x-x---------------x-x--|
E|--2-2---------------2-2---|-0-0---------------0-0--|


e|--------------------------|------------------------|
b|--------------------------|------------------------|
g|------2----2------2-----2-|-----2-----2----2-----2-|
d|--------------------------|------------------------|
a|--4-4---4-4---4-4---4-4---|-2-2---2-2---2-2---2-2--|
E|--------------------------|------------------------|
                                                     |x2
e|--------------------------|------------------------|
b|--------------------------|------------------------|
g|--------------------------|------------------------|
d|-11-11-------------11-11--|-9-9----------------9-9-|
a|-x--x---------------x-x---|-x-x----------------x-x-|
E|-9--9---------------9-9---|-7-7----------------7-7-|

Chorus "I'm Sorry I Have To Say It..."
e|-------------|-------------|-------------|--------|----------|
b|-------------|-------------|-------------|--------|----------|
g|-------------|-------------|-------------|--------|----------|
d|-7-7--7--7-7-|-7-7--7--7-7-|-4-4--4--4-4-|-2-2--2-|-12-12--12|x2
a|-x-x--x--x-x-|-x-x--x--x-x-|-x-x--x--x-x-|-x-x--x-|-x--x---x-|
E|-5-5--5--5-5-|-4-4--4--4-4-|-2-2--2--2-2-|-0-0--0-|-10-10--10|

e|---|
b|---|
g|---|
d|-7-|Let Ring
a|-x-|
E|-5-|

Both Guitars Clean W/ Delay
e|--5---7----9-----4---|
b|-----5--5-----5----5-|
g|---------------------|
d|---------------------|
a|---------------------|
E|---------------------|
		       |	
e|---------------------|
b|---------------------|
g|--9-x-x-x-7--6-6-x-x-|
d|---------------------|
a|---------------------|
E|---------------------|

Outro "Just a Little, Just A Little.."
e|-5-----------|-5-----------|-5-----------|-7----9-|---4------|
b|---5--(5)--5-|---5-(5)-----|---5-(5)-----|---5----|-5--------|
g|-------------|-------------|-------------|--------|----------|
d|-------------|-------------|-------------|--------|----------|
a|-------------|-------------|-------------|--------|----------|
E|-------------|-------------|-------------|--------|----------|

e|-------------|-------------|-------------|--------|----------|
b|-------------|-------------|-------------|--------|----------|
g|-------------|-------------|-------------|--------|----------|
d|-7-7--7--7-7-|-7-7--7--7-7-|-4-4--4--4-4-|-2-2--2-|-12-12--12|x2
a|-x-x--x--x-x-|-x-x--x--x-x-|-x-x--x--x-x-|-x-x--x-|-x--x---x-|
E|-5-5--5--5-5-|-4-4--4--4-4-|-2-2--2--2-2-|-0-0--0-|-10-10--10|

6.The War
--------------------------------------------------------------------------------------------------
Intro (0:01 - 0:31)
 E|---------------------------------------------------|
 B|---------------------------------------------------|
 G|---------------------------------------------------|
 D|-------7--------5------4------4----4---------------|
 A|5-5-5------5-5-----5-5----5-5----5---5-------------| X2
 D|---------------------------------------------------|
   - - -      - -     - -    - -    -   -

 E|---------------------------------------------------|
 B|---------------------------------------------------|
 G|---------------------------------------------------|
 D|-------5--------4------4------4-----4--------------|
 A|0-0-0------0-0----0-0----0-0----0-0----------------|
 D|---------------------------------------------------| x1
   - - -      - -     - -    - -   - -


 E|---------------------------------------------------|
 B|---------------------------------------------------|
 G|---------------------------------------------------|
 D|-------7--------5------4------4-----4--------------|
 A|0-0-0------0-0----0-0----0-0----0-0----------------|
 D|---------------------------------------------------| x1 (whole intro x3)
   - - -      - -     - -    - -   - -

(0:31 - 0:51)
 E|---------------------------------------------------|
 B|---------------------------------------------------|
 G|---------------------------------------------------|
 D|---------------------------------------------------|
 A|-0-0--0-0--0-0--0-0--7--0-0--0-0--0-0--0-0---------|
 D|-0-0--0-0--0-0--0-0--7--0-0--0-0--0-0--0-0---------|


 E|-----------------------------------------------------|
 B|-----------------------------------------------------|
 G|-----------------------------------------------------|
 D|-----------------------------------------------------|
 A|-7---9-9--9-9--9-9--9-9--5--0-0--0-0--7-7--7-7---5---|
 D|-7---9-9--9-9--9-9--9-9--5--0-0--0-0--7-7--7-7---5---| x2

Verse (0:51 - 1:11)
 E|-----------------------------------------------------|
 B|-----------------------------------------------------|
 G|-----------------------------------------------------|
 D|-----------------------------------------------------|
 A|-0-(ring)--------------------------------------------|
 D|-0---------------------------------------------------|

Verse
 E|--------------------------------------------------------------------------------------------------|
 B|--------------------------------------------------------------------------------------------------|
 G|-7-7-7-7-7-7-7-7---11-11-11-11-11-11-11-11---12-12-12-12-12-12-12-12-12-12-12-12-12-12-12-12-12---|
 D|-x-x-x-x-x-x-x-x---x--x--x--x--x--x--x--x----x--x--x--x--x--x--x--x--x--x--x--x--x--x--x--x--x----|
 A|-5-5-5-5-5-5-5-5---9--9--9--9--9--9--9--9----10-10-10-10-10-10-10-10-10-10-10-10-10-10-10-10-10---|
 
x2

Pre Verse
Up and down stroking (1:11 - 1:31)

 E|------------------------------------------------------------------------------------------------|
 B|------------------------------------------------------------------------------------------------|
 G|------------------------------------------------------------------------------------------------|
 D|-0-0-0-0--0-0-0-0--0-0--0-0-0-0--0-0-0-0--0-0--0-0-0-0--0-0-0-0--0-0--0-0-0-0--0-0-0-0--0-0-----|
 A|-5-5-5-5--5-5-5-5--5-5--0-0-0-0--0-0-0-0--0-0--2-2-2-2--2-2-2-2--2-2--0-0-0-0--0-0-0-0--0-0-----| x2
 D|------------------------------------------------------------------------------------------------|

Chorus (1:32 - 1:51)
 E|---------------------------------------------------|
 B|---------------------------------------------------|
 G|-7--------7-7-7-7-7-7-7-7--5-5-5-5-5-5-5-5---------|
 D|-x--------7-7-7-7-7-7-7-7--5-5-5-5-5-5-5-5---------|
 A|-5--x16---7-7-7-7-7-7-7-7--5-5-5-5-5-5-5-5---------| x2
 D|----------7-7-7-7-7-7-7-7--5-5-5-5-5-5-5-5---------|

 (1:52 - 2:02)
 E|---------------------------------------------------|
 B|---------------------------------------------------|
 G|---------------------------------------------------|
 D|---------------------------------------------------|
 A|-0-0--0-0--0-0--0-0--7--0-0--0-0--0-0--0-0---------|
 D|-0-0--0-0--0-0--0-0--7--0-0--0-0--0-0--0-0---------|

E|----------------------------------------------------|
 B|---------------------------------------------------|
 G|---------------------------------------------------|
 D|---------------------------------------------------|
 A|-7---9-9--9-9--9-9--9-9--5--0-0--0-0--7-7--7-7---5-|
 D|-7---9-9--9-9--9-9--9-9--5--0-0--0-0--7-7--7-7---5-|

Verse (2:02 - 2:22)
 E|-----------------------------------------------------|
 B|-----------------------------------------------------|
 G|-----------------------------------------------------|
 D|-----------------------------------------------------|
 A|-0-(ring)--------------------------------------------|
 D|-0---------------------------------------------------|

Verse
 E|--------------------------------------------------------------------------------------------------|
 B|--------------------------------------------------------------------------------------------------|
 G|-7-7-7-7-7-7-7-7---11-11-11-11-11-11-11-11---12-12-12-12-12-12-12-12-12-12-12-12-12-12-12-12-12---|
 D|-x-x-x-x-x-x-x-x---x--x--x--x--x--x--x--x----x--x--x--x--x--x--x--x--x--x--x--x--x--x--x--x--x----|
 A|-5-5-5-5-5-5-5-5---9--9--9--9--9--9--9--9----10-10-10-10-10-10-10-10-10-10-10-10-10-10-10-10-10---|
 
x2

Pre Verse
Up and down stroking (2:22 - 2:42)

 E|------------------------------------------------------------------------------------------------|
 B|------------------------------------------------------------------------------------------------|
 G|------------------------------------------------------------------------------------------------|
 D|-0-0-0-0--0-0-0-0--0-0--0-0-0-0--0-0-0-0--0-0--0-0-0-0--0-0-0-0--0-0--0-0-0-0--0-0-0-0--0-0-----|
 A|-5-5-5-5--5-5-5-5--5-5--0-0-0-0--0-0-0-0--0-0--2-2-2-2--2-2-2-2--2-2--0-0-0-0--0-0-0-0--0-0-----| x2
 D|------------------------------------------------------------------------------------------------|

Chorus (2:43 - 3:02)
 E|---------------------------------------------------|
 B|---------------------------------------------------|
 G|-7--------7-7-7-7-7-7-7-7--5-5-5-5-5-5-5-5---------|
 D|-x--------7-7-7-7-7-7-7-7--5-5-5-5-5-5-5-5---------|
 A|-5--x16---7-7-7-7-7-7-7-7--5-5-5-5-5-5-5-5---------| x2
 D|----------7-7-7-7-7-7-7-7--5-5-5-5-5-5-5-5---------|


(Oh oh oh oh, oh oh oh, oh oh)

Come in 3:13

 E|------------------------------------------------------------------------------------------------|
 B|------------------------------------------------------------------------------------------------|
 G|------------------------------------------------------------------------------------------------|
 D|-0-0-0-0--0-0-0-0--0-0--0-0-0-0--0-0-0-0--0-0--0-0-0-0--0-0-0-0--0-0--0-0-0-0--0-0-0-0--0-0-----|
 A|-5-5-5-5--5-5-5-5--5-5--0-0-0-0--0-0-0-0--0-0--2-2-2-2--2-2-2-2--2-2--0-0-0-0--0-0-0-0--0-0-----|
 D|------------------------------------------------------------------------------------------------| x1

 E|------------------------------------------------------------------------------------------------|
 B|------------------------------------------------------------------------------------------------|
 G|------------------------------------------------------------------------------------------------|
 D|-0-0-0-0--0-0-0-0--0-0--0-0-0-0--0-0-0-0--0-0--0-0-0-0--0-0-0-0--0-0--0-0-0-0--0-0-0-0--0-0-----|
 A|-5-5-5-5--5-5-5-5--5-5--0-0-0-0--0-0-0-0--0-0--5-5-5-5--5-5-5-5--5-5--0-0-0-0--0-0-0-0--0-0-----|
 D|------------------------------------------------------------------------------------------------| x1

 E|--------------------------------------------------------------|
 B|--------------------------------------------------------------|
 G|--------------------------------------------------------------|
 D|-0-0-0-0--0-0-0-0--0-0--0-0-0-0--0-0-0-0--0-0-----------------|
 A|-2-2-2-2--2-2-2-2--2-2--0-0-0-0--0-0-0-0--0-0-----------------|
 D|--------------------------------------------------------------| x2

Chorus (3:43 - 4:23)
 E|---------------------------------------------------|
 B|---------------------------------------------------|
 G|-7--------7-7-7-7-7-7-7-7--5-5-5-5-5-5-5-5---------|
 D|-x--------7-7-7-7-7-7-7-7--5-5-5-5-5-5-5-5---------|
 A|-5--x16---7-7-7-7-7-7-7-7--5-5-5-5-5-5-5-5---------| x3
 D|----------7-7-7-7-7-7-7-7--5-5-5-5-5-5-5-5---------|

 (4:24 - 4:44)
 E|---------------------------------------------------|
 B|---------------------------------------------------|
 G|---------------------------------------------------|
 D|---------------------------------------------------|
 A|-0-0--0-0--0-0--0-0--7--0-0--0-0--0-0--0-0---------|
 D|-0-0--0-0--0-0--0-0--7--0-0--0-0--0-0--0-0---------|

 E|-----------------------------------------------------|
 B|-----------------------------------------------------|
 G|-----------------------------------------------------|
 D|-----------------------------------------------------|
 A|-7---9-9--9-9--9-9--9-9--5--0-0--0-0--7-7--7-7---5---|
 D|-7---9-9--9-9--9-9--9-9--5--0-0--0-0--7-7--7-7---5---| x2

 E|-----------------------------------------------------|
 B|-----------------------------------------------------|
 G|-----------------------------------------------------|
 D|-----------------------------------------------------|
 A|-0-(ring)--------------------------------------------|
 D|-0---------------------------------------------------|

7.The Gift
------------------------------------------------------------------------------------------------
Intro
E----------------------------------------------------------------------------|
B----------------------------------------------------------------------------|
G--11**/*---13*---------9*------8**------------------------------------------|
D----------------------------------------9**---------------------------------|
A----------------------------------------------------------------------------|
E----------------------------------------------------------------------------|
E
Pre Chorus: "Thats all I need"
E----------------------------------------------------------------------------|
B----------------------------------------------------------------------------|
G----------------------------------------------------------------------------|
D----------------------------------------------------------------------------|
A----6-6-7-7-7---------------2-2-4-4-4---------------------------------------|
E----------------------------------------------------------------------------|

Chorus: "And Now....Ill Stop the storm..."
E----------------------------------------------------------------------------|
B----------------------------------------------------------------------------|
G----------------------------------------------------------------------------|
D----------------------------------------------------------------------------|
A-------9*/*---11*--------7*-----9*------------------------------------------|
E----------------------------------------------------------------------------|

Interlude: "Oh OH..Oh Oh..Oh Oh..Yaoh"
E----------------------------------------------------------------------------|
B----------------------------------------------------------------------------|
G----------------------------------------------------------------------------|
D----------------------------------------------------------------------------|
A----6-6-7-7-7---------------2-2-4-4-4---------------------------------------|
E----------------------------------------------------------------------------|

Order:
Intro X12
Pre Chorus X4
Chorus X4
Intro X10
Pre Chorus X4
Chorus X8
Interlude X4
Chorus X8
Intro is the Outro till the end of the song.

8.It Hurts
------------------------------------------------------------------------------------------------
key /\ = dont pluck next string , add finger for next 
note while first note is already played

INTRO

Guitar 1 

e|9--9--9--9----|9--9--9--9----|9--9--9--9----|9--9--9--9----|
B|-10-10-10-10--|-10-10-10-10--|-10-10-10-10--|-10-10-10-10--|*
G|--------------|--------------|--------------|--------------| *
D|--------------|--------------|--------------|--------------|  *
A|--------------|--------------|--------------|--------------|   *   
E|--------------|--------------|--------------|--------------|    *
Guitar 2 (on the off beat) (slide to the next note)                                        
                                                                    x2
e|--------------|--------------|--------------|--------------|      *
B|--------------|--------------|--------------|--------------|     *
G|--6--6--6--6--|--7--7--7--7--|--9--9--9--9--|--7--7--7--7--|    *
D|--------------|--------------|--------------|--------------|   *
A|--------------|--------------|--------------|--------------|  *
E|--------------|--------------|--------------|--------------| *


((2nd intro part))
Guitar 1 
e|---5--5--------|---------------|---5---5--------|--------------|
B|---------6---6-|---5--5---5--5-|----------6---6-|--5--5---5--5-|*
G|6---6--7---7---|6---6---4---4--|6---6---7---7---|6--6---4---4--| *
D|---------------|---------------|----------------|--------------|  *
A|---------------|---------------|----------------|--------------|   *
E|---------------|---------------|----------------|--------------|    *
-
Guitar 2 (watch out this is complicated :D )                           X2
e|--------------|---------------|---------------|----------------|    *
B|--------------|---------------|---------------|----------------|   *
G|22------------|---------------|---------------|----------------|  *
D|xx------------|---------------|---------------|----------------| *
A|00-0-0-0-0-0-0|0-0-0-0-0-0-0-0|0-0-0-0-0-0-0-0|0-0-0-0-0-0-0-0-|*
E|--------------|---------------|---------------|----------------|

Guitar 2 (again) 
  1 + 2 + 3 + 4 +                                 
e|---------------|--------------|---------------|----------------|
B|---------------|--------------|---------------|----------------|
G|2-----2-----2-2|--------------|---------------|----------------|
D|x-----x-----x-x|--------------|---------------|----------------|
A|0-----0-----0-0|--------------|---------------|----------------|
E|---------------|--------------|---------------|----------------|

Guitar 2 (pre-verse)
e|---------------|---------------|---------------|---------------|
B|---------------|---------------|---------------|---------------|
G|2---2-2-2-2-2-2|4---4-4-4-4-4-4|---------------|7---7-7-7-7-7-7|
D|x---x-x-x-x-x-x|4---4-4-4-4-4-4|4---4-4-4-4-4-4|7---7-7-7-7-7-7| (2x)
A|0---0-0-0-0-0-0|2---2-2-2-2-2-2|4---4-4-4-4-4-4|5---5-5-5-5-5-5|
E|---------------|---------------|2---2-2-2-2-2-2|---------------|
    
Guitar 1     (riff 1)     /\   /\                          /\ /\
e|9-9------------|---------------|9-9------------|---------------|
B|----10----12---|-------10121012|----10----12---|-------10121012|
G|-------9-------|---------------|-------9-------|---------------|
D|---------------|---------------|---------------|---------------|
A|---------------|---------------|---------------|---------------|
E|---------------|---------------|---------------|---------------|
                          
e|9-9------------|---------------|--------------|----------------|
B|----10----12---|---------14----|------------12|----------14----|
G|-------9-------|-------------14|---------9----|--------------14|
D|---------------|---------------|--------------|----------------|
A|---------------|---------------|--------------|----------------|
E|---------------|---------------|--------------|----------------|
          
(play while riff 1 on guitar 1 is playing)
Guitar 2 (emphasis the note of the first beat)(play while guitar 1 is playing)
e|---------------|---------------|---------------|----------------|
B|---------------|---------------|---------------|----------------|
G|---------------|---------------|6-6-6-6-6-6-6-6|----------------|
D|7-7-7-7-7-7-7-7|6-6-6-6-6-6-6-6|---------------|9-9-9-9-9-9-9-9-|  2x
A|---------------|---------------|---------------|----------------|
E|---------------|---------------|---------------|----------------|

 verse- "is this what u want.."

e|---------------|---------------|---------------|----------------|
B|---------------|---------------|---------------|----------------|
G|---------------|---------------|6-6-6-6-6-6-6-6|----------------|
D|7-7-7-7-7-7-7-7|6-6-6-6-6-6-6-6|---------------|9-9-9-9-9-9-9-9-|  4x
A|---------------|---------------|---------------|----------------|
E|---------------|---------------|---------------|----------------|

Chorus- Guitar 1 

e|9-------9------|10------10-----|12-------12----|7---------7----|
B|---10------10--|---10------10--|---10------10--|---9--------9--|
G|---------------|---------------|---------------|---------------|
D|---------------|---------------|---------------|---------------|
A|---------------|---------------|---------------|---------------|  
E|---------------|---------------|---------------|---------------|


e|9-------9------|10------10-----|12-------12----|7---------7----|
B|---10------10--|---10------10--|---10------10--|---9--------9--|
G|---------------|---------------|---------------|---------------|
D|---------------|---------------|---------------|---------------|
A|---------------|---------------|---------------|---------------|
E|---------------|---------------|---------------|---------------|

guitar 2
e|---------------|---------------|---------------|---------------|
B|---------------|---------------|---------------|---------------|
G|2-2-2-2-2-2-2-2|7-7-7-7-7-7-7-7|2-2-2-2-2-2-2-2|9-9-9-9-9-9-9-9|
D|2-2-2-2-2-2-2-2|7-7-7-7-7-7-7-7|2-2-2-2-2-2-2-2|9-9-9-9-9-9-9-9|
A|0-0-0-0-0-0-0-0|5-5-5-5-5-5-5-5|0-0-0-0-0-0-0-0|7-7-7-7-7-7-7-7|
E|---------------|---------------|---------------|---------------|

e|---------------|-----------------|-----------------|-----------------|
B|---------------|-----------------|-----------------|-----------------|
G|---------------|7-7-7-7-7-7-7-7-7|-----------------|9-9-9-9-9-9-9-9-9|
D|4-4-4-4-4-4-4-4|7-7-7-7-7-7-7-7-7|7-7-7-7-7-7-7-7-7|9-9-9-9-9-9-9-9-9|
A|4-4-4-4-4-4-4-4|5-5-5-5-5-5-5-5-5|7-7-7-7-7-7-7-7-7|7-7-7-7-7-7-7-7-7|
E|2-2-2-2-2-2-2-2|-----------------|5-5-5-5-5-5-5-5-5|-----------------|

(pre-verse 2 x)
(verse 4 x)
(*chorus)
(interlude-- same thing as ((2nd intro part)) (both guitar 1 and 2) 4x

solo part ending
GUITAR 1

e|------------------------------------------------|
B|------------------------------------------------|
G|-22-(feedback)-----2-2b~----2/14/2--------------|
D|-xx-------------------------------(pickslide)---|
A|-00-----------2-0-------------------------------|
E|------------------------------------------------|
Guitar 2

e|9--9--9--9----|9--9--9--9----|9--9--9--9----|9--9--9--9----|
B|-10-10-10-10--|-10-10-10-10--|-10-10-10-10--|-10-10-10-10--|
G|--------------|--------------|--------------|--------------|
D|--------------|--------------|--------------|--------------|
A|--------------|--------------|--------------|--------------|
E|--------------|--------------|--------------|--------------|

e|9--9--9--9----|9--9--9--9----|9--9--9--9----|9--9--9--9----|
B|-10-10-10-10--|-10-10-10-10--|-10-10-10-10--|-10-10-10-10--|
G|--------------|--------------|--------------|--------------|
D|--------------|--------------|--------------|--------------|
A|--------------|--------------|--------------|--------------|
E|--------------|--------------|--------------|--------------|

(if cant do solo or playing acoustic can substitute guitar 1 with the bass part here
(can make it a power chord for more filler)
e|---------------|---------------|---------------|---------------|
B|---------------|---------------|---------------|---------------|
G|---------------|---------------|---------------|---------------|
D|4-4-4-4-4-4-4-4|4-4-4-4-4-4-4-4|2-2-2-2-2-2-2-2|2-2-2-2-2-2-2-2|
A|4-4-4-4-4-4-4-4|4-4-4-4-4-4-4-4|2-2-2-2-2-2-2-2|2-2-2-2-2-2-2-2|
E|2-2-2-2-2-2-2-2|2-2-2-2-2-2-2-2|0-0-0-0-0-0-0-0|0-0-0-0-0-0-0-0|

e|---------------|---------------|---------------|---------------|
B|---------------|---------------|---------------|---------------|
G|2-2-2-2-2-2-2-2|2-2-2-2-2-2-2-2|9-9-9-9-9-9-9-9|7-7-7-7-7-7-7-7|
D|2-2-2-2-2-2-2-2|2-2-2-2-2-2-2-2|9-9-9-9-9-9-9-9|7-7-7-7-7-7-7-7|
A|0-0-0-0-0-0-0-0|0-0-0-0-0-0-0-0|7-7-7-7-7-7-7-7|5-5-5-5-5-5-5-5|
E|---------------|---------------|---------------|---------------|

chorus-- alittle different--

Guitar 1- (*same thing as before )

guitar 2
e|---------------|---------------|---------------|---------------|
B|---------------|---------------|---------------|---------------|
G|2-2-2-2-2-2-2-2|7-7-7-7-7-7-7-7|9-9-9-9-9-9-9-9|9-9-9-9-9-9-9-9|
D|2-2-2-2-2-2-2-2|7-7-7-7-7-7-7-7|9-9-9-9-9-9-9-9|9-9-9-9-9-9-9-9|
A|0-0-0-0-0-0-0-0|5-5-5-5-5-5-5-5|7-7-7-7-7-7-7-7|7-7-7-7-7-7-7-7|
E|---------------|---------------|---------------|---------------|

e|----------------|-----------------|-----------------|-----------------|
B|----------------|-----------------|-----------------|-----------------|
G|1111111111111111|7-7-7-7-7-7-7-7-7|-----------------|9-9-9-9-9-9-9-9-9|
D|1111111111111111|7-7-7-7-7-7-7-7-7|7-7-7-7-7-7-7-7-7|9-9-9-9-9-9-9-9-9|
A|9-9-9-9-9-9-9-9-|5-5-5-5-5-5-5-5-5|7-7-7-7-7-7-7-7-7|7-7-7-7-7-7-7-7-7|
E|----------------|-----------------|5-5-5-5-5-5-5-5-5|-----------------|

(pre-verse)(guitar 2) 4x --let last note ring out-- 
(riff 1)- (guitar 1) 


9.Good Day
-------------------------------------------------------------------------------------------------
Played on little kid piano, but on guitar it's:
e--7---9--11/7----|
B-7---7-----------|
G-----------------|
D-----------------|  for the intro, verse 1, and verse 2
A-----------------|
E-----------------|

Verse 1
pm all

e------------------------------------------------------------|
B------------------------------------------------------------|
G-9-9-9-9-9-9-9-9-9--9--9--9--9--9--9--9--9--9--9--9--9--9---|
D-9-9-9-9-9-9-9-9-11-11-11-11-11-11-11-11-13-11-11-11-11-11--|
A------------------------------------------------------------|
E------------------------------------------------------------|

Pre-Chorus:
Guitar 1
e-----------------------------------------|
B-----------------------------------------|
G-4-4-4-4-4-----3-3-3-3-3-----------------|
D-4-4-4-4-4-----4-4-4-4-4-----------------|
A-2-2-2-2-2-----1-1-1-1-1-----------------|
E-----------------------------------------|

Guitar 2
e---------------------------------------|
B-4-4-4-4-4-4--2-2-2-2-2--2/4-----------|
G-4-4-4-4-4----3-3-3-3-3----------------|
D---------------------------------------|
A-2-2-2-2-2----1-1-1-1-1----------------|
E---------------------------------------|

Chorus:
e------------------------|
B------------------------|
G-4-3-4-3-4-3-4----------|
D-4-4-4-4-4-4-4----------|
A-2-1-2-1-2-1-2----------|
E------------------------|


Verse 2:
pm all
e------------------------------------------------------------|
B------------------------------------------------------------|
G-9-9-9-9-9-9-9-9-9--9--9--9--9--9--9--9--9--9--9--9--9--9---|
D-9-9-9-9-9-9-9-9-11-11-11-11-11-11-11-11-13-11-11-11-11-11--|
A------------------------------------------------------------|
E------------------------------------------------------------|

Pre-Chorus:
Guitar 1
e----------------------------------------|
B-4-4-4-4-4-4---2-2-2-2-2-2/4------------|
G-4-4-4-4-4-----3-3-3-3-3----------------|
D----------------------------------------|
A-2-2-2-2-2-----1-1-1-1-1----------------|
E----------------------------------------|

Guitar 2
e----------------------------------------|
B----------------------------------------|
G-4-4-4-4-4-----3-3-3-3-3----------------|
D-4-4-4-4-4-----4-4-4-4-4----------------|
A-2-2-2-2-2-----1-1-1-1-1----------------|
E----------------------------------------|

Chorus:
e---------------------------------|
B---------------------------------|
G-4-4-4-4-3-3-3-3-----------------|
D-4-4-4-4-4-4-4-4-----------------|  Continue into the bridge with the "da"'s
A-2-2-2-2-1-1-1-1-----------------|
E---------------------------------|

Bridge:
e-14-14-14-12-12-12-11-11-11-9-9-9-11-11-9-9-----7-7-7-----7-7-7----|
B-------------------------------------------5-5-5-----5-5-5---------|
G-------------------------------------------------------------------|
D-------------------------------------------------------------------|
A-------------------------------------------------------------------|
E-------------------------------------------------------------------|

e-------------------------------------------------------------------|
B-------------------------------------------------------------------|
G-11-11-11-9-9-9-8-8-8-6-6-6-8-8-6-6-----4-4-4-----4-4-4------------|
D-----------------------------------2-2-2-----2-2-2-----------------|
A-------------------------------------------------------------------|
E-------------------------------------------------------------------|

e-14-14-14-12-12-12-11-11-11-9-9-9-11-11-9-9-----7-7-7-----7-7-7----|
B-------------------------------------------5-5-5-----5-5-5---------|
G-------------------------------------------------------------------|
D-------------------------------------------------------------------|
A-------------------------------------------------------------------|
E-------------------------------------------------------------------|

e-------------------------------------------------------------------|
B-------------------------------------------------------------------|
G-11-11-11-9-9-9-8-8-8-6-6-6-8-8-6-6-----4-4-4-----4-4-4------------|
D-----------------------------------2-2-2-----2-2-2-----------------|
A--9--9--9-7-7-7-6-6-6-4-4-4-6-6-4-4--------------------------------|
E-------------------------------------------------------------------|

Outro:
Guitar 1:
e-14-14-14-12-12-12-11-11-11-9-9-9-11-11-9-9-----7-7-7-----7-7-7----|
B-------------------------------------------5-5-5-----5-5-5---------|
G-------------------------------------------------------------------|
D-------------------------------------------------------------------|
A-------------------------------------------------------------------|
E-------------------------------------------------------------------|

Guitar 2:
e-------------------------------------------------------------------|
B-------------------------------------------------------------------|
G-4444444444444433333333333333444444444444444443333333333333333-----|
D-4444444444444444444444444444444444444444444444444444444444444-----|
A-2222222222222211111111111111222222222222222221111111111111111-----|
E-------------------------------------------------------------------|



10.Start the Machine
--------------------------------------------------------------------------------------------
Intro
e|--7---7------7--7----11----11-------11---11---|
B|--7---7------7--7----12----12-------12---12---|
G|----8---8--6----8-------11----11--------------|  x2
D|----------------9----------------11-------9---|
A|----------------------------------------------|
E|----------------------------------------------|

e|--7--7--7--7-6-9--9--9--9-6-7------------|
B|--7--7--7--7-7-7--7--7--7-7-7------------|
G|-----------------------------------------| x3
D|-----------------------------------------|
A|-----------------------------------------|
E|-----------------------------------------|

Verse (no guitar but heres the notes played on bass)
e|-----------------------------------------|
B|-----------------------------------------|
G|-----------------------------------------|
D|-----------------------------------------|
A|-66666666-77777777-22222222--------------|
E|----------------------------22222222-----|

Chorus "You know, i wont say sorry"
Intro is played n heres the chords its based off of
e|-----------------------------------------|
B|-----------------------------------------|
G|-4~----4~-4~-----------------------------|  each chord rung out for
D|-4~-4~-4~-4~-3~-4~-----------------------|  two beats...
A|-2~-4~-2~-1~-3~-4~-----------------------|
E|----2~-------1~-2~-----------------------|

Verse

Chorus

Bridge

Guitar 1
e|---------------------------------------------------------------------|
B|---------------------------------------------------------------------|
G|----------------------------------------------------9-9-9-9-9-9-9-9--|
D|-4-4-4-4-4-4-4-4--6-6-6-6-6-6-6-6-------------------7-7-7-7-7-7-7-7--|
A|-2-2-2-2-2-2-2-2--4-4-4-4-4-4-4-4--6-6-6-6-6-6-6-6-------------------|
E|-----------------------------------4-4-4-4-4-4-4-4-------------------|
pm.........................................

Guitar 2 (Delay)
e|-----------------------------------------|
B|---7-7-----------7-7---------------------|
G|---------------------------9~------------|
D|--------9-9-9~--------9-9----------------|
A|-----------------------------------------|
E|-----------------------------------------|

Both guitars repeat through whole bridge

Outro "If Loves a word, that you say....."
e|--------------------------------------------------------------------|
B|---------------------------------------------------9-9-9-9-9-9-9-9--|
G|---------------------------------------------------9-9-9-9-9-9-9-9--|
D|-4-4-4-4-4-4-4-4-4-4-4-4-4-4-4-4-------------------7-7-7-7-7-7-7-7--|
A|-2-2-2-2-2-2-2-2-2-2-2-2-2-2-2-2--4-4-4-4-4-4-4-4-------------------|
E|----------------------------------2-2-2-2-2-2-2-2-------------------|
pm.................................................

end that part/guitar on
e|----------------|
B|----------------|
G|------4~--------|
D|------4~--------|
A|------2~--------|
E|----------------|

then play

Outro second part after singing
Consider this guitar 2 even though its on a xylophone
e|--7---7------7--7----11----11-------11---11---|
B|--7---7------7--7----12----12-------12---12---|
G|----8---8--6----8-------11----11--------------| x4
D|----------------9----------------11-------9---|
A|----------------------------------------------|
E|----------------------------------------------|

Now the demo wrecked him
and also some other songs from this website by angels and airwaves

WRECKED HIM

INTRO
e|--------------------------------------------------|
B|--------------------------------------------------|
G|--------------------------------------------------|
D|--7--7--7--7---7--7--7--7-------------------------|x2
A|--x--x--x--x---x--x--x--x-------------------------|
E|--5--5--5--5---3--3--3--3-------------------------|

INTRO 2 (Guitar 1)
e|--------------------------------------------------|
B|--------------------------------------------------|
G|---7-7-7--6----6-6-6--7--x4-----------------------|
D|-7-----------5---------------4~~------------------|
A|--------------------------------------------------|
E|--------------------------------------------------|

INTRO 2 & VERSE 1 & 2 (Guitar 2)
e|--------------------------------------------------|
B|--------------------------------------------------|
G|-7-7-7-7------------------------------------------|
D|-7-7-7-7--5-5-5-5--7-7-7-7--5-5-5-5---------------|
A|-5-5-5-5--5-5-5-5--7-7-7-7--5-5-5-5---x2----------|
E|----------3-3-3-3--5-5-5-5--3-3-3-3---------------|

CHORUS (Guitar 1 & 2)
e|--------------------------------------------------|
B|--------------------------------------------------|
G|-7-7-7-7------------------------------------------|x2
D|-7-7-7-7--2-2-2-2--5-5-5-5--7-7-xxxx--------------|
A|-5-5-5-5--2-2-2-2--5-5-5-5--7-7-xxxx--------------|
E|----------0-0-0-0--3-3-3-3--5-5-xxxx--------------|

BRIDGE (After Bass) (Guitar 1)
e|--------------------------------------------------|
B|--------------------------------------------------|
G|-----------------------5p4h5----------------------|
D|-4-4-4-5-5-4-4-4-5-5-5----------------------------|
A|--------------------------------------------------|
E|--------------------------------------------------|
P.M.... ......,. . ..,...

Angels And Airwaves – Demise       

E---------------------------------------|
B---------------------------------------|
G--9-99-99/-8-88-88/-6-66-66/-4-44-44---|
D--9-99-99/-8-88-88/-6-66-66/-4-44-44---|
A--7-77-77/-6-66-66/-4-44-44/-2-22-22---|
E---------------------------------------| x 2

E-------------------------------------|
B-----------5--0-----------5--0-------|
G-2222-2222------4444-4444------------|
D-2222-2222------4444-4444------------|
A-0000-0000------2222-2222------------|
E-------------------------------------|

E-------------------------------------------------------------------------|
B-----------5--0-----------------------0--5-----------0--5-----------0--5-|
G-2222-2222------4444-4444---6666-6666------4444-4444------2222-2222------|
D-2222-2222------4444-4444---6666-6666------4444-4444------2222-2222------|
A-0000-0000------2222-2222---4444-4444------2222-2222------0000-0000------|
E-------------------------------------------------------------------------|

E-----------------|
B-----------------|
G-4444-4444-44/---|
D-4444-4444-44/---|
A-2222-2222-22/---|
E-----------------|

E------------------------------------------------------------------------|
B------------------------------------------------------------------------|
G-6-*6666-66666666--2-*2222-22222222--9-*9999-99999999--4-*4444-44444444-|
D-6-*6666-66666666--2-*2222-22222222--9-*9999-99999999--4-*4444-44444444-|
A-4-*4444-44444444--0-*0000-00000000--7-*7777-77777777--2-*2222-22222222-|
E------------------------------------------------------------------------|


E------------------------------------------------------------------------|
B------------------------------------------------------------------------|
G-6-*6666-66666666--2-*2222-22222222-------------------------------------|
D-6-*6666-66666666--2-*2222-22222222--2-*2222-22222222--2-*2222-22222222-|
A-4-*4444-44444444--0-*0000-00000000--2-*2222-22222222--2-*2222-22222222-|
E-------------------------------------0-*0000-00000000--0-*0000-00000000-|

E------------------------------------|
B------------------------------------|
G-4/6--4444-4444—-4/6-4444-4444--4/--|
D-4/6--4444-4444— 4/6-4444-4444—-4/--|
A-2/4--2222-2222—-2/4-2222-2222—-2/--|
E------------------------------------|

E------------------------------------------------------------------------|
B------------------------------------------------------------------------|
G-6-*6666-66666666--2-*2222-22222222--9-*9999-99999999--4-*4444-44444444-|
D-6-*6666-66666666--2-*2222-22222222--9-*9999-99999999--4-*4444-44444444-|
A-4-*4444-44444444--0-*0000-00000000--7-*7777-77777777--2-*2222-22222222-|
E------------------------------------------------------------------------|

E------------------------------------------------------------------- ---|
B-------------------------------------------------------------------- --|
G-6-*6666-66666666--2-*2222-22222222--------------------4-*4444-4444444-|
D-6-*6666-66666666--2-*2222-22222222--2-*2222-22222222--4-*4444-4444444-|
A-4-*4444-44444444--0-*0000-00000000--2-*2222-22222222--2-*2222-2222222-|
E-------------------------------------0-*0000-00000000------------------|

E------------------------------------------------------------------------|
B------------------------------------------------------------------------|
G-6-*6666-66666666--2-*2222-22222222--9-*9999-99999999--4-*4444-44444444-|
D-6-*6666-66666666--2-*2222-22222222--9-*9999-99999999--4-*4444-44444444-|
A-4-*4444-44444444--0-*0000-00000000--7-*7777-77777777--2-*2222-22222222-|
E------------------------------------------------------------------------|




E--------------------------------------|
B--------------------------------------|
G-444444/11-11-11/13-13-13/14---2-2----|
D-444444/11-11-11/13-13-13/14---2-2----|
A-222222/-9--9—-9/11-11-11/12---0-0----|
E--------------------------------------|

E---------------------------|
B---------------------------|
G-2-222/4-444/6-6666666666--|
D-2-222/4-444/6-6666666666--|
A-0-000/2-222/4-4444444444--|
E---------------------------|

E----------------------------|
B----------------------------|
G-2-222/4-444/6-6666/999/4---|
D-2-222/4-444/6-6666/999/4---|
A-0-000/2-222/4-4444/777/2---|
E----------------------------|

E---------------------------|
B---------------------------|
G-2-222/4-444/6-6666/2-2222-|
D-2-222/4-444/6-6666/2-2222-|
A-0-000/2-222/4-4444/0-0000-|
E---------------------------|

E-------------------------------------------------------------------|
B-------------------------------------------------------------------|
G-2-222/4-444/6666-6666-66/4444-4444-44/2222-2222-22/4444-4444-44---|
D-2-222/4-444/6666-6666-66/4444-4444-44/2222-2222-22/4444-4444-44---|
A-0-000/2-222/4444-4444-44/2222-2222-22/0000-0000-00/2222-2222-22---|
E-------------------------------------------------------------------|




E-----------------------------------------------------|
B-----------------------------------------------------|
G-6666-6666-66/4444-4444-44/2222-2222-22/4444-4444-44-|
D-6666-6666-66/4444-4444-44/2222-2222-22/4444-4444-44-|
A-4444-4444-44/2222-2222-22/0000-0000-00/2222-2222-22-|
E-----------------------------------------------------|

Abrupt ending.

*That means there’s palm mute.

| /  slide up
| \  slide down
| h  hammer-on
| p  pull-off
| ~  vibrato
| +  harmonic
| x  Mute note
===============================================================================

comments
print report bad tab
9 comments total. Showing first comments.
0 reply
TheDistrict wrote on July 25 2006, 12:20 pm

Demise is not an AVA song, neither is wrecked him.
noob.

0 reply
AvAaron182 wrote on July 25 2006, 12:42 pm

dude no matter what you say wrecked him is NOT an AVA song it is a blink song of one of th ep's called they came from planet uranus or something like that
neither is demise its not a demo song!!! Tom would have metioned it in the begining!

0 reply
AvAaron182 wrote on July 25 2006, 12:44 pm

you copyed everyone elses tab!!
your an *******
do your own tabbing

I want to post or [tab]
guest
You may want to rate the tab now too:
select rating
Please do not post tabs as comments. Select "correction" instead!