Oops, an error
Loading. Please wait.

Angelwitch Tab

ver1
ver1

Album

Whole song

More versions @911Tabs.com
8,074 views 42 this week
no commentswrite comment
1 2 3 4 5
excellent!
x 1
add to favorites launch autoscroll
font size
0
reset
Autoscroll
+/-
esc
set tempo
stop
Contributor
WARNING: You are trying to view
                                    content from Ultimate-Guitar.com
                                    in an unauthorized application,
                                    which is prohibited.

                                    Please use an official Ultimate
                                    Guitar Tabs application for iPhone,
                                    iPad or Android to access legitimate
                                    chords, guitar, bass, and drum tabs
                                    from Ultimate-Guitar.com database.

                                    Type "ultimate guitar tabs" in Apple
                                    App Store's or Android Market's
                                    search to find the application.
                                                                    
-----------------------------------------------------------------------------
			     Angelwitch - Angelwitch 
-----------------------------------------------------------------------------
Band: Angelwitch 
Song: Angelwitch 
Album: Angelwitch 

Tabbed by: deathx88
Email: deathx88@yahoo.com

Tuning: Standard
      



Lead Intro x2
play during Riff 1

   S   S  S   S  S   S  S   S  S   S  S   S  S   S  S   S  
--12p-10----------------------12p-10---------------12p-10-|
---------13p-10-12p-10-13p-10--------13p-10-12p-10--------|
----------------------------------------------------------|
----------------------------------------------------------|
----------------------------------------------------------|
----------------------------------------------------------|


   S   S  S  S  S  S  S  S  S  S  S  S  S  S  S  S  
---------------------------10p-8-------------10p-8-|
--13p-10-12p-8-10p-8-12p-8-------12p-8-10p-8-------|
---------------------------------------------------|
---------------------------------------------------|
---------------------------------------------------|
---------------------------------------------------|


   S  S  S  S  S  S S  S  S  S  S  S S  S  S  S  
--------------------8p-7-------------8p-7-10p-8-|
--12p-8-10p-8-10p-8------10p-8-10p-8------------|
------------------------------------------------|
------------------------------------------------|
------------------------------------------------|
------------------------------------------------|


   S   S  S   S  S   S  S   S  S   S  S   S  S   S  S   S  
--12p-10----------------------12p-10---------------12p-10-|
---------13p-10-12p-10-13p-10--------13p-10-12p-10--------|
----------------------------------------------------------|
----------------------------------------------------------|
----------------------------------------------------------|
----------------------------------------------------------|

                                                              


Riff 1 (intro) x2

     |--3-|                    |--3-|                 
     Q    E  Q    Q    Q       Q    E  Q    H         
E||-------------------------|------------------------|
B||-------------------------|------------------------|
G||-------------------------|------------------------|
D||--7-----------------7----|--5---------------------|
A||--7-----------------7----|--5---------------------|
E||--5-----------------5----|--3---------------------|


                           |--3-|                             
  S S S S H        Q       Q    E  H.              
------------------------|-----------------------|
------------------------|-----------------------|
------------------------|-----------------------|
----------3--------5----|--7----L---------------|
--3-3-3-3-3--------5----|--7----L---------------|
--1-1-1-1-1--------3----|--5----L---------------|




play during Riff 2

             |----3----|                 |----3----|     
   Q.     E  Q    Q    Q       Q.     E  Q    Q    Q     
--12------------------------|---------L-----------------|
----------------------------|---------------------------|
------------------4----5----|-----------------4----5----|
---7------7--L--------------|--7------7--L--------------|
----------------------------|---------------------------|
----------------------------|---------------------------|


    |----3----|      |----3----|          3       3     3       3         
    Q    Q    Q      Q    Q    Q          Q.      Q     Q.      H         
------------------------------------|------------------------------------|
------------------------------------|------------------------------------|
--5g7----5----7----7g9----7----9----|--9g12------14----14~------L--------|
------------------------------------|------------------------------------|
------------------------------------|------------------------------------|
------------------------------------|------------------------------------|


               |-----3-----|                    |-----3-----|     
   Q.      E   Q     Q     Q        Q.      E   Q     Q     Q     
--------------------------------|--------------------------------|
--------------------12----13----|--------------------12----13----|
--14------14---L----------------|--14------14---L----------------|
--------------------------------|--------------------------------|
--------------------------------|--------------------------------|
--------------------------------|--------------------------------|


   |--3--|                |-----3-----|                           
   Q     E  S  S   S   S  Q     Q     Q        W                  
--15----13--L-12h-13p-12-------12----------|---------------------|
-------------------------13----------12----|---------------------|
-------------------------------------------|--14~----------------|
-------------------------------------------|---------------------|
-------------------------------------------|---------------------|
-------------------------------------------|---------------------|




Riff 2 x6

  Q.     E  H           Q.     E  H          
---------------------|---------------------|
---------------------|---------------------|
---------------------|---------------------|
---------------------|---------------------|
--7------7--L--------|--5------5--L--------|
--5------5--L--------|--3------3--L--------|


  Q.     Q.     Q       Q.     E  H               
---------------------|---------------------|
---------------------|---------------------|
---------------------|---------------------|
---------------------|---------------------|
--3------3------5----|--7------7--L--------|
--1------1------3----|--5------5--L--------|




lead doodles during the verses in Riff 2


  PM PM PM PM PM PM PM PM                                            
  E  E  E  E  E  E  E  E     H         H                         
--------------------------|---------------------|
--------------------------|---------------------|
--------------------------|---------------------|
--------------------------|---------------------|
-----------------3--------|---------------------|
--5--0--3--4--5-----5--3--|--5~-----------------|

  Q      E   E   E   Q.                      
--18b----17--15--17--17~------|
------------------------------|
------------------------------|
------------------------------|
------------------------------|
------------------------------|




Riff 3 (chorus)

  E  E  E  E  E  E  E  E     E  E  E  E  E  E  E  E   
--------------------------|--------------------------|
--------------------------|--------------------------|
--------------------------|--------------------------|
--------------------------|--------------------------|
--------------------------|--------------------------|
--5--5--5--5--5--5--7--7--|--8--8--8--8--8--8--8--8--|


   Q.      E  Q     Q       W                 
-------------------------|-------------------|
-------------------------|-------------------|
-------------------------|-------------------|
--10------10--9----------|-------------------|
---8-------8--7----10----|--7----------------|
--------------------8----|--5----------------|
			  
			  guitar 2
			    E  E  E  E  E  E  Q      
			  --------------------------|
			  --------------------------|
			  -----5--7--5--8--7--5\----|
			  --7--5--7--5--8--7--5\----|
			  --7-----------------------|
			  --------------------------|


  E  E  E  E  E  E  E  E     E  E  E  E  E  E  E  E   
--------------------------|--------------------------|
--------------------------|--------------------------|
--------------------------|--------------------------|
--------------------------|--------------------------|
--------------------------|--------------------------|
--5--5--5--5--5--5--7--7--|--8--8--8--8--8--8--8--8--|



   Q.      E  Q     Q       Q.     E  H              
-------------------------|---------------------|
-------------------------|---------------------|
-------------------------|---------------------|
--10------10--9----------|---------------------|
---8-------8--7----10----|--7------7--L--------|
--------------------8----|--5------5--L--------|

			  guitar 2
			    E  E  E  E  E  E  Q      
			  --------------------------|
			  --------------------------|
			  -----5--7--5--8--7--5\----|
			  --7--5--7--5--8--7--5\----|
			  --7-----------------------|
			  --------------------------|




play during Riff 2

              |----3----|                 |----3----|     
    Q.     E  Q    Q    Q       Q.     E  Q    Q    Q     
-----------------------------|---------------------------|
-----------------------------|---------------------------|
-------------------4----5----|-----------------4----5----|
--5g7------L--L--------------|--7------L--L--------------|
-----------------------------|---------------------------|
-----------------------------|---------------------------|


  |----3----|    |----3----|                                               
  Q    Q    Q    Q    Q    Q       W                    H.           Q     
--------------------------------|--------------------|--------------------|
--------------------------------|--------------------|--------------------|
--7----5----4----5----4----5----|--------------------|--------------------|
--------------------------------|--7~----------------|--L-----------------|
--------------------------------|--------------------|--------------------|
--------------------------------|--------------------|--------------------|




Riff 2 x5

  Q.     E  H           Q.     E  H          
---------------------|---------------------|
---------------------|---------------------|
---------------------|---------------------|
---------------------|---------------------|
--7------7--L--------|--5------5--L--------|
--5------5--L--------|--3------3--L--------|


  Q.     Q.     Q       Q.     E  H               
---------------------|---------------------|
---------------------|---------------------|
---------------------|---------------------|
---------------------|---------------------|
--3------3------5----|--7------7--L--------|
--1------1------3----|--5------5--L--------|




Riff 3 (chorus)

  E  E  E  E  E  E  E  E     E  E  E  E  E  E  E  E   
--------------------------|--------------------------|
--------------------------|--------------------------|
--------------------------|--------------------------|
--------------------------|--------------------------|
--------------------------|--------------------------|
--5--5--5--5--5--5--7--7--|--8--8--8--8--8--8--8--8--|


   Q.      E  Q     Q       W                 
-------------------------|-------------------|
-------------------------|-------------------|
-------------------------|-------------------|
--10------10--9----------|-------------------|
---8-------8--7----10----|--7----------------|
--------------------8----|--5----------------|
			  
			  guitar 2
			    E  E  E  E  E  E  Q      
			  --------------------------|
			  --------------------------|
			  -----5--7--5--8--7--5\----|
			  --7--5--7--5--8--7--5\----|
			  --7-----------------------|
			  --------------------------|


  E  E  E  E  E  E  E  E     E  E  E  E  E  E  E  E   
--------------------------|--------------------------|
--------------------------|--------------------------|
--------------------------|--------------------------|
--------------------------|--------------------------|
--------------------------|--------------------------|
--5--5--5--5--5--5--7--7--|--8--8--8--8--8--8--8--8--|



   Q.      E  Q     Q       Q.     E  H              
-------------------------|---------------------|
-------------------------|---------------------|
-------------------------|---------------------|
--10------10--9----------|---------------------|
---8-------8--7----10----|--7------7--L--------|
--------------------8----|--5------5--L--------|

			  guitar 2
			    E  E  E  E  E  E  Q      
			  --------------------------|
			  --------------------------|
			  -----5--7--5--8--7--5\----|
			  --7--5--7--5--8--7--5\----|
			  --7-----------------------|
			  --------------------------|





play during Riff 2

             |----3----|                 |----3----|     
   Q.     E  Q    Q    Q       Q.     E  Q    Q    Q     
--12------------------------|---------L-----------------|
----------------------------|---------------------------|
------------------4----5----|-----------------4----5----|
---7------7--L--------------|--7------7--L--------------|
----------------------------|---------------------------|
----------------------------|---------------------------|


    |----3----|      |----3----|          3       3     3       3         
    Q    Q    Q      Q    Q    Q          Q.      Q     Q.      H         
------------------------------------|------------------------------------|
------------------------------------|------------------------------------|
--5g7----5----7----7g9----7----9----|--9g12------14----14~------L--------|
------------------------------------|------------------------------------|
------------------------------------|------------------------------------|
------------------------------------|------------------------------------|


               |-----3-----|                    |-----3-----|     
   Q.      E   Q     Q     Q        Q.      E   Q     Q     Q     
--------------------------------|--------------------------------|
--------------------12----13----|--------------------12----13----|
--14------14---L----------------|--14------14---L----------------|
--------------------------------|--------------------------------|
--------------------------------|--------------------------------|
--------------------------------|--------------------------------|


   |--3--|                |-----3-----|                           
   Q     E  S  S   S   S  Q     Q     Q        W                  
--15----13--L-12h-13p-12-------12----------|---------------------|
-------------------------13----------12----|---------------------|
-------------------------------------------|--14~----------------|
-------------------------------------------|---------------------|
-------------------------------------------|---------------------|
-------------------------------------------|---------------------|




Riff 2 x2

  Q.     E  H           Q.     E  H          
---------------------|---------------------|
---------------------|---------------------|
---------------------|---------------------|
---------------------|---------------------|
--7------7--L--------|--5------5--L--------|
--5------5--L--------|--3------3--L--------|


  Q.     Q.     Q       Q.     E  H               
---------------------|---------------------|
---------------------|---------------------|
---------------------|---------------------|
---------------------|---------------------|
--3------3------5----|--7------7--L--------|
--1------1------3----|--5------5--L--------|

		     play this the second time
		       W
		     -------------------|
		     -------------------|
		     -------------------|
		     -------------------|
		     --7----------------|
		     --5----------------|




Bridge

  W                 W                 W                 H       E  E  E  E    
-----------------|-----------------|-----------------|-------------------L--|
-----------------|-----------------|-----------------|--5----------------L--|
--5--------------|--L--------------|-----------------|--4-------------------|
--5--------------|--L--------------|--2--------------|--2-------------------|
--3--------------|--L--------------|--2--------------|--L-------2--2--2--2--|
-----------------|-----------------|--0--------------|--L-------0--0--0--0--|


  W                  W                  W                  W                 
------------------|------------------|------------------|-------------------|
------------------|------------------|------------------|--5----------------|
------------------|------------------|------------------|--4----------------|
--3---------------|--5---------------|--2---------------|--2----------------|
--3---------------|--5---------------|--2---------------|--L----------------|
--1---------------|--3---------------|--0---------------|--L----------------|


  W                  W                  W                  W                 
------------------|------------------|------------------|-------------------|
------------------|------------------|------------------|-------------------|
------------------|------------------|--2---------------|-------------------|
--3---------------|--5---------------|--2---------------|--5----------------|
--3---------------|--5---------------|--0---------------|--5----------------|
--1---------------|--3---------------|------------------|--3----------------|


                      |--3-|                             
  W                   Q    E  Q    H           
-------------------|------------------------|
-------------------|------------------------|
-------------------|------------------------|
--3----------------|--9---------------------|
--3----------------|--7---------------------|
--1----------------|--0---------------------|




play during Riff 1

   S   S  S   S  S   S  S   S  S   S  S   S  S   S  S   S  
--12p-10----------------------12p-10---------------12p-10-|
---------13p-10-12p-10-13p-10--------13p-10-12p-10--------|
----------------------------------------------------------|
----------------------------------------------------------|
----------------------------------------------------------|
----------------------------------------------------------|


   S   S  S  S  S  S  S  S  S  S  S  S  S  S  S  S  
---------------------------10p-8-------------10p-8-|
--13p-10-12p-8-10p-8-12p-8-------12p-8-10p-8-------|
---------------------------------------------------|
---------------------------------------------------|
---------------------------------------------------|
---------------------------------------------------|


   S  S  S  S  S  S S  S  S  S  S  S S  S  S  S  
--------------------8p-7-------------8p-7-10p-8-|
--12p-8-10p-8-10p-8------10p-8-10p-8------------|
------------------------------------------------|
------------------------------------------------|
------------------------------------------------|
------------------------------------------------|


   S   S  S   S  S   S  S   S  S   S  S   S  S   S  S   S  
--12p-10----------------------12p-10---------------12p-10-|
---------13p-10-12p-10-13p-10--------13p-10-12p-10--------|
----------------------------------------------------------|
----------------------------------------------------------|
----------------------------------------------------------|
----------------------------------------------------------|

                                                              


Riff 1 (intro) x2

     |--3-|                    |--3-|                 
     Q    E  Q    Q    Q       Q    E  Q    H         
E||-------------------------|------------------------|
B||-------------------------|------------------------|
G||-------------------------|------------------------|
D||--7-----------------7----|--5---------------------|
A||--7-----------------7----|--5---------------------|
E||--5-----------------5----|--3---------------------|


                           |--3-|                             
  S S S S H        Q       Q    E  H.              
------------------------|-----------------------|
------------------------|-----------------------|
------------------------|-----------------------|
----------3--------5----|--7----L---------------|
--3-3-3-3-3--------5----|--7----L---------------|
--1-1-1-1-1--------3----|--5----L---------------|




Riff 3b (chorus) x4

                                                                 
  E  E  E  E  Q    Q       E  E  E  E   Q     Q     
------------------------|--------------------------|
------------------------|--------------------------|
------------------------|--------------------------|
------------------------|--------------------------|
--------------7----9----|--------------10----10----|
--5--5--5--5--5----7----|--8--8--8--8---8-----8----|


   Q.      E  Q     Q       W                    
-------------------------|-------------------|
-------------------------|-------------------|
-------------------------|-------------------|
--10------10--9----------|-------------------|
---8-------8--7----10----|--7----------------|
--------------------8----|--5----------------|

			  guitar 2
			    E  E  E  E  E  E  Q      
			  --------------------------|
			  --------------------------|
			  -----5--7--5--8--7--5\----|
			  --7--5--7--5--8--7--5\----|
			  --7-----------------------|
			  --------------------------|

			  play on the last time
			    Q.     Q.     Q     
			  ---------------------|
			  ---------------------|
			  ---------------------|
			  ---------------------|
			  --7------7------7----|
			  --5------5------5----|




Riff 3c (chorus) x4

  |--3-|                   |--3-|  
  Q    E  Q    H           Q    E  Q    H         
------------------------|-------------------------|
------------------------|-------------------------|
------------------------|-------------------------|
------------------------|-------------------------|
--7---------------------|--10---------------------|
--5---------------------|---8---------------------|


                          |--3-|                 
   H        Q     Q       Q    E  Q    H         
-----------------------|------------------------|
-----------------------|------------------------|
-----------------------|------------------------|
--10--------9----------|------------------------|
---8--------7----10----|--7---------------------|
------------------8----|--5---------------------|



Ending Solo
play over Riff 3b


   \2       \2                                                      
   H        H           S  S  S S  S  S S  S  S S  S  S S  S  S S   
---------------------|--7p-3p-0-7p-3p-0-7p-3p-0-7p-3p-0-7p-3p-0-7h-|
---------------------|---------------------------------------------|
---------------------|---------------------------------------------|
--14--------9--------|---------------------------------------------|
--12--------7--------|---------------------------------------------|
---------------------|---------------------------------------------|


  S  S S  S  S S  S  S S  S  S S  S  S S  S   
--3p-0-7p-3p-0-7p-3p-0-7p-3p-0-7p-3p-0-7p-3h-|
---------------------------------------------|
---------------------------------------------|
---------------------------------------------|
---------------------------------------------|
---------------------------------------------|


  S S  S  S S  S  S S  E    E   Q        Q.       Q.       Q     
--0-7p-3p-0-7p-3p-0-7p-3S--12--15----|--15b------15b------15----|
-------------------------------------|--------------------------|
-------------------------------------|--------------------------|
-------------------------------------|--------------------------|
-------------------------------------|--------------------------|
-------------------------------------|--------------------------|


                           |----3----|     |-----3-----|     
   H          H            H         Q     Q     Q     Q     
--20b--------20b--------|--L--------20----19----17----19----|
------------------------|-----------------------------------|
------------------------|-----------------------------------|
------------------------|-----------------------------------|
------------------------|-----------------------------------|
------------------------|-----------------------------------|


                      |---3---|  |---3---|                                
   H            S  S  S   S   S  S   S   S  E        W                    
--20brb--------17-19-20p-19p-17-20p-19p-17-----|-------------------------|
-------------------------------------------20--|--<>20pbr----------------|
-----------------------------------------------|-------------------------|
-----------------------------------------------|-------------------------|
-----------------------------------------------|-------------------------|
-----------------------------------------------|-------------------------|


   E   E   S   S   S  S  E   S   S   S  E.    
---------------------------------------------|
--17--19--17h-19p-17--------17h-19p-17-------|
---------------------19b-L-------------19b---|
---------------------------------------------|
---------------------------------------------|
---------------------------------------------|


   S   S   S  S  E   S   S   S  E.    S   S   S  S     W                  
---------------------------------------------------|---------------------|
--17h-19p-17--------17h-19p-17-------17h-19p-17----|--20b----------------|
-------------19b-L-------------19b--------------19-|---------------------|
---------------------------------------------------|---------------------|
---------------------------------------------------|---------------------|
---------------------------------------------------|---------------------|


                                                          |-----3-----|     
   W                  H         Q     Q        H          Q     Q     Q     
------------------|------------------------|-------------------------------|
------------------|------------------20----|-------------------------------|
------------------|--19b--------L----------|--19b--------19----17----16----|
------------------|------------------------|-------------------------------|
------------------|------------------------|-------------------------------|
--17b-------------|------------------------|-------------------------------|


                           |---------3---------|         
   H          H            H         H         H         
------------------------|-------------------------------|
------------------------|-------------------------------|
------------------------|-------------------------------|
--19~--------14S--------|--9S--------6S--------2--------|
-------------12S--------|--7S--------4S--------0--------|
------------------------|-------------------------------|


                                 |---3---|                            
   H          Q     Q        E   S   S   S  E   E   E   S  S  S  E.   
-------------17----19----|--20--19h-20p-19-17------17----------------|
--20b--------------------|---------------------20------20-19-20-17---|
-------------------------|-------------------------------------------|
-------------------------|-------------------------------------------|
-------------------------|-------------------------------------------|
-------------------------|-------------------------------------------|


                |---3---|  |---3--|              |---3---|      
   S   S  S  S  S   S   S  S  S   S  S  S  S  S  S   S   S  E   
------------17-19h-20p-19-17-----------------17-19h-20p-19-17--|
--20p-17-20------------------20p-17-20-17-20-------------------|
---------------------------------------------------------------|
---------------------------------------------------------------|
---------------------------------------------------------------|
---------------------------------------------------------------|


                        |---3---|                                              
   S   S   S   S  S  S  S   S   S  S  S  S  S  S  S  E     W  
--------------------------------------------------------|------------------|
--19h-20p-19p-17-19-17----------------------------------|------------------|
-----------------------16h-17p-16----16-----------------|------------------|
----------------------------------19----19--------------|------------------|
-------------------------------------------18-17-15-17--|------------------|
--------------------------------------------------------|--17~-------------|


   H          Q     Q        Q     Q     Q     Q       W                 
-------------------------|--------------------------|-------------------|
-------------------------|--------------------------|-------------------|
-------------------------|--------14----17----14----|-------------------|
--10S--------14----15----|--17----------------------|-------------------|
-------------------------|--------------------------|-------------------|
-------------------------|--------------------------|-------------------|



Riff 3b (rhythm for solo) 

keep playing till fade out

                                                                 
  E  E  E  E  Q    Q       E  E  E  E   Q     Q     
------------------------|--------------------------|
------------------------|--------------------------|
------------------------|--------------------------|
------------------------|--------------------------|
--------------7----9----|--------------10----10----|
--5--5--5--5--5----7----|--8--8--8--8---8-----8----|


   Q.      E  Q     Q       W                    
-------------------------|-------------------|
-------------------------|-------------------|
-------------------------|-------------------|
--10------10--9----------|-------------------|
---8-------8--7----10----|--7----------------|
--------------------8----|--5----------------|

  E  E  E  E  Q    Q       E  E  E  E   Q     Q     
------------------------|--------------------------|
------------------------|--------------------------|
------------------------|--------------------------|
------------------------|--------------------------|
--------------7----9----|--------------10----10----|
--5--5--5--5--5----7----|--8--8--8--8---8-----8----|


   Q.      E  Q     Q       Q.     E  H            
-------------------------|-------------------|
-------------------------|-------------------|
-------------------------|-------------------|
--10------10--9----------|-------------------|
---8-------8--7----10----|--7------7--L------|
--------------------8----|--5------5--L------|



*fade out*




Duration Legend
---------------
W - whole
H - half
Q - quarter
E - 8th
S - 16th
T - 32nd
X - 64th
. - note dotted
|-n-|  - n-tuplets


Tablature Legend
----------------
L - tied note
x - dead note
g - grace note
(n) - ghost note
> - accentuded note
NH - natural harmonic
AH - artificial harmonic
TH - tapped harmonic
SH - semi harmonic
PH - pitch harmonic
h - hammer on
p - pull off
b - bend
br - bendRelease
pb - preBend
pbr - preBendRelease
brb - bendReleaseBend
\n/ - tremolo bar dip
\n - tremolo bar dive
-/n - tremolo bar Release up
/n\ - tremolo bar inverted dip
/n - tremolo bar return
-\n - tremolo bar Release down
S - shift slide
s - legato slide
/ -  slide into from below or out of upwards
\ -  slide into from above or out of downwards
~ - vibrato
W - wide vibrato
tr - trill
TP - tremolo picking
T - tapping
S - slap
P - pop
< - fade in
^ - brush up
v - brush down
                                                                
comments
We did not receive enough feedback on this tab! Please rate:
print report bad tab
1 2 3 4 5
I want to post or [tab]
guest
You may want to rate the tab now too:
select rating
Please do not post tabs as comments. Select "correction" instead!