Oops, an error
Loading. Please wait.

Carry On Tab

ver3
ver3

Whole song

More versions @911Tabs.com
2,372 views 1 this week
no commentswrite comment
1 2 3 4 5
accurate
x 1
Autoscroll
+/-
esc
set tempo
stop
Contributor
WARNING: You are trying to view
                                    content from Ultimate-Guitar.com
                                    in an unauthorized application,
                                    which is prohibited.

                                    Please use an official Ultimate
                                    Guitar Tabs application for iPhone,
                                    iPad or Android to access legitimate
                                    chords, guitar, bass, and drum tabs
                                    from Ultimate-Guitar.com database.

                                    Type "ultimate guitar tabs" in Apple
                                    App Store's or Android Market's
                                    search to find the application.
#----------------------------------PLEASE NOTE---------------------------------#
#This file is the author's own work and represents their interpretation of the #
#song. You may only use this file for private study, scholarship, or research. #
#------------------------------------------------------------------------------#

CARRY ON
As recorded by Angra
(From the 1994 Album ANGELS CRY)

Transcribed by LCR
        

Words and Music by André Mattos
Arranged by Bruno Godinho

Gtr I (E A D G B E) - 'Kiko Loureiro'
Gtr II (E A D G B E) - 'Rafael Bittencourt'

   Intro (0:00)
    Q=165
    Am                                D
   4/4
    Gtr I
    E S S E E S S E E S S   E E S S E Q  Q
||------------------------|-----------------|
||o-----------------------|-----------------|
||----5-4-5---5-4-5---5-4-|-5---5-4-5-7--7--|
||--7-------7-------7-----|---7-------7--7--|
||o-----------------------|-----------5--5--|
||------------------------|-----------------|
|
|   Gtr II
|   E S S E E S S E E S S   E E S S E Q  Q
||------------------------|-----------------|
||o-----------------------|-----------------|
||----9-7-9---9-7-9---9-7-|-9---9-7-9-7--7--|
||--7-------7-------7-----|---7-------7--7--|
||o-----------------------|-----------5--5--|
||------------------------|-----------------|


  Am                                C     G/B
  E S S E E S S E E S S   E E S S E S S E S S E
|-----------------------|-----------------------|
|-----------------------|---------------------3-|
|---5-4-5---5-4-5---5-4-|-5---5-4-5-----5-----4-|
|-7-------7-------7-----|---7-----------5-----5-|
|-----------------------|-----------3-3-3-2-2---|
|-----------------------|-----------------------|
|
| E S S E E S S E E S S   E E S S E S S E S S E
|-----------------------|-----------------------|
|-----------------------|---------------------3-|
|---9-7-9---9-7-9---9-7-|-9---9-7-9-----5-----4-|
|-7-------7-------7-----|---7-----------5-----5-|
|-----------------------|-----------3-3-3-2-2---|
|-----------------------|-----------------------|


  Am                                D       Dm              E
                                             ~~             ~
                                                   |-3--|        |--3--|
  E S S E E S S E E S S   E E S S E Q  Q     H     Q Q  Q   H    Q  Q  Q
|-----------------------|-----------------|---------------|---------------||
|-----------------------|-----------------|----------5--6-|-5----5--7--9-o||
|---5-4-5---5-4-5---5-4-|-5---5-4-5-7--7--|--7-----7------|---------------||
|-7-------7-------7-----|---7-------7--7--|---------------|---------------||
|-----------------------|-----------5--5--|---------------|--------------o||
|-----------------------|-----------------|---------------|---------------||
|
|                                            ~~             ~
|                                                  |-3--|        |--3--|
| E S S E E S S E E S S   E E S S E Q  Q     H     Q Q  Q   H    Q  Q  Q
|-----------------------|-----------------|---------------|---------------||
|-----------------------|-----------------|----------8-10-|-9----9-10-12-o||
|---9-7-9---9-7-9---9-7-|-9---9-7-9-7--7--|-10----10------|---------------||
|-7-------7-------7-----|---7-------7--7--|---------------|---------------||
|-----------------------|-----------5--5--|---------------|--------------o||
|-----------------------|-----------------|---------------|---------------||


 Tapped Arpeggios (0:24)
  Am
      T       T       T       T       T
   S  S  S S  S S  S  S  S S  S S  S  S  S S
|-12-17p12p8-12p8--------------------------8h|
|-----------------10-13p10--------10-13p10---|
|--------------------------9-14p9------------|
|--------------------------------------------|
|--------------------------------------------|
|--------------------------------------------|


  G
      T       T      T      T      T
   S  S  S S  S S S  S S S  S S S  S S S
|-10-15p10p7-10p7----------------------7-|
|-----------------8-12p8--------8-12p8---|
|------------------------7-12p7----------|
|----------------------------------------|
|----------------------------------------|
|----------------------------------------|


  Dm              E              E7
  Gtr I
   ~~             ~
         |-3--|        |--3--|
   H     Q Q  Q   H    Q  Q  Q    S  S  S  S  S  S  S  S  S  S  S  S  S  S  S  S
|---------------|--------------|-13-12-10----------------------------------------|
|----------5--6-|-5----5--7--9-|----------13-12-10--9-10-12-10--9----------------|
|--7-----7------|--------------|----------------------------------10--9--7-------|
|---------------|--------------|-------------------------------------------10--9-|
|---------------|--------------|-------------------------------------------------|
|---------------|--------------|-------------------------------------------------|
|
| Gtr II
|  ~~             ~
|        |-3--|        |--3--|
|  H     Q Q  Q   H    Q  Q  Q    S  S  S  S  S  S  S  S  S  S  S  S  S  S  S  S
|---------------|--------------|-17-16-13----------------------------------------|
|----------8-10-|-9----9-10-12-|----------17-15-13-12-13-15-13-12----------------|
|-10----10------|--------------|----------------------------------14-13-10-------|
|---------------|--------------|-------------------------------------------14-12-|
|---------------|--------------|-------------------------------------------------|
|---------------|--------------|-------------------------------------------------|


   S  S  S  S  S  S S  S  S  S  S  S  S  S  S  S
|-------------------------------------------------|
|-------------------------------------------------|
|-10--9--7----------------------------------------|
|----------10--9--7-6--7--9--7--6-----------------|
|----------------------------------8--7--5--------|
|-------------------------------------------8--7--|
|
|  S  S  S  S  S  S S  S  S  S  S  S  S  S  S  S
|-------------------------------------------------|
|-------------------------------------------------|
|-14-13-10----------------------------------------|
|----------14-12-10-9-10-12-10--------------------|
|------------------------------14-12-11-----------|
|---------------------------------------13-12-10--|


  Am                      D°
                          |-3-| |-3-| |-3-| |-3-|   |-3-| |-3-| |-3-| |-3-|
  W          +W           E E E E E E E E E E E E   E E E E E E E E E E E E
|----------|------------|-------------------------|-------------------------|
|----------|------------|-------------------------|-------------------------|
|----------|------------|-------------------------|-------------------------|
|----------|------------|-0-0-0-0-0-0-0-0-0-0-0-0-|-0-0-0-0-0-0-0-0-0-0-0-0-|
|----------|------------|-------------------------|-------------------------|
|-5--------|-(5)--------|-------------------------|-------------------------|
|
|                         |-3-| |-3-| |-3-| |-3-|   |-3-| |-3-| |-3-| |-3-|
| W          +W           E E E E E E E E E E E E   E E E E E E E E E E E E
|----------|------------|-------------------------|-------------------------|
|----------|------------|-------------------------|-------------------------|
|----------|------------|-------------------------|-------------------------|
|----------|------------|-0-0-0-0-0-0-0-0-0-0-0-0-|-0-0-0-0-0-0-0-0-0-0-0-0-|
|----------|------------|-------------------------|-------------------------|
|-8--------|-(8)--------|-------------------------|-------------------------|


                                                      E
                                                     2/4
  |-3-| |-3-| |-3-| |-3-|   |-3-| |-3-| |-3-| |-3-|
  E E E E E E E E E E E E   E E E E E E E E E E E E   Q  Q
|-------------------------|-------------------------|---------|
|-------------------------|-------------------------|---------|
|-------------------------|-------------------------|---------|
|-0-0-0-0-0-0-0-0-0-0-0-0-|-0-0-0-0-0-0-0-0-0-0-0-0-|-2-------|
|-------------------------|-------------------------|-2-------|
|-------------------------|-------------------------|-0-------|
|
| |-3-| |-3-| |-3-| |-3-|   |-3-| |-3-| |-3-| |-3-|
| E E E E E E E E E E E E   E E E E E E E E E E E E   Q  Q
|-------------------------|-------------------------|---------|
|-------------------------|-------------------------|---------|
|-------------------------|-------------------------|---------|
|-0-0-0-0-0-0-0-0-0-0-0-0-|-0-0-0-0-0-0-0-0-0-0-0-0-|-2-------|
|-------------------------|-------------------------|-2-------|
|-------------------------|-------------------------|-0-------|


   Verse (00:42)
    Am
   4/4
    E S S S S E E S S S S S S   E S S S S E E S S S S E
||----------------------------|-------------------------|
||o---------------------------|-------------------------|
||--2---------2-2-------------|-2---------2-2---------2-|
||--2---------2-2-------------|-2---------2-2---------2-|
||o-0-0-0-0-0-0-0-0-0-0-0-0-0-|-0-0-0-0-0-0-0-0-0-0-0-0-|
||----------------------------|-------------------------|


  Dm                 C           G
  H    +E  E +E  E   E S S S S E E E E E
|------------------|-----------------------|
|-3----(3)-3-(3)-3-|-----------------------|
|-2----(2)-2-(2)-2-|-5---------5-----------|
|-0----(0)-0-(0)-0-|-5---------5-----------|
|-0----(0)-0-(0)-0-|-3-3-3-3-3-3-5-5-5-5---|
|------------------|-------------3-3-3-3---|


  Am
  E S S S S E E S S S S E   E S S S S E E S S S S E
|-------------------------|-------------------------|
|-------------------------|-------------------------|
|-2---------2-2---------2-|-2---------2-2---------2-|
|-2---------2-2---------2-|-2---------2-2---------2-|
|-0-0-0-0-0-0-0-0-0-0-0-0-|-0-0-0-0-0-0-0-0-0-0-0-0-|
|-------------------------|-------------------------|


  F                         Dm              G
  E S S E S S E S S E S S   S S S S S S S S S S S S S S S S
|-------------------------|------------------------------------|
|-------------------------|------------------------------------|
|-------------------------|------------------------------------|
|-------------------------|------------------------------------|
|-3-----3-----3-----3-----|-5-5-5-5-5-5-5-5--------------------|
|-1-1-1-1-1-1-1-1-1-1-1-1-|-----------------3-3-3-3-3-3-3-3----|


  Am
  E S S S S E E S S S S E   E S S S S E E S S S S E
|-------------------------|-------------------------|
|-------------------------|-------------------------|
|-2---------2-2---------2-|-2---------2-2---------2-|
|-2---------2-2---------2-|-2---------2-2---------2-|
|-0-0-0-0-0-0-0-0-0-0-0-0-|-0-0-0-0-0-0-0-0-0-0-0-0-|
|-------------------------|-------------------------|


  Dm                 C         G
  H    +E  E +E  E   E S S S S E E E E E
|------------------|-----------------------|
|-3----(3)-3-(3)-3-|-----------------------|
|-2----(2)-2-(2)-2-|-5---------5-----------|
|-0----(0)-0-(0)-0-|-5---------5-----------|
|-0----(0)-0-(0)-0-|-3-3-3-3-3-3-5-5-5-5---|
|------------------|-------------3-3-3-3---|


  Am
  E S S S S E E S S S S E   E S S S S E E E Q
|-------------------------|--------------------|
|-------------------------|--------------------|
|-2---------2-2---------2-|-2---------2-2-2-2--|
|-2---------2-2---------2-|-2---------2-2-2-2--|
|-0-0-0-0-0-0-0-0-0-0-0-0-|-0-0-0-0-0-0-0-0-0--|
|-------------------------|--------------------|


  F                         Dm              G
  E S S E S S E S S E S S   S S S S S S S S S S S S S S S S
|-------------------------|----------------------------------|
|-------------------------|----------------------------------|
|-------------------------|----------------------------------|
|-------------------------|----------------------------------|
|-3-----3-----3-----3-----|-5-5-5-5-5-5-5-5------------------|
|-1-1-1-1-1-1-1-1-1-1-1-1-|-----------------3-3-3-3-3-3-3-3--|


 Bridge (1:06)
  Dm         Am   G        F                         C    G
  W          H    E E Q    E S S S S E E S S S S E   H    E E Q
|----------|-------------|-------------------------|-------------|
|-3--------|-------------|-------------------------|-------------|
|-2--------|-2-----------|-------------------------|-5-----------|
|-0--------|-2----5---5--|-------------------------|-5----5---5--|
|----------|-0----5---5--|-3---------3-3---------3-|-3----5---5--|
|----------|------3---3--|-1-1-1-1-1-1-1-1-1-1-1-1-|------3---3--|


  F                         Am   G
  S S E S S E S S E S S E   H    E E Q
|-------------------------|-------------|
|-------------------------|-------------|
|-------------------------|-2-----------|
|-------------------------|-2----5---5--|
|-----3-----3-----3-----3-|-0----5---5--|
|-1-1-1-1-1-1-1-1-1-1-1-1-|------3---3--|


                           1.
  F                         E
  E S S S S E E S S S S E   E E E E Q  Q
|-------------------------|----------------|
|-------------------------|----------------|
|-------------------------|----------------|
|-------------------------|----------------|
|-3---------3-3---------3-|-2-2-2-2-2------|
|-1-1-1-1-1-1-1-1-1-1-1-1-|-0-0-0-0-0------|


  Am                                E7/D
  E S S E E S S E E S S   E E S S E S S E S S E
|-----------------------|-----------------------|
|-----------------------|-----------------------|
|---5-4-5---5-4-5---5-4-|-5---5-4-5-----7-----7-|
|-7-------7-------7-----|---7-------------------|
|-----------------------|-----------5-5---5-5---|
|-----------------------|-----------------------|


  Am                                C     G/B
  E S S E E S S E E S S   E E S S E S S E S S E
|-----------------------|-----------------------|
|-----------------------|---------------------0-|
|---5-4-5---5-4-5---5-4-|-5---5-4-5-----5-----7-|
|-7-------7-------7-----|---7-----------5-----5-|
|-----------------------|-----------3-3-3-2-2---|
|-----------------------|-----------------------|


  Am                                E7/D          Dm           E
                                                  ~            ~
                                                       |-3-|        |-3-|
  E S S E E S S E E S S   E E S S E S S E S S E   H    Q Q Q   H    Q Q Q
|-----------------------|-----------------------|------------|-------------||
|-----------------------|-----------------------|--------5-6-|-5----5-7-9-o||
|---5-4-5---5-4-5---5-4-|-5---5-4-5-----7-----7-|-7----7-----|-------------||
|-7-------7-------7-----|---7-------------------|------------|-------------||
|-----------------------|-----------5-5---5-5---|------------|------------o||
|-----------------------|-----------------------|------------|-------------||


 Chorus (2:03)
  2.
  G               C          G          Am         Em
  E E E E Q  Q    W          W          W          W
|---------------|----------|----------|----------|------|
|---------------|----------|----------|----------|------|
|---------------|-5--------|----------|-2--------|-9----|
|---------------|-5--------|-5--------|-2--------|-9----|
|-5-5-5-5-5-----|-3--------|-5--------|-0--------|-7----|
|-3-3-3-3-3-----|----------|-3--------|----------|------|


  F                         C
  E S S S S E E S S S S E   E S S S S E E S S S S E
|-------------------------|-------------------------|
|-------------------------|-------------------------|
|-------------------------|-------------------------|
|-------------------------|-5---------5-5---------5-|
|-3---------3-3---------3-|-3-3-3-3-3-3-3-3-3-3-3-3-|
|-1-1-1-1-1-1-1-1-1-1-1-1-|-------------------------|


  G
  S S S S S S S S S S S S S S S S   S S S S S S S S S S S S S S S S
|---------------------------------|---------------------------------|
|---------------------------------|---------------------------------|
|---------------------------------|---------------------------------|
|---------------------------------|---------------------------------|
|---------------------------------|---------------------------------|
|-3-3-3-3-3-3-3-3-3-3-3-3-3-3-3-3-|-3-3-3-3-3-3-3-3-3-3-3-3-3-3-3-3-|


  C          G/B  G      Am   Em/Am/C Em/G C
  W          H    H      H    Q  Q    H    H
|----------|-----------|------------|-----------|
|----------|-----------|------------|-----------|
|-5--------|-----------|------------|-----------|
|-5--------|-5---------|-2----4--5--|-----------|
|-3--------|-2---------|-0----2--3--|-2----2----|
|----------|------3----|------------|-3----0----|


  F                           G
  E S S S S E E S S S S S S   Q  Q  H
|---------------------------|------------|
|---------------------------|------------|
|---------------------------|------------|
|---------------------------|------------|
|-3---------3-3-------------|-5----------|
|-1-1-1-1-1-1-1-1-1-1-1-1-1-|-3----------|


  Am
  E S S E E S S E E S S   E E S S E Q  Q
|-----------------------|-----------5--5--||
|-----------------------|-----------5--5--||
|---5-4-5---5-4-5---5-4-|-5---5-4-5-5--5--||
|-7-------7-------7-----|---7-------7--7--||
|-----------------------|-----------------||
|-----------------------|-----------------||


 Guitar Solo (2:29)
  Dm                   A/C#       Dm                     C
  ~~~~~~~              ~~~~~~~~~~~~~~                     ~~~
  Q.   E +Q   E E      W          Q.    E   +Q    E  E    W
|--------------------|----------|----------------------|-[8]--------|
|-6----6-(6)--8-8b10r|=8--------|-6----[6]-([6])--8s10-|------------|
|--------------------|----------|----------------------|------------|
|--------------------|----------|----------------------|------------|
|--------------------|----------|----------------------|------------|
|--------------------|----------|----------------------|------------|


  F                 C                          Bb
    PM|   PM|                           ~        PM|   PM|
  E E E E E E E E   a     +Q.       S S H      E E E E E E E  E
|-5-----6-----6h8-|--------------------------|------------------||
|---6-6---6-6-----|-8b10==(8)pb10r==8p6-8----|-6-----8-----8s10-||
|-----------------|--------------------------|---7-7---7-7------||
|-----------------|--------------------------|------------------||
|-----------------|--------------------------|------------------||
|-----------------|--------------------------|------------------||


  A7
  Gtr I
   S  S  S  S  S  S  S  S  S  S  S  S  S S  S S
|--------------6--------6--9--6-----------------|
|-10--6--8-10-----8-10----------10--8--6--------|
|----------------------------------------9--7-6-|
|-----------------------------------------------|
|-----------------------------------------------|
|-----------------------------------------------|
|
| Gtr II
|  S  S  S  S  S  S  S  S  S  S  S  S  S S  S S
|--9--------9-10-----9-10-12-10--9--------------|
|----10-11-------11----------------11-10-8------|
|------------------------------------------10-9-|
|-----------------------------------------------|
|-----------------------------------------------|
|-----------------------------------------------|


  Dm                            A/C#       Dm
  ~~~~~~~                       ~
  Q.   E +Q   E a     +E        W           Q.    E  +Q   E  E
|-----------------------------|----------|---------------------|
|-6----6-(6)--8-8b10==(8)pb10-|-8--------|--6-----6--(6)--8s10-|
|-----------------------------|----------|---------------------|
|-----------------------------|----------|---------------------|
|-----------------------------|----------|---------------------|
|-----------------------------|----------|---------------------|
|
| ~~~~~~~                       ~
| Q.   E +Q   E a     +E        W           Q.    E  +Q   E  E
|-----------------------------|----------|----------------8s10-|
|-----------------------------|----------|-10----10-(10)-------|
|-7----7-(7)--9-9b10--(9)pb10-|-9--------|---------------------|
|-----------------------------|----------|---------------------|
|-----------------------------|----------|---------------------|
|-----------------------------|----------|---------------------|


  C          F                         C
  ~              PM|      PM|
  W           E  E  E  E  E  E  E  E    a      +Q.        S  S  H
|----------|-------------------------|-------------------------------|
|-8--------|-10-------11-------11h13-|-------------------------------|
|----------|----10-10----10-10-------|-12b14==(12)pb14---12p10-12----|
|----------|-------------------------|-------------------------------|
|----------|-------------------------|-------------------------------|
|----------|-------------------------|-------------------------------|
|
| ~              PM|      PM|
| W           E  E  E  E  E  E  E  E    a      +Q.        S  S  H
|----------|--8-------10-------12h13-|-------------------------------|
|-8--------|----10-10----10-10-------|-13b15--(13)pb15---13p11-13----|
|----------|-------------------------|-------------------------------|
|----------|-------------------------|-------------------------------|
|----------|-------------------------|-------------------------------|
|----------|-------------------------|-------------------------------|


  Bb                                    E7
   ~~~                                   ~~~      ~~
   Q.       E  a      +Q.        S  S    Q.    E  H
|-------------------------------------|----------------||
|-------------------------------------|-------10-12----||
|-10-------12-12b14==(12)pb14---12p10-|-13-------------||
|-------------------------------------|----------------||
|-------------------------------------|----------------||
|-------------------------------------|----------------||
|
|                                        ~~~      ~~
|  E  E  E  E  a       Q.        S  S    Q.    E  H
|-------------------------------------|----------10----||
|-10h11p10h11-11b13---11pb13----11p10-|-12----13-------||
|-------------------------------------|----------------||
|-------------------------------------|----------------||
|-------------------------------------|----------------||
|-------------------------------------|----------------||


  F
                                                                    ~~~~~~~~~~~~~~~~
                                           |--3--|
   S  S  E  +Q    +E   S  S  S  S  S  S    S  S  S  S  S  S  S     +E       +H
|------------------------------------17-|-19h20p19p17-15-17----------------------------|
|---------------------------------17----|-------------------20b22-(20)pb22-(20)pb22----|
|------------------------------17-------|----------------------------------------------|
|---------------------------19----------|----------------------------------------------|
|---------------------15h19-------------|----------------------------------------------|
|-15-16-17-(17)--(17)-------------------|----------------------------------------------|


  C                          G/B
   +E       S  S  S  S  S  S  S  S  S  S  S  S  S  S
|----------17-------20p17----17----------------------|
|-(20)pb22----20p17-------20----20p17----17----------|
|-------------------------------------20----20p19p17-|
|----------------------------------------------------|
|----------------------------------------------------|
|----------------------------------------------------|


  C/A                        G                F
                                    ~~~~~~~
         |--3--|
   S  S  S  S  S  S  S  S  S  S  S  E  +Q     E  S  S  S  S  S  S  S  S  S  S  S  S  S  S
|-------------------------------------------|------------------------------------------15-|
|-------17-20p17-------17-------------------|---------------------------------------------|
|-19h20----------20p19----20p19p17-19-(19)--|------------14----------------16-17-14-16----|
|-------------------------------------------|---14-15-17----17-15-14-15-17----------------|
|-------------------------------------------|---------------------------------------------|
|-------------------------------------------|---------------------------------------------|


  Dm                                                                G
   |------6-------|        |--3--|        |--3--|                     |--3---|
   S  S  S  S  S  S  S  S  S  S  S  S  S  S  S  S  a     +Q          +Q   Q  Q  E  E  E  E
|----------------------17-------------15--------------------------|------------------17-19--|
|-----------------------------------------------------------------|------------17-18--------|
|-17p16p14-17p16p14-17----17p16p14-17----17p16p14-17b19-(17)pb19--|-(17)-16-17--------------|
|-----------------------------------------------------------------|-------------------------|
|-----------------------------------------------------------------|-------------------------|
|-----------------------------------------------------------------|-------------------------|


  Am              G         F
                    ~~~~
   E  a     +Q.    +H        S  S  S  S  S  S  S  S  S  S  S  S  S  S  S  S
|-20-22b24-(22)---(22)----|-17p13-------17p13-17p13-15p12-------15p12-------|
|-------------------------|-------15----------------------13----------13----|
|-------------------------|----------14----------------------14----------14-|
|-------------------------|-------------------------------------------------|
|-------------------------|-------------------------------------------------|
|-------------------------|-------------------------------------------------|


                                                    C                 G/B
   S  S  S  S  S  S  S  S  S  S  S  S  S  S  S  S    E  E  E  E  a     +Q    Q
|-17p13-------17p13-17p13-15p12-------15p12-------|----12-12-15------------------|
|-------15----------------------13----------13----|-15----------15b17-(15)--15---|
|----------14----------------------14----------14-|------------------------------|
|-------------------------------------------------|------------------------------|
|-------------------------------------------------|------------------------------|
|-------------------------------------------------|------------------------------|


  C/E                  G/D         F
         |--3--|
   S  S  S  S  S  E  E  E  E  Q     S  S  S  S  S  S  S  S  S  S  S  S  S  S  S  S
|-19h20-19h20p19-17-19-20-19-----|-20p17-------20p17-------------------------------|
|----------------------------20--|-------18----------18-------------------------18-|
|--------------------------------|----------19----------19----------------17-19----|
|--------------------------------|-------------------------19----------19----------|
|--------------------------------|----------------------------20-17-20-------------|
|--------------------------------|-------------------------------------------------|


  Dm
                                             |--3--|
   S  S  S  S  S  S  S  S  S  S  S  S  S  S  S  S  S
|-17-------17-----------------------------------------|
|----18-20----18--------------------------------------|
|----------------19----------------17-16h17-16h17p16--|
|-------------------19----------19--------------------|
|----------------------20-17-20-----------------------|
|-----------------------------------------------------|


  E
                       ~~~~~
   |--3--|  |--3--|
   Q  Q  Q  Q  Q  Q    W
|-------------------|--------------|
|-------------19-21-|-21b23--------|
|-------16-21-------|--------------|
|----18-------------|--------------|
|-19----------------|--------------|
|-------------------|--------------|


                 E
  Wx4            S S S S E E S S S S S  S S S
|------------||-------------------------------|
|------------||o------------------------------|
|------------||----------7-5---------9s11-----|
|------------||-------------------------------|
|------------||o---------5-3---------7s=9-----|
|------------||--0-0-0-0-----0-0-0-0------0-0-|


  E
   S  S S S S S  S  S S S S S S S S S   S S S S E E S S S S S  S S S
|-------------------------------------|------------------------------|
|-------------------------------------|------------------------------|
|-11s12---------14s12-----------------|---------7-5---------9s11-----|
|-----------------------------2-0-----|------------------------------|
|--9s10---------12s10-------------2-0-|---------5-3---------7s=9-----|
|-------0-0-0-0-------0-0-0-0---------|-0-0-0-0-----0-0-0-0------0-0-|


                                        1.
                      C#m
                                 |-3-|     |-3-|
   S  S S S E E E E E E   +H     Q Q Q   a Q Q Q Q  E E
|-----------------------|--------------|-----------------||
|-----------------------|--------4-5-7-|-7s9-7s5-4------o||
|-11s12-----------------|--------4-4-6-|-6s8-6s4-4--6----||
|-------------------7-6-|-(6)----------|------------6----||
|--9s10-------0-2p0-5-4-|-(4)----------|----------------o||
|-------0-0-3-----------|--------------|--------------0--||


  2.
    C#m        D              E                   A
    |-3-|                 |-3-|    |-3-|
  a Q Q Q Q  E E   +H     Q Q Q    Q Q Q Q   Q     Q  Q  H      W
|----------------|--------------|---------------|-------------|------|
|-7s9-7s5-4------|----------7-9-|-10-9-7-9--10--|-10----------|------|
|-6s8-6s4-4--6---|--------7-7-9-|--9-9-9-9---9--|--9----------|------|
|------------6-7-|-(7)----------|---------------|-------------|------|
|--------------5-|-(5)----------|---------------|-------------|------|
|----------------|--------------|---------------|-------------|------|


               Out-Chorus (4:20)
  G             D          A          Bm         F#m
  Q  Q  H       W          W          W          W
|------------||-2--------|----------|----------|----------|
|------------||-3--------|----------|----------|----------|
|------------||-2--------|-2--------|-4--------|----------|
|------------||-0--------|-2--------|-4--------|-4--------|
|-5----------||----------|-0--------|-2--------|-4--------|
|-3----------||----------|----------|----------|-2--------|


  G                             D                                 A
  E S S S S S S E S S S S S S   S S S S S S S S S S S S S S S S   Q  Q  +Q   Q
|-----------------------------|---------------------------------|-----------------|
|-----------------------------|---------------------------------|-----------------|
|-----------------------------|---------------------------------|-2--2--(2)--2----|
|-5-------------5-------------|---------------------------------|-2--2--(2)--2----|
|-5-------------5-------------|-5-5-5-5-5-5-5-5-5-5-5-5-5-5-5-5-|-0--0--(0)--0----|
|-3-3-3-3-3-3-3-3-3-3-3-3-3-3-|---------------------------------|-----------------|


  A                                   D          A/C# A
  S S S S S S S S S S S S S S S S     W          H    H
|---------------------------------||--2--------|-----------|
|---------------------------------||o-3--------|-----------|
|---------------------------------||--2--------|-2---------|
|---------------------------------||--0--------|-2---------|
|-0-0-0-0-0-0-0-0-0-0-0-0-0-0-0-0-||o----------|-4----0----|
|---------------------------------||-----------|-----------|


                                                         1.
  Bm   F#m/D#   F#m/AF#m    G                             A
  H    Q   Q    H    H      E S S S S S S E S S S S S S   W
|-------------|-----------|-----------------------------|-------||
|-------------|-----------|-----------------------------|------o||
|------6---7--|-----------|-----------------------------|-------||
|-4-----------|-----------|-5-------------5-------------|-2-----||
|-2----4---5--|-0----4----|-5-------------5-------------|-0----o||
|-------------|------2----|-3-3-3-3-3-3-3-3-3-3-3-3-3-3-|-------||


  2.
  A                             Bm
  E S S S S S S E S S S S S S   E S S E E S S E E S S
|-----------------------------|-----------------------|
|-----------------------------|-----------------------|
|-2-------------2-------------|---7-6-7---7-6-7---7-6-|
|-2-------------2-------------|-9-------9-------9-----|
|-0-0-0-0-0-0-0-0-0-0-0-0-0-0-|-----------------------|
|-----------------------------|-----------------------|
|
| Gtr II
| W                             E S S E E S S E E S S
|-----------------------------|-----------------------|
|-----------------------------|---7-5-7---7-5-7---7-5-|
|-----------------------------|-7-------7-------7-----|
|-----------------------------|-----------------------|
|-----------------------------|-----------------------|
|-----------------------------|-----------------------|


               A    G                 A
  E E S S E Q  Q    E E E E E E E E   E S S S S E E S S S S E
|-----------------|-----------------|-------------------------|
|-----------------|-----------------|-------------------------|
|-7---7-6-7-------|-----------------|-2---------2-2---------2-|
|---9-------9--7--|-----------------|-2---------2-2---------2-|
|-----------------|-5-5-5-5-5-5-5-5-|-0-0-0-0-0-0-0-0-0-0-0-0-|
|-----------------|-3-3-3-3-3-3-3-3-|-------------------------|
|
| E E S S E Q  Q      W                   W
|-----------------|-----------------|-------------------------|
|-7---7-5-7-------|-----------------|-------------------------|
|---7-------7--6--|-----------------|-------------------------|
|-----------------|-----------------|-------------------------|
|-----------------|-----------------|-------------------------|
|-----------------|-----------------|-------------------------|


  Bm                                    A
  E S S E E S S E E S S   E E S S E Q   Q
|-----------------------|------------------|
|-----------------------|------------------|
|---7-6-7---7-6-7---7-6-|-7---7-6-7--------|
|-9-------9-------9-----|---9-------9---7--|
|-----------------------|------------------|
|-----------------------|------------------|
|
| E S S E E S S E E S S   E E S S E Q Q
|-----------------------|------------------|
|---7-5-7---7-5-7---7-5-|-7---7-5-7--------|
|-7-------7-------7-----|---7-------7-6----|
|-----------------------|------------------|
|-----------------------|------------------|
|-----------------------|------------------|


  G                             A
  E S S S S S S E S S S S S S   Q  Q  H
|-----------------------------|------------*|
|-----------------------------|------------*|
|-----------------------------|------------*|
|-5-------------5-------------|-2----------*|
|-5-------------5-------------|-0----------*|
|-3-3-3-3-3-3-3-3-3-3-3-3-3-3-|------------*|
|
|       W                       W
|-----------------------------|------------*|
|-----------------------------|------------*|
|-----------------------------|------------*|
|-----------------------------|------------*|
|-----------------------------|------------*|
|-----------------------------|------------*|



Duration Legend
---------------
W - whole; H - half; Q - quarter; E - 8th; S - 16th; T - 32nd; X - 64th; a - acciaccatura
+ - note tied to previous; . - note dotted; .. - note double dotted
Uncapitalized letters represent notes that are staccato (1/2 duration)
Irregular groupings are notated above the duration line
Duration letters will always appear directly above the note/fret number it represents the
duration for.  Duration letters with no fret number below them represent rests.  Multi-
bar rests are notated in the form Wxn, where n is the number of bars to rest for.  Low
melody durations appear below the staff

Tablature Legend
----------------
 h   - hammer-on
 p   - pull-off
 b   - bend
 pb  - pre-bend
 r   - bend release (if no number after the r, then release immediately)
 /\  - slide into or out of (from/to "nowhere")
 s   - legato slide
 S   - shift slide
<n> - natural harmonic
[n]  - artificial harmonic
n(n) - tapped harmonic
 ~   - vibrato
 tr  - trill
 T   - tap
 TP  - trem. picking
 PM  - palm muting
\n/  - tremolo bar dip; n = amount to dip
 \n  - tremolo bar down
 n/  - tremolo bar up
/n\  - tremolo bar inverted dip
 =   - hold bend; also acts as connecting device for hammers/pulls
 <> - volume swell (louder/softer)
 x   - on rhythm slash represents muted slash
 o   - on rhythm slash represents single note slash

Misc Legend
-----------
 |  - bar
||  - double bar
||o - repeat start
o|| - repeat end
*|  - double bar (ending)
 :  - bar (freetime)
 $  - Segno
 &  - Coda
Tempo markers - <E/E./Q/Q./H/H.> = BPM(8/16=s8/s16), where s8 = swing 8ths, s16 = swing 16ths

comments
We did not receive enough feedback on this tab! Please rate:
print report bad tab
1 2 3 4 5
I want to post or [tab]
guest
You may want to rate the tab now too:
select rating
Please do not post tabs as comments. Select "correction" instead!