Oops, an error
Loading. Please wait.

Millenium Sun Tab

ver1
ver1

Whole song

Interactive

More versions @911Tabs.com
1,818 views 9 this week
no commentswrite comment
1 2 3 4 5
accurate
x 1
Autoscroll
+/-
esc
set tempo
stop
Contributor
Hey! There's an official Ultimate Guitar app which is ideal
for learning songs when you're away from computer. Get the app
WARNING: You are trying to view
                                    content from Ultimate-Guitar.com
                                    in an unauthorized application,
                                    which is prohibited.

                                    Please use an official Ultimate
                                    Guitar Tabs application for iPhone,
                                    iPad or Android to access legitimate
                                    chords, guitar, bass, and drum tabs
                                    from Ultimate-Guitar.com database.

                                    Type "ultimate guitar tabs" in Apple
                                    App Store's or Android Market's
                                    search to find the application.
#----------------------------------PLEASE NOTE---------------------------------#
#This file is the author's own work and represents their interpretation of the #
#song. You may only use this file for private study, scholarship, or research. #
#------------------------------------------------------------------------------#

MILLENIUM SUN
As recorded by Angra
(From the 2001 Album REBIRTH)

Transcribed by Fabiano Rodrigues
        

Words by Bittencourt Music by Loureiro and Bittencourt
Arranged by LCR

Gtr I (E A D G B E) - 'Untitled'
Gtr II (E A D G B E) - 'Untitled'

 Keyboard Intro (0:00)
  Dm13       Am7         Dm13        Am7
 4/4
  Gtr I
  W           W           W           W
|----------|-----------|-----------|-------|
|----------|-----------|-----------|-------|
|----------|-----------|-----------|-------|
|----------|-----------|-----------|-------|
|----------|-----------|-----------|-------|
|----------|-----------|-----------|-------|


  Bm7b5E      Am Am/D/F#   Fmaj7G      C
  H    H      Q  Q  H      H    H      W
|-----------|------------|-----------|------||
|-----------|------------|-----------|------||
|-----------|------------|-----------|------||
|-----------|------------|-----------|------||
|-----------|------------|-----------|------||
|-----------|------------|-----------|------||


  Bbm        Bbm/Ab     F#maj7     F
  W          W          W          W
|----------|----------|----------|------|
|----------|----------|----------|------|
|----------|----------|----------|------|
|----------|----------|----------|------|
|----------|----------|----------|------|
|----------|----------|----------|------|


  Bbm        Bbm/Ab     F#maj7     F          F
  W          W          W          W          W
|----------|----------|----------|----------|------||
|----------|----------|----------|----------|------||
|----------|----------|----------|----------|------||
|----------|----------|----------|----------|------||
|----------|----------|----------|----------|------||
|----------|----------|----------|----------|------||


 Guitars In (1:26)
  Q.=144
  E
 12/8
  Gtr I
  W.              +W.              +W.                           +W.
|-2-------------|-(2)------------|-(2)-------------------------|-(2)----|
|-5-------------|-(5)------------|-(5)-------------------------|-(5)----|
|-4-------------|-(4)------------|-(4)-------------------------|-(4)----|
|-2-------------|-(2)------------|-(2)-------------------------|-(2)----|
|-2-------------|-(2)------------|-(2)-------------------------|-(2)----|
|-0-------------|-(0)------------|-(0)-------------------------|-(0)----|
|
| Gtr II
| W                W                Q    Q   Q   +Q.    +E  Q     W
|---------------|----------------|-----------------------------|--------|
|---------------|----------------|----------17--(17)---(17)----|--------|
|---------------|----------------|------16---------------------|--------|
|---------------|----------------|-14--------------------------|--------|
|---------------|----------------|-----------------------------|--------|
|---------------|----------------|-----------------------------|--------|


    A            A7 A          A#11A7+11   B
    Gtrs I, II
     Q   E E E E Q   E E E E    Q  E E E E Q.   E E E
||---------------------------|------------------------|
||o-10--10-------8--10-------|-10--7-------7----------|
||---9---9-------9---9-------|--8--8-------8----------|
||---7---7-------7---7-------|--7--7-------9----------|
||o--------0-0-0-------0-0-0-|-------0-0-0------0-0-0-|
||---------------------------|------------------------|


                             1.
  F#11             F          Am7 G        D
   Q   E E E E  Q   E E E E    Q   E E E E  H.
|---------------------------|----------------------||
|-12--12-------12--10-------|-13--12-------10-----o||
|-10--10-------10--10-------|-12--12-------11------||
|--9---9-------10--10-------|-14--12-------12------||
|--------0-0-0--------0-0-0-|--------0-0-0--------o||
|---------------------------|----------------------||


  2.
  F#m                       C#m
   Q.   E E E E E E E E E   Q  E E E E Q  E E E E   E E E E E E E E E E E E
|-------------------------|-----------------------|-------------------------|
|-10----------------------|-----------------------|-------------------------|
|--9----------------------|-----------------------|-------------------------|
|-11----------7p5---5-----|-6--6-------6--6-------|-------------------------|
|-------0-0-0-----7---7-6-|-4--4-4-4-4-4--4-4-4-4-|-4-2---2-----4-2---2-----|
|-------------------------|-----------------------|-----4---4-2-----4---4-0-|


  F#m                                              B
  Q  E E E E Q  E E E E   E E E E E E Q  E E E E   Q  E E E E Q  E E E E
|-----------------------|------------------------|-----------------------|
|-----------------------|------------------------|-----------------------|
|-----------------------|------------------------|-----------------------|
|----4-------2--4-------|-----4-------2--4-------|-4--4-------4--4-------|
|----4-------2--4-------|-----4-------2--4-------|-2--2-2-2-2-2--2-2-2-2-|
|-2----2-2-2------2-2-2-|-2-2---2-0-2------2-0-2-|-----------------------|


                            C#m
  Gtr I
  E E E E E E E E E E E E   Q  E E E E Q  E E E E
|-------2p0---0-----0-----|-----------------------|
|-4---4-----4---4-----4---|-----------------------|
|---4-------------4-----4-|-----------------------|
|-------------------------|-6--6-------6--6-------|
|-------------------------|-4--4-4-4-4-4--4-4-4-4-|
|-------------------------|-----------------------|
|
| Gtr II
| E E E E E E E E E E E E   Q  E E E E Q  E E E E
|-------2p0---0-----0-----|-----------------------|
|-4---4-----4---4-----4---|-----------------------|
|---4-------------4-----4-|-----------------------|
|-------------------------|-6--6-------6--6-------|
|-------------------------|-4--4-4-4-4-4--4-4-4-4-|
|-------------------------|-----------------------|


  S  S E  E E  E E E  E E  E E E
|---------------------------------|
|---------------------------------|
|---------------------------------|
|---------------------------------|
|-6--7-6----6----6S4----4---------|
|---------9----9------7----7-5-4--|
|
| S  S E  E E  E E E  E E  E E E
|---------------------------------|
|---------------------------------|
|---------------------------------|
|---------------------------------|
|-9-11-9----9----9S7----7---------|
|--------12---12-----11---11-9-7--|


  C#m                                               F#m
  Gtrs I, II
  Q  E E E E Q  E E E E   E E E E E E E E E E E E   Q  E E E E Q  E E E E
|-----------------------|-------------------------|-----------------------|
|-----------------------|-------------------------|-----------------------|
|-----------------------|-------------------------|-----------------------|
|-6--6-------6--6-------|-------------------------|----4-------2--4-------|
|-4--4-4-4-4-4--4-4-4-4-|-4-2---2-----4-2---2-----|----4-------2--4-------|
|-----------------------|-----4---4-2-----4---4-0-|-2----2-2-2------2-2-2-|


  F#m                      A
  E E E E E E Q  E E E E   W.              +W.
|------------------------|---------------|--------|
|------------------------|---------------|--------|
|------------------------|---------------|--------|
|-----4-------2--4-------|-2-------------|-(2)----|
|-----4-------2--4-------|-0-------------|-(0)----|
|-2-2---2-0-2------2-0-2-|---------------|--------|


  E/G#                             G               D/F#
  W.              +W.              W.              W.
|---------------|----------------|-3-------------|-------|
|-5-------------|-(5)------------|-3-------------|-3-----|
|-4-------------|-(4)------------|-0-------------|-2-----|
|-2-------------|-(2)------------|-0-------------|-0-----|
|---------------|----------------|---------------|-------|
|-4-------------|-(4)------------|-3-------------|-2-----|


  A            A7 A          A#11A7+11   B
   Q   E E E E Q   E E E E    Q  E E E E Q.   E E E
|--------------------------|------------------------|
|-10--10-------8--10-------|-10--7-------7----------|
|--9---9-------9---9-------|--8--8-------8----------|
|--7---7-------7---7-------|--7--7-------9----------|
|--------0-0-0-------0-0-0-|-------0-0-0------0-0-0-|
|--------------------------|------------------------|


  F#11             F          Am7 G        D
   Q   E E E E  Q   E E E E    Q   E E E E  H.
|---------------------------|---------------------|
|-12--12-------12--10-------|-13--12-------10-----|
|-10--10-------10--10-------|-12--12-------11-----|
|--9---9-------10--10-------|-14--12-------12-----|
|--------0-0-0--------0-0-0-|--------0-0-0--------|
|---------------------------|---------------------|


  C#m                                               F#m
  Q  E E E E Q  E E E E   E E E E E E E E E E E E   Q  E E E E Q  E E E E
|-----------------------|-------------------------|-----------------------|
|-----------------------|-------------------------|-----------------------|
|-----------------------|-------------------------|-----------------------|
|-6--6-------6--6-------|-------------------------|----4-------2--4-------|
|-4--4-4-4-4-4--4-4-4-4-|-4-2---2-----4-2---2-----|----4-------2--4-------|
|-----------------------|-----4---4-2-----4---4-0-|-2----2-2-2------2-2-2-|


                           B
  E E E E E E Q  E E E E   Q  E E E E Q  E E E E   E E E E E E E E E E E E
|------------------------|-----------------------|-------2p0---0-----0-----|
|------------------------|-----------------------|-4---4-----4---4-----4---|
|------------------------|-----------------------|---4-------------4-----4-|
|-----4-------2--4-------|-4--4-------4--4-------|-------------------------|
|-----4-------2--4-------|-2--2-2-2-2-2--2-2-2-2-|-------------------------|
|-2-2---2-0-2------2-0-2-|-----------------------|-------------------------|


  C#m
  Gtr I
  Q  E E E E Q  E E E E
|-----------------------|
|-----------------------|
|-----------------------|
|-6--6-------6--6-------|
|-4--4-4-4-4-4--4-4-4-4-|
|-----------------------|
|
| Gtr II
| Q  E E E E Q  E E E E
|-----------------------|
|-----------------------|
|-----------------------|
|-6--6-------6--6-------|
|-4--4-4-4-4-4--4-4-4-4-|
|-----------------------|


                                     C#m
  S  S E  E E  E E  E  E E  E E  E   Q  E E E E Q  E E E E
|----------------------------------|------------------------|
|----------------------------------|------------------------|
|----------------------------------|------------------------|
|-6--7-6----7----6-----------------|-6--6-------6--6--------|
|---------9----9----9--7-6----6----|-4--4-4-4-4-4--4-4-4-4--|
|---------------------------9----7-|------------------------|
|
| S  S E  E E  E E  E  E E  E E  E   Q  E E E E Q  E E E E
|----------------------------------|------------------------|
|----------------------------------|------------------------|
|----------------------------------|------------------------|
|-9-11-9----9----9-----------------|-6--6-------6--6--------|
|--------12---12---12-11-9-11-9----|-4--4-4-4-4-4--4-4-4-4--|
|-------------------------------11-|------------------------|


                            F#m
  Gtrs I, II
  E E E E E E E E E E E E   Q  E E E E Q  E E E E   E E E E E E Q  E E E E
|-------------------------|-----------------------|------------------------|
|-------------------------|-----------------------|------------------------|
|-------------------------|-----------------------|------------------------|
|-------------------------|----4-------2--4-------|-----4-------2--4-------|
|-4-2---2-----4-2---2-----|----4-------2--4-------|-----4-------2--4-------|
|-----4---4-2-----4---4-0-|-2----2-2-2------2-2-2-|-2-2---2-0-2------2-0-2-|


  A                                E/G#
  W.              +W.              W.              +W.
|---------------|----------------|---------------|--------|
|---------------|----------------|-5-------------|-(5)----|
|---------------|----------------|-4-------------|-(4)----|
|-2-------------|-(2)------------|-2-------------|-(2)----|
|-0-------------|-(0)------------|---------------|--------|
|---------------|----------------|-4-------------|-(4)----|


  G               D/F#
  W.              W.
|-3-------------|---------------|
|-3-------------|-3-------------|
|-0-------------|-2-------------|
|-0-------------|-0-------------|
|---------------|---------------|
|-3-------------|-2-------------|


  Bm7                     B
  Q  E E E E Q  E E E E   Q  E E E E Q  E E E E
|-----------------------|-------------------------|
|-----------------------|-------------------------|
|----7-------7--7-------|----8-------8--8---------|
|----7-------7--7-------|----9-------9--9---------|
|-----------------------|-------------------------|
|-7----7-7-7------7-7-7-|-7----7-7-7------7-7-7---|


  E5                                              B/D#
  Q  E E E E Q  E E E E   Q  E E E E Q  E E E E   Q  E E E E Q  E E E E
|-----------------------|-----------------------|-----------------------|
|-----------------------|-----------------------|-----------------------|
|-----------------------|-----------------------|-----------------------|
|-9--9-------9--9-------|-9--9-------9--9-------|-9--9-------9--9-------|
|-7--7-7-7-7-7--7-7-7-7-|-7--7-7-7-7-7--7-7-7-7-|-6--6-6-6-6-6--6-6-6-6-|
|-----------------------|-----------------------|-----------------------|


                          C5                      B5
  Q  E E E E Q  E E E E   Q  E E E E Q  E E E E   Q  E E E E Q  E E E E
|-----------------------|-----------------------|-----------------------|
|-----------------------|-----------------------|-----------------------|
|-----------------------|-----------------------|-----------------------|
|-9--9-------9--9-------|-5--5-------5--5-------|-4--4-------4--4-------|
|-6--6-6-6-6-6--6-6-6-6-|-3--3-3-3-3-3--3-3-3-3-|-2--2-2-2-2-2--2-2-2-2-|
|-----------------------|-----------------------|-----------------------|


  A5                                              G5
  Q  E E E E Q  E E E E   Q  E E E E Q  E E E E   Q  E E E E Q  E E E E
|-----------------------|-----------------------|-----------------------|
|-----------------------|-----------------------|-----------------------|
|-----------------------|-----------------------|-----------------------|
|-2--2-------2--2-------|-2--2-------2--2-------|-----------------------|
|-0--0-0-0-0-0--0-0-0-0-|-0--0-0-0-0-0--0-------|-5--5-------5--5-------|
|-----------------------|-----------------2-2-2-|-3--3-3-3-3-3--3-3-3-3-|


                          B5
  Q  E E E E Q  E E E E   Q  E E E E Q  E E E E   Q  E E E E Q  E E E E
|-----------------------|-----------------------|-----------------------|
|-----------------------|-----------------------|-----------------------|
|-----------------------|-----------------------|-----------------------|
|-----------------------|-----------------------|-----------------------|
|-5--5-------5--5-------|-9--9-------9--9-------|-9--9-------9--9-------|
|-3--3-3-3-3-3--3-3-3-3-|-7--7-7-7-7-7--7-7-7-7-|-7--7-7-7-7-7--7-7-7-7-|


  D/C                  Bm
  Q  E E E E Q  H      Q  E E E E Q  H
|--------------------|--------------------|
|--------------------|--------------------|
|----7-------9--7----|----7-------9--7----|
|----7-------7--7----|----7-------7--7----|
|--------------------|--------------------|
|-8----8-8-8---------|-7----7-7-7---------|


  Em
  Q  E E E E E E E E E E   Q  E E E E E E E E E E
|------------------------|--------------------------|
|------------------------|--------------------------|
|------------------------|--------------------------|
|--------2-4-5-4-2-7-5-4-|--------2-4-5-4-2-7-5-4---|
|------------------------|--------------------------|
|-0--0---0-2-3-2-0-5-3-2-|-0--0---0-2-3-2-0-5-3-2---|


 Kiko's Solo (3:18)
  C#m         A               B                   E               F#m
  Gtr I
   a  Q   Q    E  E  H.            +Q.     +E   E  E  Q    Q    Q
|-------------------------------|-----------------------------------|
|-16h17--16---------------------|-----------------------------------|
|-------------18----16----------|-(16)----(16)----------------------|
|----------------18-------------|--------------18s19s18---16s==14---|
|-------------------------------|-----------------------------------|
|-------------------------------|-----------------------------------|
|
| Gtr II
|     Q   E Q     E +Q   E Q  E    +Q   E   Q      E +Q    E Q    E
|---------0--------------0------|-------0------------------0--------|
|-----------4--------------4----|-----------4----------------0------|
|-------------------------------|-----------------------------------|
|-------------------------------|-----------------------------------|
|-----4-----------0-(0)-------2-|--(2)------------------------------|
|-------------------------------|------------------0-(0)----------2-|


               G#m          A                B
   Q    Q    Q    +H.            +H.         H.
|-----------------------------|--------------------------|
|-----------------------------|--------------------------|
|-----------------------------|--------------------------|
|-16S==18---18---(18)---------|-(18)---------------------|
|-----------------------------|--------------------------|
|-----------------------------|--------------------------|
|
| +Q    E Q    E  +Q   E Q  E    +Q   E Q  E Q   E Q  E
|-----------------------------|---------0-------------0--|
|---------0--------------0----|------------0-------------|
|-------2--------------4------|-------4------------6-----|
|-----------------------------|------------------7-------|
|-----------------------------|--------------------------|
|-(2)----------4--(4)-------5-|--(5)---------7-----------|


     C#m         A               B                        E                  F#m
   a  Q   Q    E  E  H.               +Q.     +E    E      +E   +Q    Q    Q
|----------------------------------|-------------------------------------------|
|-16h17--16---------19b21==========|=(19)----(19)r-21b23==(21)r(21)p=19S==17---|
|-------------18-------------------|-------------------------------------------|
|----------------18----------------|-------------------------------------------|
|----------------------------------|-------------------------------------------|
|----------------------------------|-------------------------------------------|
|
|     Q   E Q     E +Q      E Q  E     Q   E   Q            E   +Q    E Q    E
|---------0-----------------0------|-------0--------------------------0--------|
|-----------4-----------------4----|-----------4------------------------0------|
|----------------------------------|-------------------------------------------|
|----------------------------------|-------------------------------------------|
|-----4-----------0-(0)----------2-|---2---------------------------------------|
|----------------------------------|------------------------0---(0)----------2-|


                   G#m          A                B
   Q.     +E   +E   E  H.            +W.
|-19-----(19)-(19)-21p16----------|-(16)--------------------|
|---------------------------------|-------------------------|
|---------------------------------|-------------------------|
|---------------------------------|-------------------------|
|---------------------------------|-------------------------|
|---------------------------------|-------------------------|
|
| +Q   E   Q        E +Q   E Q  E    +Q   E Q  E Q  E Q  E
|---------------------------------|---------0------------0--|
|----------0-----------------0----|------------0------------|
|------2-------------------4------|-------4-----------6-----|
|---------------------------------|-----------------7-------|
|---------------------------------|-------------------------|
|-(2)---------------4-(4)-------5-|--(5)---------7----------|


  C#m          A              B
   H.             +Q.     E E  E
|-------------------------9---------|
|-12b14==========(12)r------9-12b14-|
|-----------------------------------|
|-----------------------------------|
|-----------------------------------|
|-----------------------------------|
|
|  Q      E Q  E  +Q    E Q    E
|---------0-------------0-----------|
|-----------4-------------4---------|
|-----------------------------------|
|-----------------------------------|
|--4-----------0--(0)----------2----|
|-----------------------------------|


                 E           F#m                 G#m            A
   Q    H           H.            Q.     S  S  E E  E   E E E E E
|--9---12b14===================|========11h12p11-9-----------------|
|------------------------------|-------------------12--------------|
|------------------------------|-----------------------11p9S8-9s8--|
|------------------------------|-----------------------------------|
|------------------------------|-----------------------------------|
|------------------------------|-----------------------------------|
|
| +Q    E     Q  E +Q   E Q  E   +Q   E  Q       E +Q     E Q   E
|-------0---------------0------|-----------------------------------|
|-------------4-----------0----|---------0------------------0------|
|------------------------------|------2-------------------4--------|
|------------------------------|-----------------------------------|
|-(2)--------------------------|--------------------------------0--|
|----------------0-(0)-------2-|-(2)-------------4-(4)-------------|


                B            C#m                    A                    B
   E  E E E E E H.           Q.     E      +S   +S  E  E      +Q     E E  E
|--------------------------|-----------------------------------------9----------|
|--------------------------|-------------------------------------------9-12b14==|
|---------------6----------|-------11b13==(11)r(11)-9-11b13==(11)r--------------|
|--9-----------------------|----------------------------------------------------|
|-----9-7-6-7-9------------|----------------------------------------------------|
|--------------------------|----------------------------------------------------|
|
| +Q    E Q   E Q   E Q  E   Q   E  Q               E +Q           E Q    E
|---------0--------------0-|-----0---------------------------------0------------|
|-------0-----0------------|--------4--------------------------------4----------|
|---------------------6----|----------------------------------------------------|
|-------------------7------|----------------------------------------------------|
|-(0)----------------------|-4----------------------0-(0)-----------------2-----|
|---------------7----------|----------------------------------------------------|


               E                      F#m
   +Q.     E E  E      +H        +Q
|----------9---12b14==(12)------(12)r----|
|-(12)r------9---------------------------|
|----------------------------------------|
|----------------------------------------|
|----------------------------------------|
|----------------------------------------|
|
|  +Q    E Q    E      +Q   E Q       E
|--------0------------------0------------|
|----------4------------------0----------|
|----------------------------------------|
|----------------------------------------|
|--(2)-----------------------------------|
|---------------0------(0)------------2--|


             G#m                   A
   Q   Q.     E      +Q.      E  E  E
|------------14b16==(14)r----14p12----|
|-------------------------------------|
|----------------------------------13p|
|-------------------------------------|
|-------------------------------------|
|-------------------------------------|
|
| +Q   E  Q   E      +Q    E  Q     E
|-------------------------------------|
|---------0-------------------0-------|
|------2-------------------4----------|
|-------------------------------------|
|-----------------------------------0-|
|-(2)---------4------(4)--------------|


                                       Rafael's Solo (3:44)
                     B                  C
   E   E  E  E  E  E  E  E E  E E  E     W                      H
|-----12p11-------11-----------------||-12-------13p12p10-12--------------|
|------------------------------------||-----------------------------------|
|-11--------13p11----13p11S9-11p9----||--9--------------------------------|
|---------------------------------11-||-----------------------------------|
|------------------------------------||-----------------------------------|
|------------------------------------||-----------------------------------|
|                                        H        S  S  E  H.
|
| +Q      E  Q     E  Q    E  Q    E     E E E E  E     E  E  E E E E E
|------------0---------------------0-||-----------------------------------|
|---------0--------0-----------------||-----------------------------------|
|-----------------------------6------||-----------------------------------|
|--------------------------7---------||-----------------------------------|
|-(0)--------------------------------||--3-3-3-3--3-----3--3--3-3-3-3-3---|
|---------------------7--------------||-----------------------------------|


                                        Bm7b5
   E  E  E  E  E  E  E  E  E  E  E  E    H        S  S  E  Q        +H
|----------17----------------------17-|-19-------20p19p17----------------------|
|-17p15h17----15h17-15S17-20-17-20----|-------------------20b22====(20)r-------|
|-------------------------------------|----------------------------------------|
|-------------------------------------|----------------------------------------|
|-------------------------------------|----------------------------------------|
|-------------------------------------|----------------------------------------|
|
|  E  E  E  E  E  E  E  E  E  E  E  E    E E E E  E     E  E     E   E   E E E
|-------------------------------------|----------------------------------------|
|-------------------------------------|----------------------------------------|
|-------------------------------------|----------------------------------------|
|-------------------------------------|----------------------------------------|
|--3--3--3--3--3--3--3--3--3--3--3--3-|--2-2-2-2--2-----2--2-----2---2---2-2-2-|
|-------------------------------------|----------------------------------------|


   E      +E   E  E  E  E  E  E  E  E  E  E
|-------------------------------------------|
|-20pb22r(20)p17----17-------------------17-|
|----------------20----20p19p17----16h17----|
|-------------------------------19----------|
|-------------------------------------------|
|-------------------------------------------|
|
|  E       E   E  E  E  E  E  E  E  E  E  E
|-------------------------------------------|
|-------------------------------------------|
|-------------------------------------------|
|-------------------------------------------|
|--2-------2---2--2--2--2--2--2--2--2--2--2-|
|-------------------------------------------|


  Dm
   T                 T     T           T                 T     T
   S  S  S  S  S  S  S  S  S  S  S  S  S  S  S  S  S  S  S  S  S  S  S  S
|-22p17h20p17p15h17h22p20h22p20p17p15-------------------------------------|
|-------------------------------------22p17h20p17p15h17h22p20h22p20p17p15-|
|-------------------------------------------------------------------------|
|-------------------------------------------------------------------------|
|-------------------------------------------------------------------------|
|-------------------------------------------------------------------------|
|
|  E     E     E     E     E     E     E     E     E     E     E     E
|-------------------------------------------------------------------------|
|-------------------------------------------------------------------------|
|-------------------------------------------------------------------------|
|-------------------------------------------------------------------------|
|--5-----5-----5-----5-----5-----5-----5-----5-----5-----5-----5-----5----|
|-------------------------------------------------------------------------|


   T                 T     T
   S  S  S  S  S  S  S  S  S  S  S  S Q    H
|----------------------------------------------------|
|----------------------------------------------------|
|-22p17h19p17p14h17h22p19h22p19p17p14S9--------------|
|----------------------------------------------------|
|----------------------------------------------------|
|-----------------------------------------10\--------|
|
|  E     E     E     E     E     E    E E  E  E E E
|----------------------------------------------------|
|----------------------------------------------------|
|----------------------------------------------------|
|----------------------------------------------------|
|--5-----5-----5-----5-----5-----5----5-5--5--5-5-5--|
|----------------------------------------------------|


  Am
  Q.     E E E Q.     E E E   E E E E E E  E E  E  E E  E
|---------------------------|-------5--------8----10p8----|
|---------------------------|---5h8---5-8S10---10------10-|
|-5------------7------------|-7---------------------------|
|--------7-5-7--------7-5-7-|-----------------------------|
|---------------------------|-----------------------------|
|---------------------------|-----------------------------|
|
| E  E E E E E E  E E E E E   E E E E E E  E E  E  E E  E
|---------------------------|-----------------------------|
|---------------------------|-----------------------------|
|---------------------------|-----------------------------|
|---------------------------|-----------------------------|
|-0--0-0-0-0-0-0--0-0-0-0-0-|-0-0-0-2-2-2--3-3--3--5-5--5-|
|---------------------------|-----------------------------|


  C
   E E  E E E E  E E E  E E  E
|-12p8--------------------------|
|------12p8---8-10p8------------|
|-----------9--------9----------|
|----------------------10-9-10--|
|-------------------------------|
|-------------------------------|
|
|  E E  E E E E  E E E  E E  E
|-------------------------------|
|-------------------------------|
|-------------------------------|
|-------------------------------|
|--3-3--3-3-3-3--3-3-3--3-3--3--|
|-------------------------------|


                                Bm7b5
  E E  E  E E E E E E E   E E   Q.        +Q    E H.
|-----------------------------|-----------------5-5------------|
|---8-10-10-8-5-5h6h8---------|-8b10======(8)------------------|
|-9-------------------7b9r7-5-|--------------------------------|
|-----------------------------|--------------------------------|
|-----------------------------|--------------------------------|
|-----------------------------|--------------------------------|
|
| E E  E  E E E E E E E   E E   E     E E  E  E E E  E E E E E
|-----------------------------|--------------------------------|
|-----------------------------|--------------------------------|
|-----------------------------|--------------------------------|
|-----------------------------|--------------------------------|
|-3-3--3--3-3-3-3-3-3-3---3-3-|-2-----2-2--2--2-2-2--2-2-2-2-2-|
|-----------------------------|--------------------------------|


   Q.      +S   S  E  E  Q.      +E   E  E
|------------------------------------10h13-|
|-12------(12)-13p12p10-12------(12)-------|
|------------------------------------------|
|------------------------------------------|
|------------------------------------------|
|------------------------------------------|
|
|  E  E E   E      E  E  E  E E   E   E  E
|------------------------------------------|
|------------------------------------------|
|------------------------------------------|
|------------------------------------------|
|--2--2-2---2------2--2--2--2-2---2---2--2-|
|------------------------------------------|


  Bb
   T                 T     T           T                 T     T
   S  S  S  S  S  S  S  S  S  S  S  S  S  S  S  S  S  S  S  S  S  S  S  S
|-17p12h15p12p10h12h17p15h17p15p12p10-------------------------------------|
|-------------------------------------17p12h15p12p10h12h17p15h17p15p12p10-|
|-------------------------------------------------------------------------|
|-------------------------------------------------------------------------|
|-------------------------------------------------------------------------|
|-------------------------------------------------------------------------|
|
|  E     E     E     E     E     E     E     E     E     E     E     E
|-------------------------------------------------------------------------|
|-------------------------------------------------------------------------|
|-------------------------------------------------------------------------|
|-------------------------------------------------------------------------|
|--1-----1-----1-----1-----1-----1-----1-----1-----1-----1-----1-----1----|
|-------------------------------------------------------------------------|


  Am                                C
   T          T
   E  E  E E  E E E +Q.     +Q      Q.     E E E H.
|---------------------------------|---------------------------|
|---------------------------------|--------8---8--------------|
|-17p14p10S7h12p7S5-(5)-----(5)---|-9--------9---9------------|
|---------------------------------|---------------------------|
|---------------------------------|---------------------------|
|---------------------------------|---------------------------|
|
|  E  E  E E  E E E  E  E E  E  E   E  E E E E E E  E E E E E
|---------------------------------|---------------------------|
|---------------------------------|---------------------------|
|---------------------------------|---------------------------|
|---------------------------------|---------------------------|
|--0--0--0-0--0-0-0--0--0-0--0--0-|-3--3-3-3-3-3-3--3-3-3-3-3-|
|---------------------------------|---------------------------|


   E  E  E  S  S  S  S  S  S  E  E  E  S  S  S  S  S  S
|-------------------------------------------------------|
|----------------------------------------------13-15-17-|
|-------------------10-12-14----------12-14-16----------|
|----------10-12-14----------12-14-15-------------------|
|-10-12-14----------------------------------------------|
|-------------------------------------------------------|
|
|  E  E  E  E     E     E     E  E  E  E     E     E
|-------------------------------------------------------|
|-------------------------------------------------------|
|-------------------------------------------------------|
|-------------------------------------------------------|
|--3--3--3--3-----3-----3-----3--3--3--3-----3-----3----|
|-------------------------------------------------------|


  D/F#
   Q.       +E    E  E       +Q.    +E   E  E
|----------------15----------------------------|
|-15b17====(15)r----15pb17==(15)r==(15)-15p13--|
|----------------------------------------------|
|----------------------------------------------|
|----------------------------------------------|
|----------------------------------------------|
|
|  W.
|----------------------------------------------|
|--3-------------------------------------------|
|--2-------------------------------------------|
|--0-------------------------------------------|
|----------------------------------------------|
|--2-------------------------------------------|


  G        E/G#          Am
   H.       Q.    Q.      E  E  E  E  E  E  E  E  E  E  E  E
|----------12----13----|-17p12-------------------------------|
|-15-------------------|-------17p13----13-17----15----13S12-|
|----------------------|-------------14-------14----14-------|
|----------------------|-------------------------------------|
|----------------------|-------------------------------------|
|----------------------|-------------------------------------|
|
|  H.       H.            W.
|--3-------------------|-12p=8-------------------------------|
|--3--------5----------|-------13-10----10-13----12----10p=8-|
|--0--------4----------|--------------9--------9-----9-------|
|--0--------2----------|--2----------------------------------|
|----------------------|--0----------------------------------|
|--3--------4----------|-------------------------------------|
                          E  E  E  E  E  E  E  E  E  E  E  E


   E  E  E  E  E  E H.
|-----------------------------|
|-13p12----12-----------------|
|-------14----14-12S9---------|
|-----------------------------|
|-----------------------------|
|-----------------------------|
|
| +W.
|-----------------------------|
|-10p=8-----8-----------------|
|--------9-----9--7S5---------|
|-(2)-------------------------|
|-(0)-------------------------|
|-----------------------------|
   E  E  E  E  E  E H     Q


  D/F#
   Q       +Q    H     H
|---------------------------|
|-13b15===(13)r=13----12----|
|---------------------------|
|---------------------------|
|---------------------------|
|---------------------------|
|
|  W.
|---------------------------|
|--3------------------------|
|--2------------------------|
|--0------------------------|
|---------------------------|
|--2------------------------|


  G              E/G#           F
   Q.    +Q    E  +Q.    Q.      W.               +W.
|-----------------------------|----------------|---------|
|-------------12-(12)---13----|-17-------------|-(17)----|
|-14----(14)------------------|----------------|---------|
|-----------------------------|----------------|---------|
|-----------------------------|----------------|---------|
|-----------------------------|----------------|---------|
|
|  H.              H.            W.               +W.
|--3--------------------------|----------------|---------|
|--3---------------5----------|----------------|---------|
|--0---------------4----------|----------------|---------|
|--0---------------2----------|----------------|---------|
|-----------------------------|--3-------------|--(3)----|
|--3---------------4----------|--1-------------|--(1)----|


  D/A
  Gtrs I, II
  W.              +W.
|---------------|----------------|
|-3-------------|-(3)------------|
|-2-------------|-(2)------------|
|-0-------------|-(0)------------|
|-0-------------|-(0)------------|
|---------------|----------------|


  Bm7                     B
  Q  E E E E Q  E E E E   Q  E E E E Q  E E E E
|-----------------------|--------------------------|
|-----------------------|--------------------------|
|----7-------7--7-------|----8-------8--8----------|
|----7-------7--7-------|----9-------9--9----------|
|-----------------------|--------------------------|
|-7----7-7-7------7-7-7-|-7----7-7-7------7-7-7----|


  E                                               B/D#
  Q  E E E E Q  E E E E   Q  E E E E Q  E E E E   Q  E E E E Q  E E E E
|-----------------------|-----------------------|------------------------|
|-----------------------|-----------------------|------------------------|
|-----------------------|-----------------------|------------------------|
|-9--9-------9--9-------|-9--9-------9--9-------|-9--9-------9--9--------|
|-7--7-7-7-7-7--7-7-7-7-|-7--7-7-7-7-7--7-7-7-7-|-6--6-6-6-6-6--6-6-6-6--|
|-----------------------|-----------------------|------------------------|


                          C5                      B5
  Q  E E E E Q  E E E E   Q  E E E E Q  E E E E   Q  E E E E Q  E E E E
|-----------------------|-----------------------|------------------------|
|-----------------------|-----------------------|------------------------|
|-----------------------|-----------------------|------------------------|
|-9--9-------9--9-------|-5--5-------5--5-------|-4--4-------4--4--------|
|-6--6-6-6-6-6--6-6-6-6-|-3--3-3-3-3-3--3-3-3-3-|-2--2-2-2-2-2--2-2-2-2--|
|-----------------------|-----------------------|------------------------|


  A5                                              G5
  Q  E E E E Q  E E E E   Q  E E E E Q  E E E E   Q  E E E E Q  E E E E
|-----------------------|-----------------------|------------------------|
|-----------------------|-----------------------|------------------------|
|-----------------------|-----------------------|------------------------|
|-2--2-------2--2-------|-2--2-------2--2-------|------------------------|
|-0--0-0-0-0-0--0-0-0-0-|-0--0-0-0-0-0--0-------|-5--5-------5--5--------|
|-----------------------|-----------------2-2-2-|-3--3-3-3-3-3--3-3-3-3--|


                          B5
  Q  E E E E Q  E E E E   Q  E E E E Q  E E E E   Q  E E E E Q  E E E E
|-----------------------|-----------------------|------------------------|
|-----------------------|-----------------------|------------------------|
|-----------------------|-----------------------|------------------------|
|-----------------------|-----------------------|------------------------|
|-5--5-------5--5-------|-9--9-------9--9-------|-9--9-------9--9--------|
|-3--3-3-3-3-3--3-3-3-3-|-7--7-7-7-7-7--7-7-7-7-|-7--7-7-7-7-7--7-7-7-7--|


  D/C                  Bm7                  Em
  Q  E E E E Q  H      Q  E E E E Q  H      Q  E E E E E E E E E E
|--------------------|--------------------|-------------------------|
|--------------------|--------------------|-------------------------|
|----7-------9--7----|----7-------9--7----|-------------------------|
|----7-------7--7----|----7-------7--7----|--------2-4-5-4-2-7-5-4--|
|--------------------|--------------------|-------------------------|
|-8----8-8-8---------|-7----7-7-7---------|-0--0---0-2-3-2-0-5-3-2--|


                           D/C                  Bm7
  Q  E E E E E E E E E E   Q  E E E E Q  H      Q  E E E E Q  H
|------------------------|--------------------|--------------------|
|------------------------|--------------------|--------------------|
|------------------------|----7-------9--7----|----7-------9--7----|
|--------2-4-5-4-2-7-5-4-|----7-------7--7----|----7-------7--7----|
|------------------------|--------------------|--------------------|
|-0--0---0-2-3-2-0-5-3-2-|-8----8-8-8---------|-7----7-7-7---------|


  Em                                                C5
  Q  E E E E E E E E E E   Q  E E E E E E E E E E   Q  E E E E Q  E E E E
|------------------------|------------------------|------------------------|
|------------------------|------------------------|------------------------|
|------------------------|------------------------|------------------------|
|--------2-4-5-4-2-7-5-4-|--------2-4-5-4-2-7-5-4-|-5--5-------5--5--------|
|------------------------|------------------------|-3--3-3-3-3-3--3-3-3-3--|
|-0--0---0-2-3-2-0-5-3-2-|-0--0---0-2-3-2-0-5-3-2-|------------------------|


                        Q=152
  D5                      B5          C5          D5         E5 D5 E5
                         4/4
  Gtr I
  Q  E E E E Q  E E E E    E  S  S  E  E  S  S  E  E  E   Q   S  S  E H
|-----------------------|-------------------------------|------------------*|
|-----------------------|-------------------------------|----17-15-17------*|
|-----------------------|----12-11-12--9-14-12-14-11----|------------------*|
|-7--7-------7--7-------|--9-------------------------12-|------------------*|
|-5--5-5-5-5-5--5-5-5-5-|-------------------------------|------------------*|
|-----------------------|-------------------------------|------------------*|
|
| Gtr II
| Q  E E E E Q  E E E E    E  S  S  E  E  S  S  E  E  E   Q   S  S  E H
|-----------------------|-------------------------------|------------------*|
|-----------------------|-------------------------------|----20-19-20------*|
|-----------------------|----16-14-16-12-17-16-17-14----|------------------*|
|-7--7-------7--7-------|-12-------------------------16-|------------------*|
|-5--5-5-5-5-5--5-5-5-5-|-------------------------------|------------------*|
|-----------------------|-------------------------------|------------------*|



Duration Legend
---------------
W - whole; H - half; Q - quarter; E - 8th; S - 16th; T - 32nd; X - 64th; a - acciaccatura
+ - note tied to previous; . - note dotted; .. - note double dotted
Uncapitalized letters represent notes that are staccato (1/2 duration)
Irregular groupings are notated above the duration line
Duration letters will always appear directly above the note/fret number it represents the
duration for.  Duration letters with no fret number below them represent rests.  Multi-
bar rests are notated in the form Wxn, where n is the number of bars to rest for.  Low
melody durations appear below the staff

Tablature Legend
----------------
 h   - hammer-on
 p   - pull-off
 b   - bend
 pb  - pre-bend
 r   - bend release (if no number after the r, then release immediately)
 /\  - slide into or out of (from/to "nowhere")
 s   - legato slide
 S   - shift slide
<n> - natural harmonic
[n]  - artificial harmonic
n(n) - tapped harmonic
 ~   - vibrato
 tr  - trill
 T   - tap
 TP  - trem. picking
 PM  - palm muting
\n/  - tremolo bar dip; n = amount to dip
 \n  - tremolo bar down
 n/  - tremolo bar up
/n\  - tremolo bar inverted dip
 =   - hold bend; also acts as connecting device for hammers/pulls
 <> - volume swell (louder/softer)
 x   - on rhythm slash represents muted slash
 o   - on rhythm slash represents single note slash

Misc Legend
-----------
 |  - bar
||  - double bar
||o - repeat start
o|| - repeat end
*|  - double bar (ending)
 :  - bar (freetime)
 $  - Segno
 &  - Coda
Tempo markers - <E/E./Q/Q./H/H.> = BPM(8/16=s8/s16), where s8 = swing 8ths, s16 = swing 16ths

comments
We did not receive enough feedback on this tab! Please rate:
print report bad tab
1 2 3 4 5
I want to post or [tab]
guest
You may want to rate the tab now too:
select rating
Please do not post tabs as comments. Select "correction" instead!