Oops, an error
Loading. Please wait.

Nova Era Tab

ver2
ver2

Whole song

More versions @911Tabs.com
5,346 views 15 this week
no commentswrite comment
1 2 3 4 5
excellent!
x 2
Autoscroll
+/-
esc
set tempo
stop
Contributor
Hey! There's an official Ultimate Guitar app which is ideal
for learning songs when you're away from computer. Get the app
WARNING: You are trying to view
                                    content from Ultimate-Guitar.com
                                    in an unauthorized application,
                                    which is prohibited.

                                    Please use an official Ultimate
                                    Guitar Tabs application for iPhone,
                                    iPad or Android to access legitimate
                                    chords, guitar, bass, and drum tabs
                                    from Ultimate-Guitar.com database.

                                    Type "ultimate guitar tabs" in Apple
                                    App Store's or Android Market's
                                    search to find the application.
#----------------------------------PLEASE NOTE---------------------------------#
#This file is the author's own work and represents their interpretation of the #
#song. You may only use this file for private study, scholarship, or research. #
#------------------------------------------------------------------------------#

NOVA ERA
As recorded by Angra
(From the 2000 Album REBIRTH)

Transcribed by tomohiro harada
        

Words and Music by Angra
Arranged by Angra

Gtr I (E A D G B E) - 'Untitled'
Gtr II (E A D G B E) - 'Untitled'
Gtr III (E A D G B E) - 'Untitled'
Gtr IV (E A D G B E) - 'solo1'

   Intro
    Q=165
    D5            G5A5G5A5Bb5         A5
   4/4
    Gtr III
                  PM----|
    E Q.   H      E E E E H      +Q   H.
||--------------|--------------|------------|
||o-3-----------|--------------|------------|
||--2-----------|--------------|------------|
||--0-----------|--------------|------------|
||o-------------|-5-7-5-7-8----|-(8)--7-----|
||--------------|-3-5-3-5-6----|-(6)--5-----|


  1.
  D5            G5 A5 Bb5         A5
  E H..         Q  Q  H      +Q   H.
|-------------|------------|-------------||
|-3-----------|------------|------------o||
|-2-----------|------------|-------------||
|-0-----------|------------|-------------||
|-------------|-5--7--8----|-(8)--7-----o||
|-------------|-3--5--6----|-(6)--5------||


  2.
  D5                 G5A5Bb5        A5         C#5       E5
                                                              2/4
  E Q.   Q  Q     Q  E E H      +Q   H.        Q  +H     E E   H
|--------------|--------------|--------------|---------------|------|
|-3------------|--------------|--------------|---------------|------|
|-2------------|--------------|--------------|---------------|------|
|-0------------|--------------|--------------|-6--(6)----9---|------|
|--------------|-----5-7-8----|-(8)--7-------|-4--(4)----7---|------|
|--------0--1--|-/5--3-5-6----|-(6)--5-------|---------------|------|


  Main Theme
   D                                    C#
  4/4
   Gtr I
    ~~
    Q       Q        Q        Q         Q        Q        Q       Q
||------------------------------------|-----------------------------------|
||-10------------------------10-------|-8-------10-------11-------8-------|
||----------7-------10----------------|-----------------------------------|
||------------------------------------|-----------------------------------|
||------------------------------------|-----------------------------------|
||------------------------------------|-----------------------------------|
|
|  Gtr II
|   ~~
|   Q       Q        Q        Q         Q        Q        Q       Q
||------------------------------------|-----------------------------------|
||------------------------------------|-------------------8---------------|
||-10----------------7-------10-------|-9-------10----------------9-------|
||----------7-------------------------|-----------------------------------|
||------------------------------------|-----------------------------------|
||------------------------------------|-----------------------------------|
|
|  Gtr III
|   PM---------------------------------------------------------------------
|   S S S S S S S S  S S S S  S S S S   S S S S  S S S S  S S S S S S S S
||------------------------------------|-----------------------------------|
||------------------------------------|-----------------------------------|
||------------------------------------|-----------------------------------|
||------------------------------------|-----------------------------------|
||--5-5-5-5-5-5-5-5--5-5-5-5--5-5-5-5-|-4-4-4-4--4-4-4-4--4-4-4-4-4-4-4-4-|
||------------------------------------|-----------------------------------|


  D                                    C
   ~~                                                             ~~
   Q       Q        Q        Q         Q        Q        Q        Q
|------------------------------------|----------------------------8---------|
|-10------------------------10-------|-8-------10-------11------------------|
|----------7-------10----------------|--------------------------------------|
|------------------------------------|--------------------------------------|
|------------------------------------|--------------------------------------|
|------------------------------------|--------------------------------------|
|
|  ~~                                                             ~~
|  Q       Q        Q        Q         Q        Q        Q        Q
|------------------------------------|--------------------------------------|
|------------------------------------|-------------------8-------10---------|
|-10----------------7-------10-------|-9-------10---------------------------|
|----------7-------------------------|--------------------------------------|
|------------------------------------|--------------------------------------|
|------------------------------------|--------------------------------------|
|
|-----------------------------------------------------------------------|
|  S S S S S S S S  S S S S  S S S S   S S S S  S S S S  S S S S  S S S S
|------------------------------------|--------------------------------------|
|------------------------------------|--------------------------------------|
|------------------------------------|--------------------------------------|
|------------------------------------|--------------------------------------|
|--5-5-5-5-5-5-5-5--5-5-5-5--5-5-5-5-|-3-3-3-3--3-3-3-3--3-3-3-3--3-3-3-3---|
|------------------------------------|--------------------------------------|


  D                                    C
   ~~
   Q       Q        Q        Q         Q        Q        S S  S  S  S  S  S  S
|------------------------------------|-----------------------------------------|
|-10------------------------10-------|-8-------10-------11-8-10-11-13-10-11-13-|
|----------7-------10----------------|-----------------------------------------|
|------------------------------------|-----------------------------------------|
|------------------------------------|-----------------------------------------|
|------------------------------------|-----------------------------------------|
|
|  ~~
|  Q       Q        Q        Q         Q        Q        S S  S  S  S  S  S  S
|------------------------------------|-----------------------------------------|
|------------------------------------|-----------------------------------------|
|-10----------------7-------10-------|-9-------10-------12-9-10-12-14-10-12-14-|
|----------7-------------------------|-----------------------------------------|
|------------------------------------|-----------------------------------------|
|------------------------------------|-----------------------------------------|
|
|  PM---------------------------------------------------------------------------
|  S S S S S S S S  S S S S  S S S S   S S S S  S S S S  S S  S  S  S  S  S  S
|------------------------------------|-----------------------------------------|
|------------------------------------|-----------------------------------------|
|------------------------------------|-----------------------------------------|
|------------------------------------|-----------------------------------------|
|--5-5-5-5-5-5-5-5--5-5-5-5--5-5-5-5-|-3-3-3-3--3-3-3-3--3-3--3--3--3--3--3--3-|
|------------------------------------|-----------------------------------------|


  G                                      D
   ~~                                     ~~~~~~~~~~~~~~~~
   H                E    E    E    E      H           +E             S  S  S  S  S  S
|--------------------------------------|-------------------------------------------------|
|-15---------------15---13--------15---|-15----------(15)--------------------10-11-13----|
|----------------------------15--------|-----------------------------9-10-12-------------|
|--------------------------------------|-------------------------------------------------|
|--------------------------------------|-------------------------------------------------|
|--------------------------------------|-------------------------------------------------|
|
|  ~~                                     ~~~~~~~~~~~
|  H                E    E    E    E      H      +E                  S  S  S  S  S  S
|--------------------------------------|-------------------------------------------------|
|--------------------------------------|-------------------------------------------------|
|-15---------------15---14---12---15---|-14-----(14)-------------------------10-12-14----|
|--------------------------------------|----------------------------10-12-14-------------|
|--------------------------------------|-------------------------------------------------|
|--------------------------------------|-------------------------------------------------|
|
|----------------------------------------------------------------------------------|
|  S S S S S S S S  S S  S S  S S  S S    S S S   S    S  S S S S S  S  S  S  S  S  S
|--------------------------------------|-------------------------------------------------|
|--------------------------------------|-------------------------------------------------|
|--------------------------------------|-------------------------------------------------|
|--------------------------------------|-------------------------------------------------|
|--------------------------------------|--5-5-5---5----5--5-5-5-5-5--5--5--5--5--5--5----|
|--3-3-3-3-3-3-3-3--3-3--3-3--3-3--3-3-|-------------------------------------------------|


  G
   ~~
   H                E    E    E    E
|--------------------------------------|
|-15---------------15---13--------15---|
|----------------------------15--------|
|--------------------------------------|
|--------------------------------------|
|--------------------------------------|
|
|  ~~
|  H                E    E    E    E
|--------------------------------------|
|--------------------------------------|
|-15---------------15---14---12---15---|
|--------------------------------------|
|--------------------------------------|
|--------------------------------------|
|
|  PM-----------------------------------
|  S S S S S S S S  S S  S S  S S  S S
|--------------------------------------|
|--------------------------------------|
|--------------------------------------|
|--------------------------------------|
|--------------------------------------|
|--3-3-3-3-3-3-3-3--3-3--3-3--3-3--3-3-|


  D
   ~~
   H                S  S  S  S  S  S  S  S
|------------------------------------------|
|-15---------------------------------11-13-|
|---------------------------10-12-14-------|
|------------------10-12-14----------------|
|------------------------------------------|
|------------------------------------------|
|
|  ~~
|  H                S  S  S  S  S  S  S  S
|------------------------------------------|
|------------------------------------------|
|-14------------------------------10-12-14-|
|------------------------10-12-14----------|
|------------------12-13-------------------|
|------------------------------------------|
|
|---------------------------------------|
|  S S S S S S S S  S  S  S  S  S  S  S  S
|------------------------------------------|
|------------------------------------------|
|------------------------------------------|
|------------------------------------------|
|--5-5-5-5-5-5-5-5--5--5--5--5--5--5--5--5-|
|------------------------------------------|


  G                                      D
   ~~                                     ~~
   H                E    E    E    E      Q        Q        Q        Q
|--------------------------------------|-------------------------------------|
|-15---------------15---13--------15---|-15----------------------------------|
|----------------------------15--------|----------------------------12-------|
|--------------------------------------|----------12-------15----------------|
|--------------------------------------|-------------------------------------|
|--------------------------------------|-------------------------------------|
|
|  ~~                                     ~~
|  H                E    E    E    E      Q        Q        Q        Q
|--------------------------------------|-------------------------------------|
|--------------------------------------|-------------------------------------|
|-15---------------15---14---12---15---|-14----------------------------------|
|--------------------------------------|-------------------12-------14-------|
|--------------------------------------|----------12-------------------------|
|--------------------------------------|-------------------------------------|
|
|  PM----------------------------------------------------------------------|
|  S S S S S S S S  S S  S S  S S  S S    S S S S  S S S S  S S S S  S S S S
|--------------------------------------|-------------------------------------|
|--------------------------------------|-------------------------------------|
|--------------------------------------|-------------------------------------|
|--------------------------------------|-------------------------------------|
|--------------------------------------|--5-5-5-5--5-5-5-5--5-5-5-5--5-5-5-5-|
|--3-3-3-3-3-3-3-3--3-3--3-3--3-3--3-3-|-------------------------------------|


  Bb5                   A5
                 ~~                    ~~
   Q.      S  S  H       Q.      S  S  H
|---------------------|---------------------|
|---------------------|-15b17---15p14-17----|
|-14b15---14p12-14----|---------------------|
|---------------------|---------------------|
|---------------------|---------------------|
|---------------------|---------------------|
|
|                ~~                    ~~
|  Q.      S  S  H       Q.      S  S  H
|---------------------|---------------------|
|---------------------|---------------15----|
|---------------------|-14b16---14-12-------|
|-15b17---15p14-15----|---------------------|
|---------------------|---------------------|
|---------------------|---------------------|
|
|  W                     W
|---------------------|---------------------|
|---------------------|---------------------|
|---------------------|---------------------|
|--3------------------|--2------------------|
|--1------------------|--0------------------|
|---------------------|---------------------|


  Verse
   D5                        A/C#
   Gtrs I, II
     PM----|     PM----|       PM----|   PM|   PM|
   E S S S S E E S S S S E   E S S S S E S S E S S E
||-------------------------|--------------------------|
||-------------------------|--------------------------|
||-------------------------|--------------------------|
||-7---------7-7---------7-|-7---------7-----7-----7--|
||-5-5-5-5-5-5-5-5-5-5-5-5-|-4-4-4-4-4-4-4-4-4-4-4-4--|
||-------------------------|--------------------------|


  D5                        C5
    PM----|     PM----|       PM----|   PM----|
  E S S S S E E S S S S E   E S S S S E E E E E
|-------------------------|---------------------|
|-------------------------|---------------------|
|-------------------------|---------------------|
|-7---------7-7---------7-|-5---------5---------|
|-5-5-5-5-5-5-5-5-5-5-5-5-|-3-3-3-3-3-3-3-3-3-3-|
|-------------------------|---------------------|


  D5                        C5
    PM----|     PM----|       PM----|   PM|   PM|
  E S S S S E E S S S S E   E S S S S E S S E S S E
|-------------------------|-------------------------|
|-------------------------|-------------------------|
|-------------------------|-------------------------|
|-7---------7-7---------7-|-5---------5-----5-----5-|
|-5-5-5-5-5-5-5-5-5-5-5-5-|-3-3-3-3-3-3-3-3-3-3-3-3-|
|-------------------------|-------------------------|


   Bridge
    Gm                                    F
    Gtr I
     PM-----------------------------------------------------------------|
     S  S S S S S S S  S  S S S S S S S   S S S S S S S S S S S S S S S S   3x
||--------------------------------------|-----------------------------------||
||o-------------------------------------|----------------------------------o||
||--------------------------------------|-----------------------------------||
||--------8-8-7-7-8-8-------8-8-7-7-8-8-|-----7-7-5-5-7-7-----7-7-5-5-7-7---||
||o-10-10-------------10-10-------------|-8-8-------------8-8--------------o||
||--------------------------------------|-----------------------------------||
|
|   Gtr II
|    PM-----------------------------------------------------------------|
|    S  S S S S S S S  S  S S S S S S S   S S S S S S S S S S S S S S S S   3x
||--------------------------------------|-----------------------------------||
||o-------------------------------------|----------------------------------o||
||--------7-7-5-5-7-7-------7-7-5-5-7-7-|-----7-7-5-5-7-7-----7-7-5-5-7-7---||
||---8--8--------------8--8-------------|-7-7-------------7-7---------------||
||o-------------------------------------|----------------------------------o||
||--------------------------------------|-----------------------------------||


  Bb5        D5   C#5
  Gtrs I, II
  W          H    H
|----------|-----------||
|----------|-----------||
|----------|-----------||
|-3--------|-7----6----||
|-1--------|-5----4----||
|----------|-----------||


   Chorus
    F5          E5         Bb5     C5   D5      C5
     W          W          H.      Q    W
||------------|----------|------------|-----------|
||o-----------|----------|------------|-----------|
||------------|----------|------------|-----------|
||--10--------|-9--------|-3-------5--|-7---------|
||o--8--------|-7--------|-1-------3--|-5---------|
||------------|----------|------------|-----------|


               1.
  Bb5     C5   F5          E5
  Gtr I
  H.      Q     W          W
|------------|-----------|----------|
|------------|-----------|----------|
|-3-------5--|-10--------|-9--------|
|-3-------5--|-10--------|-9--------|
|-1-------3--|--8--------|-7--------|
|------------|-----------|----------|
|
| Gtr II
| H.      Q     W          W
|------------|-----------|----------|
|------------|-----------|----------|
|------------|-----------|----------|
|-3-------5--|-10--------|-9--------|
|-1-------3--|--8--------|-7--------|
|------------|-----------|----------|


  C5/G        Bb5/F   A5/E    G5/D
   PM----------------------------------|
   S  S  S  S S S S S S S S S  S  S  S  S
|-------------------------------------------||
|------------------------------------------o||
|-------------------------------------------||
|-10-10-10-10-8-8-8-8-7-7-7-7---------------||
|-----------------------------10-10-10-10--o||
|-------------------------------------------||
|
|  PM----------------------------------|
|  S  S  S  S S S S S S S S S  S  S  S  S
|-------------------------------------------||
|------------------------------------------o||
|-------------------------------------------||
|-------------------------------------------||
|-10-10-10-10-8-8-8-8-7-7-7-7--------------o||
|-----------------------------10-10-10-10---||


  2.
  F5          Eb5  Eb5    Eb5
  Gtrs I, II
   W          H    H      W
|-----------|-----------|------|
|-----------|-----------|------|
|-----------|-----------|------|
|-10--------|-8----8----|-8----|
|--8--------|-6----6----|-6----|
|-----------|-----------|------|


  Intro 3
   D
   Gtr I
    ~~
    Q       Q        Q        Q
||------------------------------------|
||-10------------------------10-------|
||----------7-------10----------------|
||------------------------------------|
||------------------------------------|
||------------------------------------|
|
|  Gtr II
|   ~~
|   Q       Q        Q        Q
||------------------------------------|
||------------------------------------|
||-10----------------7-------10-------|
||----------7-------------------------|
||------------------------------------|
||------------------------------------|
|
|  Gtr III
|   PM---------------------------------
|   S S S S S S S S  S S S S  S S S S
||------------------------------------|
||------------------------------------|
||------------------------------------|
||------------------------------------|
||--5-5-5-5-5-5-5-5--5-5-5-5--5-5-5-5-|
||------------------------------------|


  C#                                  D
                                       ~~
  Q        Q        Q       Q          Q       Q        Q        Q
|-----------------------------------|------------------------------------|
|-8-------10-------11-------8-------|-10------------------------10-------|
|-----------------------------------|----------7-------10----------------|
|-----------------------------------|------------------------------------|
|-----------------------------------|------------------------------------|
|-----------------------------------|------------------------------------|
|
|                                      ~~
| Q        Q        Q       Q          Q       Q        Q        Q
|-----------------------------------|------------------------------------|
|-------------------8---------------|------------------------------------|
|-9-------10----------------9-------|-10----------------7-------10-------|
|-----------------------------------|----------7-------------------------|
|-----------------------------------|------------------------------------|
|-----------------------------------|------------------------------------|
|
|----------------------------------------------------------------------|
| S S S S  S S S S  S S S S S S S S    S S S S S S S S  S S S S  S S S S
|-----------------------------------|------------------------------------|
|-----------------------------------|------------------------------------|
|-----------------------------------|------------------------------------|
|-----------------------------------|------------------------------------|
|-4-4-4-4--4-4-4-4--4-4-4-4-4-4-4-4-|--5-5-5-5-5-5-5-5--5-5-5-5--5-5-5-5-|
|-----------------------------------|------------------------------------|


  C
  Q        Q        S S  S  S  S  S  S  S
|-----------------------------------------|
|-8-------10-------11-8-10-11-13-10-11-13-|
|-----------------------------------------|
|-----------------------------------------|
|-----------------------------------------|
|-----------------------------------------|
|
| Q        Q        S S  S  S  S  S  S  S
|-----------------------------------------|
|-----------------------------------------|
|-9-------10-------12-9-10-12-14-10-12-14-|
|-----------------------------------------|
|-----------------------------------------|
|-----------------------------------------|
|
| PM---------------------------------------
| S S S S  S S S S  S S  S  S  S  S  S  S
|-----------------------------------------|
|-----------------------------------------|
|-----------------------------------------|
|-----------------------------------------|
|-3-3-3-3--3-3-3-3--3-3--3--3--3--3--3--3-|
|-----------------------------------------|


  G                                      D
   ~~                                     ~~
   H                E    E    E    E      H                S  S  S  S  S  S  S  S
|--------------------------------------|------------------------------------------|
|-15---------------15---13--------15---|-15------------------------------10-11-13-|
|----------------------------15--------|-------------------------9-10-12----------|
|--------------------------------------|------------------10-12-------------------|
|--------------------------------------|------------------------------------------|
|--------------------------------------|------------------------------------------|
|
|  ~~                                     ~~
|  H                E    E    E    E      H                S  S  S  S  S  S  S  S
|--------------------------------------|------------------------------------------|
|--------------------------------------|------------------------------------------|
|-15---------------15---14---12---15---|-14------------------------------10-12-14-|
|--------------------------------------|------------------------10-12-14----------|
|--------------------------------------|------------------12-13-------------------|
|--------------------------------------|------------------------------------------|
|
|------------------------------------------------------------------------------|
|  S S S S S S S S  S S  S S  S S  S S    S S S S S S S S  S  S  S  S  S  S  S  S
|--------------------------------------|------------------------------------------|
|--------------------------------------|------------------------------------------|
|--------------------------------------|------------------------------------------|
|--------------------------------------|------------------------------------------|
|--------------------------------------|--5-5-5-5-5-5-5-5--5--5--5--5--5--5--5--5-|
|--3-3-3-3-3-3-3-3--3-3--3-3--3-3--3-3-|------------------------------------------|


  Bb5         A5
   ~~                 ~~~~~~
   W           Q      Q   H
|-----------|------------17----||
|-15--------|-15b16--14--------||
|-----------|------------------||
|-----------|------------------||
|-----------|------------------||
|-----------|------------------||
|
|  ~~                 ~~~~~~
|  W           Q      Q   H
|-----------|------------------||
|-----------|------------17----||
|-15--------|-15b16--14--------||
|-----------|------------------||
|-----------|------------------||
|-----------|------------------||
|
|  W           W
|-----------|------------------||
|-----------|------------------||
|-----------|------------------||
|--3--------|--2---------------||
|--1--------|--0---------------||
|-----------|------------------||


 Verse
  D5                        A/C#
  Gtrs I, II
    PM----|     PM----|       PM----|   PM|   PM|
  E S S S S E E S S S S E   E S S S S E S S E S S E
|-------------------------|-------------------------|
|-------------------------|-------------------------|
|-------------------------|-------------------------|
|-7---------7-7---------7-|-7---------7-----7-----7-|
|-5-5-5-5-5-5-5-5-5-5-5-5-|-4-4-4-4-4-4-4-4-4-4-4-4-|
|-------------------------|-------------------------|


  D5                        C5
    PM----|     PM----|       PM----|   PM----|
  E S S S S E E S S S S E   E S S S S E E E E E
|-------------------------|---------------------|
|-------------------------|---------------------|
|-------------------------|---------------------|
|-7---------7-7---------7-|-5---------5---------|
|-5-5-5-5-5-5-5-5-5-5-5-5-|-3-3-3-3-3-3-3-3-3-3-|
|-------------------------|---------------------|


  D5                        C5
    PM----|     PM----|       PM----|   PM|   PM|
  E S S S S E E S S S S E   E S S S S E S S E S S E
|-------------------------|-------------------------|
|-------------------------|-------------------------|
|-------------------------|-------------------------|
|-7---------7-7---------7-|-5---------5-----5-----5-|
|-5-5-5-5-5-5-5-5-5-5-5-5-|-3-3-3-3-3-3-3-3-3-3-3-3-|
|-------------------------|-------------------------|


   Bridge
    Gm                                    F
    Gtr I
     PM-----------------------------------------------------------------|
     S  S S S S S S S  S  S S S S S S S   S S S S S S S S S S S S S S S S   3x
||--------------------------------------|-----------------------------------||
||o-------------------------------------|----------------------------------o||
||--------------------------------------|-----------------------------------||
||--------8-8-7-7-8-8-------8-8-7-7-8-8-|-----7-7-5-5-7-7-----7-7-5-5-7-7---||
||o-10-10-------------10-10-------------|-8-8-------------8-8--------------o||
||--------------------------------------|-----------------------------------||
|
|   Gtr II
|    PM-----------------------------------------------------------------|
|    S  S S S S S S S  S  S S S S S S S   S S S S S S S S S S S S S S S S   3x
||--------------------------------------|-----------------------------------||
||o-------------------------------------|----------------------------------o||
||--------7-7-5-5-7-7-------7-7-5-5-7-7-|-----7-7-5-5-7-7-----7-7-5-5-7-7---||
||---8--8--------------8--8-------------|-7-7-------------7-7---------------||
||o-------------------------------------|----------------------------------o||
||--------------------------------------|-----------------------------------||


  Bb5        D5   C#5
  Gtrs I, II
  W          H    H
|----------|-----------|
|----------|-----------|
|----------|-----------|
|-3--------|-7----6----|
|-1--------|-5----4----|
|----------|-----------|


   Chorus
    F5          E5         Bb5     C5   D5      C5
     W          W          H.      Q    W
||------------|----------|------------|-----------|
||o-----------|----------|------------|-----------|
||------------|----------|------------|-----------|
||--10--------|-9--------|-3-------5--|-7---------|
||o--8--------|-7--------|-1-------3--|-5---------|
||------------|----------|------------|-----------|


                          1.
  Bb5     C5   F5          E5
  Gtr I
  H.      Q     W          W
|------------|-----------|----------|
|------------|-----------|----------|
|-3-------5--|-10--------|-9--------|
|-3-------5--|-10--------|-9--------|
|-1-------3--|--8--------|-7--------|
|------------|-----------|----------|
|
| Gtr II
| H.      Q     W          W
|------------|-----------|----------|
|------------|-----------|----------|
|------------|-----------|----------|
|-3-------5--|-10--------|-9--------|
|-1-------3--|--8--------|-7--------|
|------------|-----------|----------|


  C5/G        Bb5/F   A5/E    G5/D
   PM----------------------------------|
   S  S  S  S S S S S S S S S  S  S  S  S
|-------------------------------------------||
|------------------------------------------o||
|-------------------------------------------||
|-10-10-10-10-8-8-8-8-7-7-7-7---------------||
|-----------------------------10-10-10-10--o||
|-------------------------------------------||
|
|  PM----------------------------------|
|  S  S  S  S S S S S S S S S  S  S  S  S
|-------------------------------------------||
|------------------------------------------o||
|-------------------------------------------||
|-------------------------------------------||
|-10-10-10-10-8-8-8-8-7-7-7-7--------------o||
|-----------------------------10-10-10-10---||


  2.
  Eb5                         Bb5
  Gtrs I, II
    PM----|   PM----|   PM|      PM----|    PM----|    PM|
  E S S S S E S S S S E S S    E S S S S  E S S S S  E S S
|---------------------------|-------------------------------|
|---------------------------|-------------------------------|
|---------------------------|-10---------10---------10------|
|-8---------8---------8-----|--8-8-8-8-8--8-8-8-8-8--8-8-8--|
|-6-6-6-6-6-6-6-6-6-6-6-6-6-|-------------------------------|
|---------------------------|-------------------------------|


  Breakdown
   A5/E
  2/4
   Gtr IV
    T       T       T          T          T
    S S  S  S  S S  S S    S   S  S S  S  S  S S
||----------------------|------------------------|
||----------------------|------------------------|
||----------------------|------------------------|
||-12p0h10h12p10p0h12p0h|=10h=12p10p0h10h12p10p0h|
||----------------------|------------------------|
||----------------------|------------------------|
|
|  Gtr III
|   H                     +H
||----------------------|------------------------|
||----------------------|------------------------|
||----------------------|------------------------|
||--7-------------------|-(7)--------------------|
||--5-------------------|-(5)--------------------|
||----------------------|------------------------|


   T       T      T          T        T
   S  S S  S S S  S S    S   S S S S  S S S
|---------------------|----------------------|
|---------------------|----------------------|
|---------------------|----------------------|
|-12p=0h8h12p8p0h12p0h|==8h=12p8p0h8h12p8p0h=|
|---------------------|----------------------|
|---------------------|----------------------|
|
| +H                    +H
|---------------------|----------------------|
|---------------------|----------------------|
|---------------------|----------------------|
|-(7)-----------------|-(7)------------------|
|-(5)-----------------|-(5)------------------|
|---------------------|----------------------|


  D5
   T      T      T        T        T
   S S S  S S S  S S   S  S S S S  S S S
|--------------------|-------------------|
|--------------------|-------------------|
|--------------------|-------------------|
|-12p0h7h12p7p0h12p0h|=7h12p7p0h7h12p7p0h|
|--------------------|-------------------|
|--------------------|-------------------|
|
|  Q        Q          Q        Q
|--------------------|-------------------|
|--------------------|-------------------|
|--------------------|-------------------|
|--7-----------------|-7-----------------|
|--5-----------------|-5-----------------|
|--------------------|-------------------|


   T      T      T        T        T
   S S S  S S S  S S   S  S S S S  S S S
|--------------------|--------------------|
|--------------------|--------------------|
|--------------------|--------------------|
|-12p0h4h12p4p0h12p0h|=4h12p4p0h4h12p4p0h=|
|--------------------|--------------------|
|--------------------|--------------------|
|
|  H                   H
|--------------------|--------------------|
|--------------------|--------------------|
|--------------------|--------------------|
|--------------------|--------------------|
|--------------------|--------------------|
|--------------------|--------------------|


  D5
   T       T       T          T          T
   S S  S  S  S S  S S    S   S  S S  S  S  S S
|----------------------|------------------------|
|----------------------|------------------------|
|----------------------|------------------------|
|-12p0h10h12p10p0h12p0h|=10h=12p10p0h10h12p10p0h|
|----------------------|------------------------|
|----------------------|------------------------|
|
|  H                     +H
|----------------------|------------------------|
|----------------------|------------------------|
|----------------------|------------------------|
|--7-------------------|-(7)--------------------|
|--5-------------------|-(5)--------------------|
|----------------------|------------------------|


   T       T      T          T        T
   S  S S  S S S  S S    S   S S S S  S S S
|---------------------|----------------------|
|---------------------|----------------------|
|---------------------|----------------------|
|-12p=0h8h12p8p0h12p0h|==8h=12p8p0h8h12p8p0h=|
|---------------------|----------------------|
|---------------------|----------------------|
|
| +H                    +Q     E      E
|---------------------|----------------------|
|---------------------|----------------------|
|---------------------|----------------------|
|-(7)-----------------|-(7)----7-------------|
|-(5)-----------------|-(5)----5-------------|
|---------------------|----------------------|


  D5
   T      T      T        T        T
   S S S  S S S  S S   S  S S S S  S S S
|--------------------|-------------------|
|--------------------|-------------------|
|--------------------|-------------------|
|-12p0h7h12p7p0h12p0h|=7h12p7p0h7h12p7p0h|
|--------------------|-------------------|
|--------------------|-------------------|
|
|  H                   H
|--------------------|-------------------|
|--------------------|-------------------|
|--------------------|-------------------|
|--------------------|-7-----------------|
|--------------------|-5-----------------|
|--------------------|-------------------|


   T       T      T          T        T
   S  S S  S S S  S S    S   S S S S  S S S
|---------------------|---------------------|
|---------------------|---------------------|
|---------------------|---------------------|
|-12p=0h4h12p4p0h12p0h|==4h=12p4p0h4h12p4p0-|
|---------------------|---------------------|
|---------------------|---------------------|
|
| +H                    +H
|---------------------|---------------------|
|---------------------|---------------------|
|---------------------|---------------------|
|-(7)-----------------|-(7)-----------------|
|-(5)-----------------|-(5)-----------------|
|---------------------|---------------------|


  G5
 4/4
   T       T        T       T          T
   S S  S  S  S  S  S S  S  S  S  S  S S  S  S
|----------------------------------------------|
|----------------------------------------------|
|----------------------------------------------|
|--8p0h=5h=8p=5p=0h=8p0h=5h=8p=5p=0h=5h8p=5p=0h|
|----------------------------------------------|
|----------------------------------------------|
|
|       PM------|        PM------|        PM|
|  E    S  S  S  S  E    S  S  S  S  E    S  S
|----------------------------------------------|
|----------------------------------------------|
|-12---------------12---------------12---------|
|-12---------------12---------------12---------|
|-10---10-10-10-10-10---10-10-10-10-10---10-10-|
|----------------------------------------------|


  D/F#
   T     T      T     T        T
   S S S S S S  S S S S S S  S S S S
|--------------------------------------|
|--------------------------------------|
|--------------------------------------|
|--7p0h4h7p4p0h=7p0h4h7p4p0h=4h7p4p0h==|
|--------------------------------------|
|--------------------------------------|
|
|      PM----|      PM----|      PM|
|  E   S S S S  E   S S S S  E   S S
|--------------------------------------|
|--------------------------------------|
|-11-----------11-----------11---------|
|-12-----------12-----------12---------|
|--9---9-9-9-9--9---9-9-9-9--9---9-9---|
|--------------------------------------|


  D5
   T      T      T      T        T
   S S S  S S S  S S S  S S S S  S S S
|--------------------------------------|
|--------------------------------------|
|--------------------------------------|
|-10p0h7h10p7p0h10p0h7h10p7p0h7h10p7p0h|
|--------------------------------------|
|--------------------------------------|
|
|      PM-----|      PM-----|      PM|
|  E   S  S S S  E   S  S S S E    S S
|--------------------------------------|
|--------------------------------------|
|--7-------------7------------7--------|
|--7-------------7------------7--------|
|--5---5--5-5-5--5---5--5-5-5-5----5-5-|
|--------------------------------------|


  G5
   T       T        T       T          T
   S S  S  S  S  S  S S  S  S  S  S  S S  S  S
|-----------------------------------------------|
|-----------------------------------------------|
|-----------------------------------------------|
|--8p0h=5h=8p=5p=0h=8p0h=5h=8p=5p=0h=5h8p=5p=0h=|
|-----------------------------------------------|
|-----------------------------------------------|
|
|       PM------|        PM------|        PM|
|  E    S  S  S  S  E    S  S  S  S  E    S  S
|-----------------------------------------------|
|-----------------------------------------------|
|-12---------------12---------------12----------|
|-12---------------12---------------12----------|
|-10---10-10-10-10-10---10-10-10-10-10---10-10--|
|-----------------------------------------------|


  E5                                     D5
   T      T      T      T        T        T      T      T      T        T
   S S S  S S S  S S S  S S S S  S S S    S S S  S S S  S S S  S S S S  S S S
|--------------------------------------|--------------------------------------|
|--------------------------------------|--------------------------------------|
|--------------------------------------|--------------------------------------|
|-11p0h8h11p8p0h11p0h8h11p8p0h8h11p8p0h|=12p0h7h12p7p0h12p0h7h12p7p0h7h12p7p0-|
|--------------------------------------|--------------------------------------|
|--------------------------------------|--------------------------------------|
|
|      PM-----|      PM-----|      PM|        PM-----|      PM-----|      PM|
|  E   S  S S S  E   S  S S S E    S S    E   S  S S S  E   S  S S S E    S S
|--------------------------------------|--------------------------------------|
|--------------------------------------|--------------------------------------|
|--9-------------9------------9--------|--7-------------7------------7--------|
|--9-------------9------------9--------|--7-------------7------------7--------|
|--7---7--7-7-7--7---7--7-7-7-7----7-7-|--5---5--5-5-5--5---5--5-5-5-5----5-5-|
|--------------------------------------|--------------------------------------|


  A                               B C           Eb
   |-------5--------| |-------5--------|  |-------5--------| |-------5--------|
   S S    S    S    S S  S    S    S   S  S S    S    S    S S  S    S    S   S
|-------------------------------------------------------------------------------|
|-------------------------------------------------------------------------------|
|-------------------------------------------------------------------------------|
|-13-0---10---13---10-0-10---13---10---0-16-0---13---16---13-0-13---16---13---0-|
|-------------------------------------------------------------------------------|
|-------------------------------------------------------------------------------|
|
|  PM----------------------------------------------------------------------------
|  S   S    S    S    S    S    S    S    S   S    S    S    S    S    S    S
|-------------------------------------------------------------------------------|
|-------------------------------------------------------------------------------|
|-------------------------------------------------------------------------------|
|-------------------------------------------------------------------------------|
|------------------------------------------------------------6----6----6----6---|
|--5---5----5----5----7----7----7----7----8---8----8----8-----------------------|


  D                C              Bb            A
   |-------5--------| |-------5--------|  |-------5--------| |-------5--------|
   S S    S    S    S S  S    S    S   S  S S    S    S    S S  S    S    S   S
|-------------------------------------------------------------------------------|
|-------------------------------------------------------------------------------|
|-------------------------------------------------------------------------------|
|-19-0---16---19---16-0-16---19---16---0-22-0---19---22---19-0-19---22---19---0-|
|-------------------------------------------------------------------------------|
|-------------------------------------------------------------------------------|
|
|---------------------------------------------------------------------------|
|  S   S    S    S    S    S    S    S    S   S    S    S    S    S    S    S
|-------------------------------------------------------------------------------|
|-------------------------------------------------------------------------------|
|-------------------------------------------------------------------------------|
|-------------------------------------------------------------------------------|
|--5---5----5----5----3----3----3----3----1---1----1----1----0----0----0----0---|
|-------------------------------------------------------------------------------|


  Guitar Solo
   G
                             ~~~~~~
    E          +E     +E     E        +H
||-15---------(15)---(15)---15-------(15)-----------------|
||-18pb20=====(18)---(18)r==18b20====(18)-----------------|
||--------------------------------------------------------|
||--------------------------------------------------------|
||--------------------------------------------------------|
||--------------------------------------------------------|
|
|  Gtr I
|   PM-----------------------------------------------------
|   S       S   S  S   S  S  S     S   S  S S S  S  S S S
||--------------------------------------------------------|
||---------------------6--6--8-----8---6--6---------------|
||--------------7--7------------------------7-7-------7-7-|
||--5-------5------------------------------------5--5-----|
||--------------------------------------------------------|
||--------------------------------------------------------|
|
|  Gtr II
|   PM-----------------------------------------------------
|   S       S   S  S   S  S  S     S   S  S S S  S  S S S
||--------------------------------------------------------|
||--------------------------------------------------------|
||---------------------7--7--8-----8---7--7---------------|
||--------------8--8------------------------8-8-------8-8-|
||-10------10-----------------------------------10-10-----|
||--------------------------------------------------------|


    ~~~~~~~~~~~~~~~~~~~~~~~~
   +H                  Q           +Q
|-(15)----------------17----------(17)---------|
|-(18)----------------20b22-------(20)r========|
|----------------------------------------------|
|----------------------------------------------|
|----------------------------------------------|
|----------------------------------------------|
|
|-------------------------------------------|
|   S   S S S S S S S  S    S S S   S   S S S
|----------------------------------------------|
|-------------6-6-8-8--6----6------------------|
|---------7-7-----------------7-7---------7-7--|
|---5---5---------------------------5---5------|
|----------------------------------------------|
|----------------------------------------------|
|
|-------------------------------------------|
|   S   S S S S S S S  S    S S S   S   S S S
|----------------------------------------------|
|----------------------------------------------|
|-------------7-7-8-8--7----7------------------|
|---------8-8-----------------8-8---------8-8--|
|--10--10--------------------------10--10------|
|----------------------------------------------|


  F5/C
                    ~~~~
   Q.              +H                 S  S
|------------------------------------17h18-|
|-20b22-----------(20)---------------------|
|------------------------------------------|
|------------------------------------------|
|------------------------------------------|
|------------------------------------------|
|
|  S    S S S S S   S  S S S S S S S  S  S
|------------------------------------------|
|-------------------6--6-------------------|
|---------2-2-5-5--------5-5-2-2------2--2-|
|--3----3------------------------3-3-------|
|------------------------------------------|
|------------------------------------------|
|
|  S    S S S S S   S  S S S S S S S  S  S
|------------------------------------------|
|------------------------------------------|
|-------------2-2---5--5-2-2---------------|
|---------3-3----------------3-3------3--3-|
|--3----3------------------------3-3-------|
|------------------------------------------|


  F5/C
   ~~~~~~~~~~~~~~~~~~
   Q.            +Q         E    E    E
|-15------------(15)------------15--------|
|--------------------------18--------15---|
|-----------------------------------------|
|-----------------------------------------|
|-----------------------------------------|
|-----------------------------------------|
|
|  S  S S S S S   S  S S S  S S  S S  S S
|-----------------------------------------|
|-----------------6--6--------------------|
|-------2-2-5-5--------5-5--2-2-------2-2-|
|--3--3--------------------------3-3------|
|-----------------------------------------|
|-----------------------------------------|
|
|  S  S S S S S   S  S S S  S S  S S  S S
|-----------------------------------------|
|-----------------------------------------|
|-----------2-2---5--5-2-2----------------|
|-------3-3-----------------3-3-------3-3-|
|--3--3--------------------------3-3------|
|-----------------------------------------|


  Bb5/F
   ~~~~~~~~~~~~~~~~~~~~~~~~~~~~~~~~~~~~~~~~
   W                                     W
|-18b20-------------------------------|-18-------------------------------|
|-------------------------------------|----------------------------------|
|-------------------------------------|----------------------------------|
|-------------------------------------|----------------------------------|
|-------------------------------------|----------------------------------|
|-------------------------------------|----------------------------------|
|
|  PM------------------------------------------------------------------|
|  S    S S S S S S S S S S S S S S S    S S S S S S S S S S S S S S S S
|-------------5-5-----3-3-------------|----------3-3---------------------|
|-----------------------------6-6-----|--4-4-------------6-6-----4-4-----|
|--3----3-3-3-----3-3-----3-3-----3-3-|------3-3-----3-3-----3-3-----3-3-|
|-------------------------------------|----------------------------------|
|-------------------------------------|----------------------------------|
|-------------------------------------|----------------------------------|
|
|  PM------------------------------------------------------------------|
|  S    S S S S S S S S S S S S S S S    S S S S S S S S S S S S S S S S
|-------------------------------------|----------------------------------|
|-------------6-6-----4-4-----3-3-----|----------4-4-----3-3-------------|
|--3----3-3-3-----3-3-----3-3-----3-3-|--5-5-3-3-----3-3-----3-3-5-5-3-3-|
|-------------------------------------|----------------------------------|
|-------------------------------------|----------------------------------|
|-------------------------------------|----------------------------------|


  Bb5                                F5          D/F#
                                      PM------------------|
   Q      +E   E  E  E  E.     +S     E  E  E  E  E  E  E  E
|-17b19r=(17)----------------------|-------------------------|
|-------------18-------------------|-------------------------|
|----------------17S15-14b16==(14)r|=14----------------------|
|----------------------------------|----15-12----------------|
|----------------------------------|----------15-13-12-13-15-|
|----------------------------------|-------------------------|
|
|  W                                  H           H
|----------------------------------|-------------------------|
|----------------------------------|-------------------------|
|--3-------------------------------|-10----------11----------|
|--3-------------------------------|-10----------12----------|
|--1-------------------------------|-/8-----------9----------|
|----------------------------------|-------------------------|
|
|  W                                  H           H
|----------------------------------|-------------------------|
|----------------------------------|-------------------------|
|----------------------------------|-------------------------|
|--3-------------------------------|-10----------12----------|
|--1-------------------------------|--8-----------9----------|
|----------------------------------|-------------------------|


  G
   E    S S S S  E   S S S S  S  S  S  S
|----------------------------------------|
|----------------------------15----------|
|-15----x-x-x-x-15---x-x-x-x----17-15-14-|
|-17----x-x-x-x-17---x-x-x-x-------------|
|----------------------------------------|
|----------------------------------------|
|
|  PM-------------------------------------
|  S  S S S S S  S S S S S S  S  S  S  S
|----------------------------------------|
|-----------6-6--8-8-6-6-----------------|
|-------7-7--------------7-7--------7--7-|
|--5--5-----------------------5--5-------|
|----------------------------------------|
|----------------------------------------|
|
|  PM-------------------------------------
|  S  S S S S S  S S S S S S  S  S  S  S
|----------------------------------------|
|----------------------------------------|
|-----------7-7--8-8-7-7-----------------|
|-------8-8--------------8-8--------8--8-|
|-10-10----------------------10-10-------|
|----------------------------------------|


   S  S  S  S  S  S  S  S  S  S  S  S  S  S  S  S
|-18-17-16-15-------------------------------------|
|-------------19-18-17-16-------------------------|
|-------------------------19-17-15-14-17-15-14-12-|
|-------------------------------------------------|
|-------------------------------------------------|
|-------------------------------------------------|
|
|----------------------------------------------|
|  S  S  S  S  S  S  S  S  S  S  S  S  S  S  S  S
|-------------------------------------------------|
|--------------6--6--8--8--6--6-------------------|
|--------7--7--------------------7--7--------7--7-|
|--5--5--------------------------------5--5-------|
|-------------------------------------------------|
|-------------------------------------------------|
|
|----------------------------------------------|
|  S  S  S  S  S  S  S  S  S  S  S  S  S  S  S  S
|-------------------------------------------------|
|-------------------------------------------------|
|--------------7--7--8--8--7--7-------------------|
|--------8--8--------------------8--8--------8--8-|
|-10-10-------------------------------10-10-------|
|-------------------------------------------------|


  F5/C
   ~~~~~~~~~~~~~~~~~~~~~
   H                +Q.            S  S
|---------------------------------------|
|-15---------------(15)-----------------|
|---------------------------------12-14-|
|---------------------------------------|
|---------------------------------------|
|---------------------------------------|
|
|  PM------------------------------------
|  S S S S S S S S   S  S S S S S  S  S
|---------------------------------------|
|--------------6-6----------------------|
|------2-2-5-5-------5--5-2-2------2--2-|
|--3-3------------------------3-3-------|
|---------------------------------------|
|---------------------------------------|
|
|  PM------------------------------------
|  S S S S S S S S   S  S S S S S  S  S
|---------------------------------------|
|---------------------------------------|
|----------2-2-5-5---2--2---------------|
|------3-3----------------3-3------3--3-|
|--3-3------------------------3-3-------|
|---------------------------------------|


   S  S  S  S  S  S  S  S  S  S  S  S  S  S  S  S
|-------------------------------------------------|
|-------------------15-13-11----------16-15-13----|
|-15-14-12-------------------14-12-10----------15-|
|----------15-14-12-------------------------------|
|-------------------------------------------------|
|-------------------------------------------------|
|
|----------------------------------------------|
|  S  S  S  S  S  S  S  S  S  S  S  S  S  S  S  S
|-------------------------------------------------|
|--------------------6--6-------------------------|
|--------2--2--5--5--------5--5--2--2--------2--2-|
|--3--3--------------------------------3--3-------|
|-------------------------------------------------|
|-------------------------------------------------|
|
|----------------------------------------------|
|  S  S  S  S  S  S  S  S  S  S  S  S  S  S  S  S
|-------------------------------------------------|
|-------------------------------------------------|
|--------------2--2--5--5--2--2-------------------|
|--------3--3--------------------3--3--------3--3-|
|--3--3--------------------------------3--3-------|
|-------------------------------------------------|


  Bb
   PM----------------------------------------------
   S  S  S  S  S  S  S  S  S  S  S  S  S  S  S  S
|-------------------------------------------------|
|-------------------------------------------------|
|-------------------------------------------------|
|-------------------------------------12-12-12-12-|
|-10-10-10-10-12-12-12-12-13-13-13-13-------------|
|-------------------------------------------------|
|
|  PM----------------------------------------------
|  S  S  S  S  S  S  S  S  S  S  S  S  S  S  S  S
|--------------5--5--------3--3-------------------|
|--------------------------------------6--6-------|
|--3--3--3--3--------3--3--------3--3--------3--3-|
|-------------------------------------------------|
|-------------------------------------------------|
|-------------------------------------------------|
|
|  PM----------------------------------------------
|  S  S  S  S  S  S  S  S  S  S  S  S  S  S  S  S
|-------------------------------------------------|
|--------------6--6--------4--4--------3--3-------|
|--3--3--3--3--------3--3--------3--3--------3--3-|
|-------------------------------------------------|
|-------------------------------------------------|
|-------------------------------------------------|


  A
 ----------------------------------------------|
   S  S  S  S  S  S  S  S  S  S  S  S  S  S  S  S
|-------------------------------------------------|
|-------------------------------------13-13-13-13-|
|-12-12-12-12-14-14-14-14-15-15-15-15-------------|
|-------------------------------------------------|
|-------------------------------------------------|
|-------------------------------------------------|
|
|----------------------------------------------|
|  S  S  S  S  S  S  S  S  S  S  S  S  S  S  S  S
|--------------3--3--------1--1-------------------|
|--------------------------------------5--5-------|
|--2--2--2--2--------2--2--------2--2--------2--2-|
|-------------------------------------------------|
|-------------------------------------------------|
|-------------------------------------------------|
|
|----------------------------------------------|
|  S  S  S  S  S  S  S  S  S  S  S  S  S  S  S  S
|-------------------------------------------------|
|--------------5--5--------3--3--------2--2-------|
|--2--2--2--2--------2--2--------2--2--------2--2-|
|-------------------------------------------------|
|-------------------------------------------------|
|-------------------------------------------------|


  F             G               A
   S S S  S S S  S  S S  S  S S  S  S  S  S
|-------------------------------------------|
|-------------------------------------------|
|-10-9-7--------12-10-9---------14-12-10----|
|--------10-9-7---------12-10-9----------14-|
|-------------------------------------------|
|-------------------------------------------|


  B                 C                 D
   S  S  S  S  S  S  S  S  S  S  S  S  S  S  S  S
|-------------------------------------------------|
|-------------------------------------------------|
|-15-14-12----------17-15-14----------19-17-15-14-|
|----------15-14-12----------17-15-14-------------|
|-------------------------------------------------|
|-------------------------------------------------|


  Guitar Solo 2
   A                                      G#
    ~~                                     ~~~~~~~~~~~~~
    H                E    E    E    E      Q        +Q         E    E    E    E
||--------------------------------------|-----------------------------------------|
||--------------------------------------|-----------------------------------------|
||-14-------------------------14---17---|-16-------(16)-----------------13---16---|
||-----------------------14-------------|--------------------------14-------------|
||------------------15------------------|---------------------15------------------|
||--------------------------------------|-----------------------------------------|
|
|  Gtr III
|   PM-----------------------------------------------------------------------------
|   S S S S S S S S  S S  S S  S S  S S    S S S S   S  S S S  S S  S S  S S  S S
||--------------------------------------|-----------------------------------------|
||--------------------------------------|-----------------------------------------|
||--------------------------------------|-----------------------------------------|
||--------------------------------------|-----------------------------------------|
||--------------------------------------|-----------------------------------------|
||--5-5-5-5-5-5-5-5--5-5--5-5--5-5--5-5-|--4-4-4-4---4--4-4-4--4-4--4-4--4-4--4-4-|


  F
   ~~~~~                 ~~
   Q.              S  S  H
|----------------------------------------|
|----------------------------------------|
|-17b19-----------17p16-17---------------|
|----------------------------------------|
|----------------------------------------|
|----------------------------------------|
|
|--------------------------------------|
|  S    S S S S S  S  S  S S S S S S S S
|----------------------------------------|
|----------------------------------------|
|----------------------------------------|
|----------------------------------------|
|----------------------------------------|
|--1----1-1-1-1-1--1--1--1-1-1-1-1-1-1-1-|


  Bb5         E/Ab          A
                             ~~
   E  E  E  E  E  E  E  E    H                E    E    E    E
|-------------------------|--------------------------------------|
|-17h18-15h17-13-15-12h13-|-10-----------------------------------|
|-------------------------|----------------------------14---17---|
|-------------------------|-----------------------14-------------|
|-------------------------|------------------15------------------|
|-------------------------|--------------------------------------|
|
|                            PM-----------------------------------
|  H           H             S S S S S S S S  S S  S S  S S  S S
|-------------------------|--------------------------------------|
|-------------------------|--------------------------------------|
|-------------------------|--------------------------------------|
|--8-----------6----------|--------------------------------------|
|--8-----------7----------|--------------------------------------|
|--6-----------4----------|--5-5-5-5-5-5-5-5--5-5--5-5--5-5--5-5-|


  G#
   ~~
   H                E    E    E    E
|----------------------------------------|
|----------------------------------------|
|-16-------------------------13---16-----|
|-----------------------14---------------|
|------------------15--------------------|
|----------------------------------------|
|
|------------------------------------|
|  S S S S S S S S  S S  S S  S S  S S
|----------------------------------------|
|----------------------------------------|
|----------------------------------------|
|----------------------------------------|
|----------------------------------------|
|--4-4-4-4-4-4-4-4--4-4--4-4--4-4--4-4---|


  F
   ~~~~~                 ~~
   Q.              S  S  H
|----------------------------------------|
|----------------------------------------|
|-17b19-----------17p16-17---------------|
|----------------------------------------|
|----------------------------------------|
|----------------------------------------|
|
|  PM----------------------------------|
|  S    S S S S S  S  S  S S S S S S S S
|----------------------------------------|
|----------------------------------------|
|----------------------------------------|
|----------------------------------------|
|----------------------------------------|
|--1----1-1-1-1-1--1--1--1-1-1-1-1-1-1-1-|


  C5                      Bb5
   S  S  S  S  S  S  S  S  S  S  S  S  S  S  S  S
|-------------------------------------------------|
|-18-17-15----17-15-------15----------------------|
|----------18-------18-17----18-17-15-18-17-15-14-|
|-------------------------------------------------|
|-------------------------------------------------|
|-------------------------------------------------|
|
|  H                       H
|-------------------------------------------------|
|-------------------------------------------------|
|--5-----------------------3----------------------|
|--5-----------------------3----------------------|
|--3-----------------------1----------------------|
|-------------------------------------------------|


  D5                     C#
               ~~~~
   E     +E   +H.          E    S  S  S  S  S  S  S  S  S  S  S  S  S  S
|----------------------|-/18---17-18-15-18-17-15-13-17-15-13-12-15-13-12-|
|----------------------|-------------------------------------------------|
|-17b19-(17)-(17)------|-------------------------------------------------|
|----------------------|-------------------------------------------------|
|----------------------|-------------------------------------------------|
|----------------------|-------------------------------------------------|
|
|                          PM-----------------------------------------|
|  W                       S S  S  S  S  S  S  S  S  S  S  S  S  S  S  S
|----------------------|-------------------------------------------------|
|----------------------|-------------------------------------------------|
|--7-------------------|-------------------------------------------------|
|--7-------------------|-------------------------------------------------|
|--5-------------------|---4-4--4--4--4--4--4--4--4--4--4--4--4--4--4--4-|
|----------------------|-------------------------------------------------|


  Bb                                       Eb5             A/C#
   S  S  S  S S  S  S S S  S S S S S S S   S S S S S S S S S S S S S S S S
|-10-13-12-10-8-12-10-8-6-10-8-6-5-8-6-5-|---6-5-----5---------------------|
|----------------------------------------|-8-----8-6---8-6-5-8-6-5-6-5-----|
|----------------------------------------|-----------------------------7-5-|
|----------------------------------------|---------------------------------|
|----------------------------------------|---------------------------------|
|----------------------------------------|---------------------------------|
|
|  PM----------------------------------|
|  S  S  S  S S  S  S S S  S S S S S S S   H               H
|----------------------------------------|---------------------------------|
|----------------------------------------|---------------------------------|
|----------------------------------------|-8---------------6---------------|
|----------------------------------------|-8---------------7---------------|
|--1--1--1--1-1--1--1-1-1--1-1-1-1-1-1-1-|-6---------------4---------------|
|----------------------------------------|---------------------------------|


  D                                      C#
                       ~                                             ~~~
  E      +Q.           H                  E        +E     E    E     H
|--------------------------------------|---------------------------------------------|
|-8b10---(8)-----------6---------------|-13b15====(13)r==13---10---/17---------------|
|--------------------------------------|---------------------------------------------|
|--------------------------------------|---------------------------------------------|
|--------------------------------------|---------------------------------------------|
|--------------------------------------|---------------------------------------------|
|
| PM----------------------------------------------------------------------------------
| S    S  S  S S S S S S S S S S S S S    S     S   S  S  S S  S S   S S S S S S S S
|--------------------------------------|---------------------------------------------|
|--------------------------------------|---------------------------------------------|
|--------------------------------------|---------------------------------------------|
|--------------------------------------|---------------------------------------------|
|-5----5--5--5-5-5-5-5-5-5-5-5-5-5-5-5-|--4-----4---4--4--4-4--4-4---4-4-4-4-4-4-4-4-|
|--------------------------------------|---------------------------------------------|


  Bb
                            ~~~
   E       +Q         E     H
|-------------------------------------------|
|-17b18---(17)-------15---/20---------------|
|-------------------------------------------|
|-------------------------------------------|
|-------------------------------------------|
|-------------------------------------------|
|
|-----------------------------------------|
|  S    S   S  S S S  S S   S S S S S S S S
|-------------------------------------------|
|-------------------------------------------|
|-------------------------------------------|
|-------------------------------------------|
|--1----1---1--1-1-1--1-1---1-1-1-1-1-1-1-1-|
|-------------------------------------------|


                                                    Interlude
  B5                                                 E
                                                      ~~
   S  S  S  S  S  S  S  S  S  S  S  S  S  S  S  S     W
|-19p14----19p14----19p14-17p14----17p14----17p14-||-------------------|
|-------------------------------------------------||-17----------------|
|-------16-------16-------------16-------16-------||-------------------|
|-------------------------------------------------||-------------------|
|-------------------------------------------------||-------------------|
|-------------------------------------------------||-------------------|
|
|                                                    Gtr I
|                                                     PM|    PM  PM  PM
|  Q           Q           Q           Q              E E  E E E E E E
|-------------------------------------------------||-------------------|
|-------------------------------------------------||-------------------|
|--4-----------4-----------4-----------4----------||-------------------|
|--4-----------4-----------4-----------4----------||-------------------|
|--2-----------2-----------2-----------2----------||------10---7---9---|
|-------------------------------------------------||--0-0----0---0---0-|
|
|                                                    Gtr II
|                                                     PM|    PM  PM  PM
|  W                                                  E E  E E E E E E
|-------------------------------------------------||-------------------|
|-------------------------------------------------||-------------------|
|-------------------------------------------------||-------------------|
|-------------------------------------------------||-------------------|
|-------------------------------------------------||------10---7---9---|
|-------------------------------------------------||--0-0----0---0---0-|


          Am                                        E5D5   C5D5 E5
  Gtr I
    PM  PM                       PM|    PM  PM  PM
  E E E E S  S  S S  S  S S  S   E E  E E E E E E   E Q.   E Q  E
|------------------------------|------------------|---------------|
|------------------------------|------------------|---------------|
|------------------------------|------------------|-9-7----5-7--9-|
|-------------------------5--7-|------------------|-9-7----5-7--9-|
|-5---7-----------5--7--9------|-----10---7---9---|-7-5----3-5--7-|
|---0---0-5--7--8--------------|-0-0----0---0---0-|---------------|
|
| Gtr II
|   PM  PM                       PM|    PM  PM  PM
| E E E E S  S  S S  S  S S  S   E E  E E E E E E   E Q.   E Q  E
|------------------------------|------------------|---------------|
|------------------------------|------------------|---------------|
|------------------------------|------------------|---------------|
|-------------------------9-10-|------------------|-9-7----5-7--9-|
|-5---7-----------9-10-12------|-----10---7---9---|-7-5----3-5--7-|
|---0---0-8-10-12--------------|-0-0----0---0---0-|---------------|


  E                          Am
  PM|    PM  PM  PM    PM  PM
  E E  E E E E E E   E E E E  S S  S  S S  S  S S
|------------------|------------------------------|
|------------------|------------------------------|
|------------------|------------------------------|
|------------------|----------7-5-----------------|
|-----10---7---9---|-5---7---------9--7-5---------|
|-0-0----0---0---0-|---0---0---------------8--7-5-|
|
| PM|    PM  PM  PM    PM  PM
| E E  E E E E E E   E E E E  S S  S  S S  S  S S
|------------------|------------------------------|
|------------------|------------------------------|
|------------------|------------------------------|
|------------------|---------10-9-----------------|
|-----10---7---9---|-5---7--------12-10-9---------|
|-0-0----0---0---0-|---0---0--------------12-10-8-|


  E                  E5D5   C5D5 E5
  PM|    PM  PM  PM
  E E  E E E E E E   E Q.   E Q  E
|------------------|---------------|
|------------------|---------------|
|------------------|-9-7----5-7--9-|
|------------------|-9-7----5-7--9-|
|-----10---7---9---|-7-5----3-5--7-|
|-0-0----0---0---0-|---------------|
|
| PM|    PM  PM  PM
| E E  E E E E E E   E Q.   E Q  E
|------------------|---------------|
|------------------|---------------|
|------------------|---------------|
|------------------|-9-7----5-7--9-|
|-----10---7---9---|-7-5----3-5--7-|
|-0-0----0---0---0-|---------------|


  E                          Am
  PM|    PM  PM  PM    PM  PM
  E E  E E E E E E   E E E E S  S  S S  S  S S  S
|------------------|------------------------------|
|------------------|------------------------------|
|------------------|------------------------------|
|------------------|-------------------------5--7-|
|-----10---7---9---|-5---7-----------5--7--9------|
|-0-0----0---0---0-|---0---0-5--7--8--------------|
|
| PM|    PM  PM  PM    PM  PM
| E E  E E E E E E   E E E E S  S  S S  S  S S  S
|------------------|------------------------------|
|------------------|------------------------------|
|------------------|------------------------------|
|------------------|-------------------------9-10-|
|-----10---7---9---|-5---7-----------9-10-12------|
|-0-0----0---0---0-|---0---0-8-10-12--------------|


  E
  PM|    PM  PM
  E E  E E E E E E   E S S E +E  S S S S Q
|------------------|--------------------------|
|------------------|--------------------------|
|------------------|--------------------------|
|------------------|-------9-(9)---------9----|
|-----10---9-------|-------7-(7)---------7----|
|-0-0----0---0-0-0-|---0-0-------0-0-0-0------|
|
| PM|    PM  PM
| E E  E E E E E E   E S S E +E  S S S S Q
|------------------|--------------------------|
|------------------|--------------------------|
|------------------|--------------------------|
|------------------|-------9-(9)---------9----|
|-----10---9-------|-------7-(7)---------7----|
|-0-0----0---0-0-0-|---0-0-------0-0-0-0------|


  Kiko Arrpegio Solo!
   G
   Gtr IV
    S S  S S  S S  S S  S S  S S  S S  S S
||-----------------------------------------|
||--------------8h10p8--------------8h10p8-|
||-----------------------------------------|
||-12p8----8h12--------12p8----8h12--------|
||------10------------------10-------------|
||-----------------------------------------|
|
|  Gtr III
|   PM--------------------------------------
|   S S  S S  S S  S S  S S  S S  S S  S S
||-----------------------------------------|
||-----------------------------------------|
||-----------------------------------------|
||-----------------------------------------|
||-----------------------------------------|
||--3-3--3-3--3-3--3-3--3-3--3-3--3-3--3-3-|


  C
   S S  S S  S S  S S  S S  S S  S S  S S
|--------------8h10p8-10p8-----------------|
|------------------------------------------|
|-12p8----8h12-------------12p8----8h12p8--|
|------10-----------------------10---------|
|------------------------------------------|
|------------------------------------------|
|
|---------------------------------------|
|  S S  S S  S S  S S  S S  S S  S S  S S
|------------------------------------------|
|------------------------------------------|
|------------------------------------------|
|------------------------------------------|
|--3-3--3-3--3-3--3-3--3-3--3-3--3-3--3-3--|
|------------------------------------------|


  F                                     Bb
   S S S S  S S S S  S S S S  S S S S    S S S S  S S S S S S  S S S S  S S
|-------------------------------------|-------------6h8p6-8p6---------------|
|-------------6h8p6-------------6h8p6-|-------------------------------------|
|-------------------------------------|-10p7---7h10-----------10p7---7h10p7-|
|-10p7---7h10-------10p7---7h10-------|------8---------------------8--------|
|------8-----------------8------------|-------------------------------------|
|-------------------------------------|-------------------------------------|
|
|  PM---------------------------------------------------------------------|
|  S S S S  S S S S  S S S S  S S S S    S S S S  S S S S S S  S S S S  S S
|-------------------------------------|-------------------------------------|
|-------------------------------------|-------------------------------------|
|-------------------------------------|-------------------------------------|
|-------------------------------------|-------------------------------------|
|-------------------------------------|--1-1-1-1--1-1-1-1-1-1--1-1-1-1--1-1-|
|--1-1-1-1--1-1-1-1--1-1-1-1--1-1-1-1-|-------------------------------------|


  Eb                                G#
  S S S S S S S S S S S S S S S S   S S S S S S S S S S S S S S S S
|---------------------------------|-----------4h6p4-6p4-------------|
|-----------4h6p4-8p4-------------|---------------------------------|
|---------------------------------|-8p5---5h8-----------8p5---5h8p5-|
|-8p5---5h8-----------8p5---5h8p5-|-----6-------------------6-------|
|-----6-------------------6-------|---------------------------------|
|---------------------------------|---------------------------------|
|
| PM--------------------------------------------------------------|
| S S S S S S S S S S S S S S S S   S S S S S S S S S S S S S S S S
|---------------------------------|---------------------------------|
|---------------------------------|---------------------------------|
|---------------------------------|---------------------------------|
|---------------------------------|---------------------------------|
|-6-6-6-6-6-6-6-6-6-6-6-6-6-6-6-6-|---------------------------------|
|---------------------------------|-4-4-4-4-4-4-4-4-4-4-4-4-4-4-4-4-|


  A5
  S S S S S S S S  S S  S S  S  S  S  S
|-----------8p5h8-12p8------------------|
|----------------------10---------------|
|-9p5---5h9---------------9-------------|
|-----7---------------------10----------|
|------------------------------12-11-10-|
|---------------------------------------|
|
| Q.          Q.             Q
|---------------------------------------|
|---------------------------------------|
|---------------------------------------|
|-2-----------2--------------2----------|
|-0-----------0--------------0----------|
|---------------------------------------|


  D5
             |-----5-----|  |-----5-----|
  S  S  S S  S  S  S  S  S  S  S  S  S  S  E E
|----------------------------------------------|
|--------------------------------12-13-14-15---|
|--------------------11-12-13-14---------------|
|---------9-10-11-12---------------------------|
|-9-10-11--------------------------------------|
|----------------------------------------------|
|
| W
|----------------------------------------------|
|----------------------------------------------|
|----------------------------------------------|
|-7--------------------------------------------|
|-5--------------------------------------------|
|----------------------------------------------|


   Bridge
    Gm                                    F
    Gtr I
     PM-----------------------------------------------------------------|
     S  S S S S S S S  S  S S S S S S S   S S S S S S S S S S S S S S S S   3x
||--------------------------------------|-----------------------------------||
||o-------------------------------------|----------------------------------o||
||--------------------------------------|-----------------------------------||
||--------8-8-7-7-8-8-------8-8-7-7-8-8-|-----7-7-5-5-7-7-----7-7-5-5-7-7---||
||o-10-10-------------10-10-------------|-8-8-------------8-8--------------o||
||--------------------------------------|-----------------------------------||
|
|   Gtr II
|    PM-----------------------------------------------------------------|
|    S  S S S S S S S  S  S S S S S S S   S S S S S S S S S S S S S S S S   3x
||--------------------------------------|-----------------------------------||
||o-------------------------------------|----------------------------------o||
||--------7-7-5-5-7-7-------7-7-5-5-7-7-|-----7-7-5-5-7-7-----7-7-5-5-7-7---||
||---8--8--------------8--8-------------|-7-7-------------7-7---------------||
||o-------------------------------------|----------------------------------o||
||--------------------------------------|-----------------------------------||


  Bb5        D5   C#5
  Gtrs I, II
  W          H    H
|----------|-----------||
|----------|-----------||
|----------|-----------||
|-3--------|-7----6----||
|-1--------|-5----4----||
|----------|-----------||


  Chorus
   F5          E5         Bb5     C5   D5      C5
    W          W          H.      Q    W
||-----------|----------|------------|-----------|
||-----------|----------|------------|-----------|
||-----------|----------|------------|-----------|
||-10--------|-9--------|-3-------5--|-7---------|
||--8--------|-7--------|-1-------3--|-5---------|
||-----------|----------|------------|-----------|


  Bb5     C5   F5
  H.      Q     W
|------------|-------|
|------------|-------|
|------------|-------|
|-3-------5--|-10----|
|-1-------3--|--8----|
|------------|-------|


  Eb5         C5
  H    H      W
|-----------|------|
|-----------|------|
|-----------|------|
|-8----8----|-5----|
|-6----6----|-3----|
|-----------|------|


  Out-Chorus
   G5          F#5         C5      D5   E5      D5
    W           W          H.      Q    W
||-----------|-----------|------------|-----------|
||-----------|-----------|------------|-----------|
||-----------|-----------|------------|-----------|
||-12--------|-11--------|-5-------7--|-9---------|
||-10--------|--9--------|-3-------5--|-7---------|
||-----------|-----------|------------|-----------|


  C5       D5    G5                   F5
  H.        Q     W                    H     H       W
|--------------|--------------------|-------------|-------|
|--------------|--------------------|-------------|-------|
|-5---------7--|-12-----------------|-10----10----|-10----|
|-5---------7--|-12-----------------|-10----10----|-10----|
|-3---------5--|-10-----------------|--8-----8----|--8----|
|--------------|--------------------|-------------|-------|
|
| Gtr III
| ~~              ~~                   ~~~~~~~~~~~~~~~~
| H     Q   Q     H     E     +Q.      H     H       W
|--------------|--------------------|-------------|-------|
|-8-----8--10--|-12----13b15-(13)---|-13----13----|-13----|
|--------------|--------------------|-------------|-------|
|--------------|--------------------|-------------|-------|
|--------------|--------------------|-------------|-------|
|--------------|--------------------|-------------|-------|


 Main Theme 2
  E                                    Eb
  Gtr I
   Q       Q        Q        Q          Q        Q        Q        Q
|------------------------------------|-------------------------------------|
|-12------------------------12-------|-10-------12-------13-------10-------|
|----------9-------12----------------|-------------------------------------|
|------------------------------------|-------------------------------------|
|------------------------------------|-------------------------------------|
|------------------------------------|-------------------------------------|
|
| Gtr II
|  Q       Q        Q        Q          Q        Q        Q        Q
|------------------------------------|-------------------------------------|
|------------------------------------|-------------------------------------|
|-12----------------9-------12-------|-11-------12-------14-------11-------|
|----------9-------------------------|-------------------------------------|
|------------------------------------|-------------------------------------|
|------------------------------------|-------------------------------------|
|
| Gtr III
|  PM-----------------------------------------------------------------------
|  S S S S S S S S  S S S S  S S S S    S S S S  S S S S  S S S S  S S S S
|------------------------------------|-------------------------------------|
|------------------------------------|-------------------------------------|
|------------------------------------|-------------------------------------|
|------------------------------------|-------------------------------------|
|--7-7-7-7-7-7-7-7--7-7-7-7--7-7-7-7-|--6-6-6-6--6-6-6-6--6-6-6-6--6-6-6-6-|
|------------------------------------|-------------------------------------|


  D                                    C#
   Q       Q        Q        Q          Q        Q        S  S  S  S  S  S  S  S
|------------------------------------|----------------------------------------------|
|-12------------------------12-------|-10-------12-------13-10-12-13-15-12-13-15----|
|----------9-------12----------------|----------------------------------------------|
|------------------------------------|----------------------------------------------|
|------------------------------------|----------------------------------------------|
|------------------------------------|----------------------------------------------|
|
|  Q       Q        Q        Q          Q        Q        S  S  S  S  S  S  S  S
|------------------------------------|----------------------------------------------|
|------------------------------------|----------------------------------------------|
|-12----------------9-------12-------|-11-------12-------14-11-12-14-16-12-14-16----|
|----------9-------------------------|----------------------------------------------|
|------------------------------------|----------------------------------------------|
|------------------------------------|----------------------------------------------|
|
|-----------------------------------------------------------------------------|
|  S S S S S S S S  S S S S  S S S S    S S S S  S S S S  S  S  S  S  S  S  S  S
|------------------------------------|----------------------------------------------|
|------------------------------------|----------------------------------------------|
|------------------------------------|----------------------------------------------|
|------------------------------------|----------------------------------------------|
|--5-5-5-5-5-5-5-5--5-5-5-5--5-5-5-5-|--4-4-4-4--4-4-4-4--4--4--4--4--4--4--4--4----|
|------------------------------------|----------------------------------------------|


  C                                  D
   ~~~~~~~~~~~~~~~~~~~~~~~~~~~~~~~~~~~~~
   W                                  W
|----------------------------------|----------------------------------|
|-17-------------------------------|-19-------------------------------|
|----------------------------------|----------------------------------|
|----------------------------------|----------------------------------|
|----------------------------------|----------------------------------|
|----------------------------------|----------------------------------|
|
|  ~~~~~~~~~~~~~~~~~~~~~~~~~~~~~~~~~~~~~
|  W                                  W
|----------------------------------|----------------------------------|
|----------------------------------|----------------------------------|
|-17-------------------------------|-19-------------------------------|
|----------------------------------|----------------------------------|
|----------------------------------|----------------------------------|
|----------------------------------|----------------------------------|
|
|  PM---------------------------------------------------------------|
|  S S S S S S S S S S S S S S S S    S S S S S S S S S S S S S S S S
|----------------------------------|----------------------------------|
|----------------------------------|----------------------------------|
|----------------------------------|----------------------------------|
|----------------------------------|----------------------------------|
|--3-3-3-3-3-3-3-3-3-3-3-3-3-3-3-3-|--5-5-5-5-5-5-5-5-5-5-5-5-5-5-5-5-|
|----------------------------------|----------------------------------|


  E                                          B                  A
       PM----|            PM-----|     PM-------------------------------------|
   S S S S S S  S     S   S  S S S S S S S     S  S S S S S S S S S S S S S S S
|------------------------------------------|---------------------------------------|
|------------------------------------------|---------------------------------------|
|------------------------------------------|---7--7-5-5-4-4-----5-5-4-4------------|
|--4h5-5-5-5-5--4h====5---5--5-5-5-4h5-5-5-|----------------7-7---------7-7-5-5----|
|------------------------------------------|---------------------------------------|
|------------------------------------------|---------------------------------------|
|
|  PM--------|  ~~~~~~                         ~~~~
|  E   S S S S  E        +H                   +W
|--------------12-------(12)---------------|-(12)----------------------------------|
|--------------15b17====(15)---------------|-(15)----------------------------------|
|--0---0-0-0-0-----------------------------|---------------------------------------|
|------------------------------------------|---------------------------------------|
|------------------------------------------|---------------------------------------|
|------------------------------------------|---------------------------------------|
|
|      PM----|            PM-----|     PM-------------------------------------|
|  S S S S S S  S     S   S  S S S S S S S     S  S S S S S S S S S S S S S S S
|------------------------------------------|---------------------------------------|
|------------------------------------------|---------------------------------------|
|------------------------------------------|---------------------------------------|
|------------------------------------------|---9--9-7-7-5-5-----7-7-5-5------------|
|--5h7-7-7-7-7--5h====7---7--7-7-7-5h7-7-7-|----------------9-9---------9-9-7-7----|
|------------------------------------------|---------------------------------------|


  C5         B5         Em
  Gtr I
                            PM----|     PM----|     PM---
  W          W          S S S S S S S S S S S S S S S S
|----------|----------|---------------------------------|
|----------|----------|---------------------------------|
|-5--------|-4--------|---------------------------------|
|-5--------|-4--------|-4h5-5-5-5-5-5p4-5-5-5-5-4h5-5-5-|
|-3--------|-2--------|---------------------------------|
|----------|----------|---------------------------------|
|
|                           PM----|     PM----|     PM---
| W          W          S S S S S S S S S S S S S S S S
|----------|----------|---------------------------------|
|----------|----------|---------------------------------|
|----------|----------|---------------------------------|
|-5--------|-4--------|---------------------------------|
|-3--------|-2--------|-5h7-7-7-7-7-5h7-7-7-7-7-5h7-7-7-|
|----------|----------|---------------------------------|


                  Bm
 -------------------------------|
  S S S S S S S S S S S S S S S S
|------------------------------------|
|---------------------5-5-7-7-8-8----|
|---------4-4-5-5-7-7----------------|
|-5-5-7-7----------------------------|
|------------------------------------|
|------------------------------------|
|
|-------------------------------|
| S S S S S S S S S S S S S S S S
|------------------------------------|
|------------------------------------|
|---------------------5-5-7-7-9-9----|
|---------5-5-7-7-9-9----------------|
|-7-7-9-9----------------------------|
|------------------------------------|


  C5         D5         G5
  Gtrs I, II
  W          W          W
|----------|----------|------|
|----------|----------|------|
|----------|----------|------|
|-5--------|-7--------|------|
|-3--------|-5--------|-5----|
|----------|----------|-3----|


 Outro
  E                                 B              C
  Gtr III
    PM-----|        ~~   PM---|
  E S S  E E  E  E  Q    E  E  E  E  S  S S  S S S  S  S
|----------------------|---------------------------------|
|---------------12-10--|---------10-12-10-8--------13-12-|
|-9--------9-12--------|-9-11-12------------11-9-7-------|
|---9-9-12-------------|---------------------------------|
|----------------------|---------------------------------|
|----------------------|---------------------------------|


             D           E
   S  S  S S  S  S  S  S  E  Q.
|----------------------------------*|
|-10---------15-13-12----17\-------*|
|----12-11-9----------14-----------*|
|----------------------------------*|
|----------------------------------*|
|----------------------------------*|



Duration Legend
---------------
W - whole; H - half; Q - quarter; E - 8th; S - 16th; T - 32nd; X - 64th; a - acciaccatura
+ - note tied to previous; . - note dotted; .. - note double dotted
Uncapitalized letters represent notes that are staccato (1/2 duration)
Irregular groupings are notated above the duration line
Duration letters will always appear directly above the note/fret number it represents the
duration for.  Duration letters with no fret number below them represent rests.  Multi-
bar rests are notated in the form Wxn, where n is the number of bars to rest for.  Low
melody durations appear below the staff

Tablature Legend
----------------
 h   - hammer-on
 p   - pull-off
 b   - bend
 pb  - pre-bend
 r   - bend release (if no number after the r, then release immediately)
 /\  - slide into or out of (from/to "nowhere")
 s   - legato slide
 S   - shift slide
 - natural harmonic
[n]  - artificial harmonic
n(n) - tapped harmonic
 ~   - vibrato
 tr  - trill
 T   - tap
 TP  - trem. picking
 PM  - palm muting
\n/  - tremolo bar dip; n = amount to dip
 \n  - tremolo bar down
 n/  - tremolo bar up
/n\  - tremolo bar inverted dip
 =   - hold bend; also acts as connecting device for hammers/pulls
 <> - volume swell (louder/softer)
 x   - on rhythm slash represents muted slash
 o   - on rhythm slash represents single note slash

Misc Legend
-----------
 |  - bar
||  - double bar
||o - repeat start
o|| - repeat end
*|  - double bar (ending)
 :  - bar (freetime)
 $  - Segno
 &  - Coda
Tempo markers -  = BPM(8/16=s8/s16), where s8 = swing 8ths, s16 = swing 16ths

comments
We did not receive enough feedback on this tab! Please rate:
print report bad tab
1 2 3 4 5
I want to post or [tab]
guest
You may want to rate the tab now too:
select rating
Please do not post tabs as comments. Select "correction" instead!