Oops, an error
Loading. Please wait.

Paper Aeroplane Tab

ver1
ver1

Whole song

More versions @911Tabs.com
45,970 views 201 this week
8 commentsread comments
1 2 3 4 5
accurate
x 10
Autoscroll
+/-
esc
set tempo
stop
Contributor
WARNING: You are trying to view
                                    content from Ultimate-Guitar.com
                                    in an unauthorized application,
                                    which is prohibited.

                                    Please use an official Ultimate
                                    Guitar Tabs application for iPhone,
                                    iPad or Android to access legitimate
                                    chords, guitar, bass, and drum tabs
                                    from Ultimate-Guitar.com database.

                                    Type "ultimate guitar tabs" in Apple
                                    App Store's or Android Market's
                                    search to find the application.
Drop D Tuning  DADGBE






MAIN RIFF:
E-|----------------------------------------|----------------------------------------|-
B-|----------------------------------------|----------------------------------------|-
G-|----------------------------------------|----------------------------------------|-
D-|---1--1------1--1------1--1------1--1---|---1--1------1--1------1--1------1--1---|-
A-|-2------2--2------2--2------2--2------2-|----------------------------------------|-
D-|----------------------------------------|-1------1--1------1--1------1--1------1-|-

VARIATION (2:24 in):
E-|----------------------------------------|----------------------------------------|-
B-|----------------------------------------|----------------------------------------|-
G-|----------------------------------------|----------------------------------------|-
D-|---8--8------8--8------8--8------8--8---|---1--1------1--1------1--1------1--1---|-
A-|----------------------------------------|----------------------------------------|-
D-|-9------9--9------9--9------9--9------9-|-1------1--1------1--1------1--1------1-|-

8 comments total. Showing first comments.
0 reply
rodeoclown89 wrote on August 11 2007, 01:07 am

close but no cigar

-2 reply
A-PB wrote on October 5 2007, 02:42 am

for all those lucky enough to look at the comments this is what it actually is i cant be bothered making a fully fledged tab

Drop D

e----------------------------------------------------------
b----------------------------------------------------------
g----------------------------------------------------------
d--0-0----0-0----0-0----0-0----0-0----0-0----0-0----0-0----
a----------------------------------------------------------
d-8----8-8---8-8----8-8-----8-0---0-0----0-0----0-0----0-8-

0 reply
A-PB wrote on October 5 2007, 02:43 am

and for the above it's all palm muted

I want to post or [tab]
guest
You may want to rate the tab now too:
select rating
Please do not post tabs as comments. Select "correction" instead!