Oops, an error
Loading. Please wait.

Tempting Time Tab

18,186 views 93 this week
2 commentsread comments
1 2 3 4 5
accurate
x 4
add to favorites launch autoscroll
font size
0
reset
Autoscroll
+/-
esc
set tempo
stop
Contributor
Difficulty
advanced
WARNING: You are trying to view
                                    content from Ultimate-Guitar.com
                                    in an unauthorized application,
                                    which is prohibited.

                                    Please use an official Ultimate
                                    Guitar Tabs application for iPhone,
                                    iPad or Android to access legitimate
                                    chords, guitar, bass, and drum tabs
                                    from Ultimate-Guitar.com database.

                                    Type "ultimate guitar tabs" in Apple
                                    App Store's or Android Market's
                                    search to find the application.
Tempting Time
Animals as Leaders


Played on a seven string

E||-------|-------|-------|-------|-------|-------|-------|-------|-------|
B||-------|-------|-------|-------|-------|-------|-------|-------|-------|
G||-------|-------|-------|-------|-------|-------|-------|-------|-------|
D||-------|-------|-------|-------|-------|-------|-------|-------|-------|
A||-------|-------|-------|-------|-------|-------|-------|-------|-------|
E||-------|-------|-------|-------|-------|-------|-------|-------|-------|
B||-------|-------|-------|-------|-------|-------|-------|-------|-------|


           S  S  E   S  S  S  E   S  S  S  E   S  S
-------|--------------------------------------------|
-------|--------------------------------------------|
-------|--------------------------------------------|
-------|--------------------------------------------|
-------|--------------------------------------------|
-------|-----12-15----------------------------------|
-------|--13--------13p-0-13p-0--13p-0-13p-0--13p-0-|


   S  E   S  S  E   S  S  S  E   S  S  S  S
--------------------------------------------|
--------------------------------------------|
--------------------------------------------|
--------------------------------------------|
---------------14---------------------------|
------------12------------------------------|
--13p-0--13--------13p-0-13p-0--13p-0-13p-0-|


                  PM PM
  S  S  S  S  E   S  S  E   S  S  S  E   S
--------------------------------------------|
--------------------------------------------|
--------------------------------------------|
--------------------------------------------|
--------------------------------------------|
-----------------------11-------------------|
--L-13p-0-13p-0--12-13-----13p-0-13p-0--13p-|


  S  S  E   S  S  S  E   S  S  E   S  S  S
--------------------------------------------|
--------------------------------------------|
--------------------------------------------|
--------------------------------------------|
--------------------------------------------|
---------------------------11-14------------|
--0-13p-0--13p-0-13p-0--12--------13p-0-13p-|


  E   S  S  S  E   S  S  S  E   E   E
---------------------------------------|
---------------------------------------|
---------------------------------------|
---------------------------------------|
---------------------------------------|
---------------------------------------|
--0--13p-0-13p-0--13p-0-13p-0--13p--0--|


   S  S  E   S  S  S  E   S  S  S  E   S  S
--------------------------------------------|
--------------------------------------------|
--------------------------------------------|
--------------------------------------------|
--------------------------------------------|
-----12-15----------------------------------|
--13--------13p-0-13p-0--13p-0-13p-0--13p-0-|


   S  E   S  S  E   S  S  S  E   S  S  S  S
--------------------------------------------|
--------------------------------------------|
--------------------------------------------|
--------------------------------------------|
---------------14---------------------------|
------------12------------------------------|
--13p-0--13--------13p-0-13p-0--13p-0-13p-0-|


                  PM PM
  S  S  S  S  E   S  S  E   S  S  S  E   S
--------------------------------------------|
--------------------------------------------|
--------------------------------------------|
--------------------------------------------|
--------------------------------------------|
-----------------------11-------------------|
--L-13p-0-13p-0--12-13-----13p-0-13p-0--13p-|


  S  S  E   S  S  S  E   S  S  E   S  S  S
--------------------------------------------|
--------------------------------------------|
--------------------------------------------|
--------------------------------------------|
--------------------------------------------|
---------------------------11-14------------|
--0-13p-0--13p-0-13p-0--12--------13p-0-13p-|


  E   S  S  S  E   S  S  S  E   E   E
---------------------------------------|
---------------------------------------|
---------------------------------------|
---------------------------------------|
---------------------------------------|
---------------------------------------|
--0--13p-0-13p-0--13p-0-13p-0--13p--0--|


   |--3--|  |--3--|  |--3--|  |--3--|  |--3--|  |--3--|  |--3--|  |--3--|
   S  S  S  S  S  S  S  S  S  S  S  S  S  S  S  S  S  S  S  S  S  S  S  S
--------------------------------------------------------------------------|
--------------------------------------------------------------------------|
--12-12-12-11-------11-11-11----------------------------------------------|
--------------14-------------14-------14-14-14-10-------10-10-10----------|
-----------------15-------------15-10-------------10-------------10----10-|
-----------------------------------------------------12-------------14----|
--------------------------------------------------------------------------|


   |--3--|  |--3--|  |--3--|  |--3--|  |--3--|  |--3--|  |--3--| |--3-|
   S  S  S  S  S  S  S  S  S  S  S  S  S  S  S  S  S  S  S  S  S S  S S
--------------------------------12-14-15-14-12--------------------------|
-----------------------------13----------------13-----------------------|
-----------------------11-12----------------------12-11-----------------|
-----------------10-14----------------------------------14-10-----------|
-----------10-14----------------------------------------------10-9------|
--14----12---------------------------------------------------------12-8-|
-----13-----------------------------------------------------------------|


   |--3--|  |--3--|  |--3--|  |--3--|  |--3--|  |--3--|  |--3--|  |--3--|
   S  S  S  S  S  S  S  S  S  S  S  S  S  S  S  S  S  S  S  S  S  S  S  S
--14-14-14-11-------11----------------------------------------------------|
--------------12-------12----12-------------------------------------------|
-----------------12-------12----12-11-12-12-12-11-------11----------------|
--------------------------------------------------13-------13----13-------|
-----------------------------------------------------14-------14----14-10-|
--------------------------------------------------------------------------|
--------------------------------------------------------------------------|


                                                                               W
                            |--3--|  |--3--|                |--3--|
   T  T  T T  T   T   T  T  S  S  S  S  S  S  T   T   T  T  S  S  S  T  T  T T E
-------------14h-19p-14-------11-------------11h-12p-11--------------------------|
-----------x------------16-------13-------13------------12-----------------------|
--------17-----------------16-------12-12------------------11--------------------|
-----16-------------------------------------------------------13-----------------|
--14-------------------------------------------------------------14-10s-9--------|
--------------------------------------------------------------------------11-7---|
-------------------------------------------------------------------------------8-|


   T  T        T  T        T  T        T  T        T  T       T  T
   |--3--|  |--3--|  |--3--|  |--3--|  |--3--|  |--3--|  |--3-|  |--3-|
   S  S  S  S  S  S  S  S  S  S  S  S  S  S  S  S  S  S  S S  S  S  S S
------------------------------------------------------------------------|
------------------------------------------------------------------------|
--------15----------15----------15----------15----------11---19----11---|
--20-------13-21-------13-20-------13-21-------13-17-------9----18----9-|
-----20----------21----------20----------21----------17-----------------|
------------------------------------------------------------------------|
------------------------------------------------------------------------|


   |--3--|  |--3--|  |--3--|  |--3--|  |--3--|  |--3--|  |--3--|  |--3--|
   S  S  S  S  S  S  S  S  S  S  S  S  S  S  S  S  S  S  S  S  S  S  S  S
--------------------------------------------------------------------------|
--------------------------------------------------------------------------|
--12-12-12-11-------11-11-11----------------------------------------------|
--------------14-------------14-------14-14-14-10-------10-10-10----------|
-----------------15-------------15-10-------------10-------------10----10-|
-----------------------------------------------------12-------------14----|
--------------------------------------------------------------------------|


   |--3--|  |--3--|  |--3--|  |--3--|  |--3--|  |--3--|  |--3--| |--3-|
   S  S  S  S  S  S  S  S  S  S  S  S  S  S  S  S  S  S  S  S  S S  S S
--------------------------------12-14-15-14-12--------------------------|
-----------------------------13----------------13-----------------------|
-----------------------11-12----------------------12-11-----------------|
-----------------10-14----------------------------------14-10-----------|
-----------10-14----------------------------------------------10-9------|
--14----12---------------------------------------------------------12-8-|
-----13-----------------------------------------------------------------|


   |--3--|  |--3--|  |--3--|  |--3--|  |--3--|  |--3--|  |--3--|  |--3--|
   S  S  S  S  S  S  S  S  S  S  S  S  S  S  S  S  S  S  S  S  S  S  S  S
--14-14-14-11-------11----------------------------------------------------|
--------------12-------12----12-------------------------------------------|
-----------------12-------12----12-11-12-12-12-11-------11----------------|
--------------------------------------------------13-------13----13-------|
-----------------------------------------------------14-------14----14-10-|
--------------------------------------------------------------------------|
--------------------------------------------------------------------------|


                                                                               W
                            |--3--|  |--3--|                |--3--|
   T  T  T T  T   T   T  T  S  S  S  S  S  S  T   T   T  T  S  S  S  T  T  T T E
-------------14h-19p-14-------11-------------11h-12p-11--------------------------|
-----------x------------16-------13-------13------------12-----------------------|
--------17-----------------16-------12-12------------------11--------------------|
-----16-------------------------------------------------------13-----------------|
--14-------------------------------------------------------------14-10s-9--------|
--------------------------------------------------------------------------11-7---|
-------------------------------------------------------------------------------8-|


   T  T        T  T        T  T        T  T        T  T       T  T
   |--3--|  |--3--|  |--3--|  |--3--|  |--3--|  |--3--|  |--3-|  |--3-|
   S  S  S  S  S  S  S  S  S  S  S  S  S  S  S  S  S  S  S S  S  S  S S
------------------------------------------------------------------------|
------------------------------------------------------------------------|
--------15----------15----------15----------15----------11---19----11---|
--20-------13-21-------13-20-------13-21-------13-17-------9----18----9-|
-----20----------21----------20----------21----------17-----------------|
------------------------------------------------------------------------|
------------------------------------------------------------------------|


      T          T  T  T          T  T          T  T  T
   S  S S  S  S  S  S  S S  S  S  S  S S  S  S  S  S  S S
----------------------------------------------------------|
----------------------------------------------------------|
--11-18------11-18------------11------------11-18---------|
--------9----------16----9-------16----9----------16----9-|
----------10----------16---10-------16---10----------16---|
----------------------------------------------------------|
----------------------------------------------------------|


         T  T          T  T  T          T  T          T  T  T
   S  S  S  S S  S  S  S  S  S S  S  S  S  S S  S  S  S  S  S S  S  S
----------------------------------------------------------------------|
----------------------------------------------------------------------|
-----11------------11-18------------11------------11-18------------11-|
--------16----9----------16----9-------16----9----------16----9-------|
--10-------16---10----------16---10-------16---10----------16---10----|
----------------------------------------------------------------------|
----------------------------------------------------------------------|


   T  T          T  T  T          T  T          T  T  T
   S  S S  S  S  S  S  S S  S  S  S  S S  S  S  S  S  S S
----------------------------------------------------------|
----------------------------------------------------------|
-------------11-19------------11------------11-19---------|
--17----9----------17----9-------17----9----------17----9-|
-----17---10----------17---10-------17---10----------17---|
----------------------------------------------------------|
----------------------------------------------------------|


         T  T          T  T  T          T  T          T  T  T
   S  S  S  S S  S  S  S  S  S S  S  S  S  S S  S  S  S  S  S S  S  S
----------------------------------------------------------------------|
----------------------------------------------------------------------|
-----11------------11-19------------11------------11-19------------11-|
--------17----9----------17----9-------17----9----------17----9-------|
--10-------17---10----------17---10-------17---10----------17---10----|
----------------------------------------------------------------------|
----------------------------------------------------------------------|


   T  T          T  T  T          T  T          T  T  T
   S  S S  S  S  S  S  S S  S  S  S  S S  S  S  S  S  S S
----------------------------------------------------------|
----------------------------------------------------------|
-------------11-18------------11------------11-18---------|
--16----9----------16----9-------16----9----------16----9-|
-----16---10----------16---10-------16---10----------16---|
----------------------------------------------------------|
----------------------------------------------------------|


         T  T          T  T  T          T  T          T  T  T
   S  S  S  S S  S  S  S  S  S S  S  S  S  S S  S  S  S  S  S S  S  S
----------------------------------------------------------------------|
----------------------------------------------------------------------|
-----11------------11-18------------11------------11-18------------11-|
--------16----9----------16----9-------16----9----------16----9-------|
--10-------16---10----------16---10-------16---10----------16---10----|
----------------------------------------------------------------------|
----------------------------------------------------------------------|


   T  T          T  T  T          T  T          T  T  T
   S  S S  S  S  S  S  S S  S  S  S  S S  S  S  S  S  S S
----------------------------------------------------------|
----------------------------------------------------------|
-------------11-19------------11------------11-19---------|
--17----9----------17----9-------17----9----------17----9-|
-----17---10----------17---10-------17---10----------17---|
----------------------------------------------------------|
----------------------------------------------------------|


         T  T          T  T  T          T  T          T  T  T
   S  S  S  S S  S  S  S  S  S S  S  S  S  S S  S  S  S  S  S S  S  S
----------------------------------------------------------------------|
----------------------------------------------------------------------|
-----11------------11-19------------11------------11-19------------11-|
--------17----9----------17----9-------17----9----------17----9-------|
--10-------17---10----------17---10-------17---10----------17---10----|
----------------------------------------------------------------------|
----------------------------------------------------------------------|


   T  T          T  T  T          T  T          T  T  T
   S  S S  S  S  S  S  S S  S  S  S  S S  S  S  S  S  S S
----------------------------------------------------------|
----------------------------------------------------------|
-------------11-18------------11------------11-18---------|
--16----9----------16----9-------16----9----------16----9-|
-----16---10----------16---10-------16---10----------16---|
----------------------------------------------------------|
----------------------------------------------------------|


         T  T          T  T  T          T  T          T  T  T
   S  S  S  S S  S  S  S  S  S S  S  S  S  S S  S  S  S  S  S S  S  S
----------------------------------------------------------------------|
----------------------------------------------------------------------|
-----11------------11-18------------11------------11-18------------11-|
--------16----9----------16----9-------16----9----------16----9-------|
--10-------16---10----------16---10-------16---10----------16---10----|
----------------------------------------------------------------------|
----------------------------------------------------------------------|


   T  T          T  T  T          T  T          T  T  T
   S  S S  S  S  S  S  S S  S  S  S  S S  S  S  S  S  S S
----------------------------------------------------------|
----------------------------------------------------------|
-------------11-18------------11------------11-18---------|
--16----9----------16----9-------16----9----------16----9-|
-----16---10----------16---10-------16---10----------16---|
----------------------------------------------------------|
----------------------------------------------------------|


         T  T          T  T  T          T  T          T  T  T
   S  S  S  S S  S  S  S  S  S S  S  S  S  S S  S  S  S  S  S S  S  S
----------------------------------------------------------------------|
----------------------------------------------------------------------|
-----11------------11-18------------11------------11-18------------11-|
--------16----9----------16----9-------16----9----------16----9-------|
--10-------16---10----------16---10-------16---10----------16---10----|
----------------------------------------------------------------------|
----------------------------------------------------------------------|


  |-3-|  |-3-|                    |---3--|  |--3--|  |--3--|  |--3--|   |--3--|
  S S S  S S S T   T  T  T  S  S  S   S  S  S  S  S  S  S  S  S  S  S   S  S  S
---------------------------12p-9-14p-10-------------------------10-14s-17-14----|
------------------------10--------------12-------------------12--------------15-|
---------------------11--------------------12-------------12--------------------|
--7----------7-9s-12--------------------------14-------14-----------------------|
----9------9-------------------------------------10-14--------------------------|
------7-10----------------------------------------------------------------------|
--------------------------------------------------------------------------------|


   W                    W                    H.
--------------------|--------------------|----------------|----|----|----|----|
--14----------------|---L----------------|---L------------|----|----|----|----|
--14----------------|---L----------------|---L------------|----|----|----|----|
--12----------------|---L----------------|---L------------|----|----|----|----|
--14----------------|---L----------------|---L------------|----|----|----|----|
--------------------|--------------------|----------------|----|----|----|----|
--------------------|--------------------|----------------|----|----|----|----|


----|----|----|----|----|----|----|----|----|----|----|----|----|
----|----|----|----|----|----|----|----|----|----|----|----|----|
----|----|----|----|----|----|----|----|----|----|----|----|----|
----|----|----|----|----|----|----|----|----|----|----|----|----|
----|----|----|----|----|----|----|----|----|----|----|----|----|
----|----|----|----|----|----|----|----|----|----|----|----|----|
----|----|----|----|----|----|----|----|----|----|----|----|----|


                              W
  Q     S Q     S     Q     S E  E   S    E  S   E  T  T   E   S  S
------------------|--------------------|----------------------------|
------------------|--/7~----L-7--7~--7-|--8--7S-10--8-10s-12--10-12-|
--6b----L-4~----L-|--------------------|----------------------------|
------------------|--------------------|----------------------------|
------------------|--------------------|----------------------------|
------------------|--------------------|----------------------------|
------------------|--------------------|----------------------------|


   E.    Q      S  S.    T
---------------------12g14-|
--12b----Lb----12-12-------|
---------------------------|
---------------------------|
---------------------------|
---------------------------|
---------------------------|


                                                        |-3-|
   X   X  T  T  T  T  T  T  T  T  T  T  T  T  T  T  S.  T T T
--15p-14------------------------------------------------------|
---------15----------14---------------------------------------|
------------14-12-11----12-11-------14----------------------7-|
------------------------------12-11----12-11--------------9---|
---------------------------------------------12-10s-9--10-----|
--------------------------------------------------------------|
--------------------------------------------------------------|


                          |---3--| |--3-|
  T T T T X  X  X  X  T T T  T   T T T  T   T  T T  T T T  T T
------7----------------------------7-9-10S-12-10-9s-7-9-7------|
--7-8---8-7h-8p-7h-8p-7---7h-8h-10------------------------10-8-|
------------------------7--------------------------------------|
---------------------------------------------------------------|
---------------------------------------------------------------|
---------------------------------------------------------------|
---------------------------------------------------------------|


                                           W
                      |-3-|
    E  S   E  S E   T T T T T     E.   E.  E   E
--7g9--7-7g9--7-9b--L-7-9-7----|-----------9--10~--|
----------------------------8s-|--7---10-----------|
-------------------------------|-------------------|
-------------------------------|-------------------|
-------------------------------|-------------------|
-------------------------------|-------------------|
-------------------------------|-------------------|


   T  T  T  T  T  T  T  T  T  T  T  T  T  T  T  T  T  T  T  T
--12-14-12-14-15-11-12-14-12-14-15-11-12-14-12-14-15-11-12-14-|
--------------------------------------------------------------|
--------------------------------------------------------------|
--------------------------------------------------------------|
--------------------------------------------------------------|
--------------------------------------------------------------|
--------------------------------------------------------------|


   T  T  T  T  T  T  T  T  T  T  T  T   T  T  T  T  T  T  T  T
--14-12-14-15-11-12-14-11----11--------------------------------|
--------------------------12----12--------12-------------------|
-----------------------------------12p-11----11-12-11----------|
------------------------------------------------------13-------|
---------------------------------------------------------14-10-|
---------------------------------------------------------------|
---------------------------------------------------------------|


   T  T  T  T  T  T  T  T  T  T  T  T  T  T  T  T  T  T  T  T
-----------------------------------------------------12-------|
--------------------------------------------12-14-15----16-12-|
--------------------------11-13-14-11-13-14-------------------|
--------11-13-14-11-13-14-------------------------------------|
--12-14-------------------------------------------------------|
--------------------------------------------------------------|
--------------------------------------------------------------|


                                             meant to be a 15
   Q      S  Q      S     Q     S  E    E    S
----------------------|--14-----L-14---14---15s--------------|
--14b-----L-12~-----L-|--17b----L-17b--17b---L---------------|
----------------------|--------------------------------------|
----------------------|--------------------------------------|
----------------------|--------------------------------------|
----------------------|--------------------------------------|
----------------------|--------------------------------------|


                     W
   S  S  S  S  S  S  E   S.  T
--14---------------------------|
-----16-12---------------------|
-----------12-11-12-11--(0)-11-|
-------------------------------|
-------------------------------|
-------------------------------|
-------------------------------|


   T  T          T  T  T          T  T          T  T  T
   T  T T  T  T  T  T  T T  T  T  T  T T  T  T  T  T  T T
----------------------------------------------------------|
----------------------------------------------------------|
-------------11-18------------11------------11-18---------|
--16----9----------16----9-------16----9----------16----9-|
-----16---10----------16---10-------16---10----------16---|
----------------------------------------------------------|
----------------------------------------------------------|


         T        T  T        T  T        T
   T  T  T T   T  T  T T   T  T  T T   S  S   E
-------------------------------------------------||----|----|----|-----||
-----------7h-10-------7h-10-------7h-10---------||----|----|----|-----||
-----11----------------------------------16~--L--||----|----|----|-----||
--------16-------16----------16------------------||----|----|----|-----||
--10----------------16----------16---------------||----|----|----|-----||
-------------------------------------------------||----|----|----|-----||
-------------------------------------------------||----|----|----|-----||


   H.            E   E      H.            E      H.            E   E
--10-------------L------|--------------------|------------------------|
--------------------10--|---L-------------L--|--11-------------L------|
------------------------|--------------------|--------------------10--|
------------------------|--------------------|------------------------|
------------------------|--------------------|------------------------|
------------------------|--------------------|------------------------|
------------------------|--------------------|------------------------|


   H.            E      H.            E    E      H.            E
--------------------|-------------------------|--------------------|
--------------------|--------------------/14--|---L-------------L--|
---L-------------L--|--11-------------L-------|--------------------|
--------------------|-------------------------|--------------------|
--------------------|-------------------------|--------------------|
--------------------|-------------------------|--------------------|
--------------------|-------------------------|--------------------|


   H.            E   E      H.            E      H.            E   E
--10-------------L------|--------------------|------------------------|
--------------------10--|---L-------------L--|--11-------------L------|
------------------------|--------------------|--------------------10--|
------------------------|--------------------|------------------------|
------------------------|--------------------|------------------------|
------------------------|--------------------|------------------------|
------------------------|--------------------|------------------------|


   H.            E      H.            E    E      H.            E
--------------------|-------------------------|--------------------|
--------------------|--------------------/14--|---L-------------L--|
---L-------------L--|--11-------------L-------|--------------------|
--------------------|-------------------------|--------------------|
--------------------|-------------------------|--------------------|
--------------------|-------------------------|--------------------|
--------------------|-------------------------|--------------------|


   H.            E   E      H.            E      H.            E   E
--10-------------L------|--------------------|------------------------|
--------------------10--|---L-------------L--|--11-------------L------|
------------------------|--------------------|--------------------10--|
------------------------|--------------------|------------------------|
------------------------|--------------------|------------------------|
------------------------|--------------------|------------------------|
------------------------|--------------------|------------------------|


   H.            E      H.            E    E      H.            E
--------------------|-------------------------|--------------------|
--------------------|--------------------/14--|---L-------------L--|
---L-------------L--|--11-------------L-------|--------------------|
--------------------|-------------------------|--------------------|
--------------------|-------------------------|--------------------|
--------------------|-------------------------|--------------------|
--------------------|-------------------------|--------------------|


   T  T          T  T  T          T  T          T  T  T          T  T          T
   T  T T  T  T  T  T  T T  T  T  T  T T  T  T  T  T  T T  T  T  T  T T  T  T  T
---------------------------------------------------------------------------------|
---------------------------------------------------------------------------------|
-------------11-18------------11------------11-18------------11------------11-18-|
--16----9----------16----9-------16----9----------16----9-------16----9----------|
-----16---10----------16---10-------16---10----------16---10-------16---10-------|
---------------------------------------------------------------------------------|
---------------------------------------------------------------------------------|


      T  T          T  T  T          T  T          T  T  T          T  T
   T  T  T T  T  T  T  T  T T  T  T  T  T T  T  T  T  T  T T  T  T  T  T T  T  T
---------------------------------------------------------------------------------|
---------------------------------------------------------------------------------|
--11------------11-18------------11------------11-18------------11------------11-|
-----16----9----------16----9-------16----9----------16----9-------16----9-------|
--------16---10----------16---10-------16---10----------16---10-------16---10----|
---------------------------------------------------------------------------------|
---------------------------------------------------------------------------------|


   T  T          T  T  T          T  T          T  T  T          T  T          T
   T  T T  T  T  T  T  T T  T  T  T  T T  T  T  T  T  T T  T  T  T  T T  T  T  T
---------------------------------------------------------------------------------|
---------------------------------------------------------------------------------|
-------------11-18------------11------------11-18------------11------------11-18-|
--16----9----------16----9-------16----9----------16----9-------16----9----------|
-----16---10----------16---10-------16---10----------16---10-------16---10-------|
---------------------------------------------------------------------------------|
---------------------------------------------------------------------------------|


      T  T          T  T  T          T  T          T  T  T          T  T
   T  T  T T  T  T  T  T  T T  T  T  T  T T  T  T  T  T  T T  T  T  T  T T  T  T
---------------------------------------------------------------------------------|
---------------------------------------------------------------------------------|
--11------------11-18------------11------------11-18------------11------------11-|
-----16----9----------16----9-------16----9----------16----9-------16----9-------|
--------16---10----------16---10-------16---10----------16---10-------16---10----|
---------------------------------------------------------------------------------|
---------------------------------------------------------------------------------|


         T  T          T  T  T
   T  T  T  T T  T  T  T  T  T T  T  T T S     E   S  E   E  S E
-------------------------------------------|----------------------|
-------------------------------------------|----------------------|
-----11------------11-19------------11-----|--14--14-14S--9--9-9--|
--------17----9----------17----9-----------|----------------------|
--10-------17---10----------17---10--------|--12--12-12S--7--7-7--|
-------------------------------------------|----------------------|
-------------------------------------------|----------------------|


  S S E  S S S E  S     E  S E    E   S  E     S S E  S S S E  S
---------------------|----------------------|--------------------|
---------------------|----------------------|--------------------|
--8-8-8--8-8-8-8--8S-|--9--9-9S--11--11-11--|--8-8-8--8-8-8-8--8-|
---------------------|----------------------|--------------------|
--6-6-6--6-6-6-6--6S-|--7--7-7S---9---9--9--|--6-6-6--6-6-6-6--6-|
---------------------|----------------------|--------------------|
---------------------|----------------------|--------------------|


   E   S  E   E  S E     S S E  S S S E  S     E  S E    E   S  E
----------------------|---------------------|----------------------|
----------------------|---------------------|----------------------|
--14--14-14S--9--9-9--|--8-8-8--8-8-8-8--8S-|--9--9-9S--11--11-11--|
----------------------|---------------------|----------------------|
--12--12-12S--7--7-7--|--6-6-6--6-6-6-6--6S-|--7--7-7S---9---9--9--|
----------------------|---------------------|----------------------|
----------------------|---------------------|----------------------|


  S S E  S S S E  S     E   S  E   E  S E     S S E  S S S E  S
--------------------|----------------------|---------------------|
--------------------|----------------------|---------------------|
--8-8-8--8-8-8-8--8-|--14--14-14S--9--9-9--|--8-8-8--8-8-8-8--8S-|
--------------------|----------------------|---------------------|
--6-6-6--6-6-6-6--6-|--12--12-12S--7--7-7--|--6-6-6--6-6-6-6--6S-|
--------------------|----------------------|---------------------|
--------------------|----------------------|---------------------|


  E  S E    E   S  E     S S E  S S S E  S     E   S  E   E  S E
----------------------|--------------------|----------------------|
----------------------|--------------------|----------------------|
--9--9-9S--11--11-11--|--8-8-8--8-8-8-8--8-|--14--14-14S--9--9-9--|
----------------------|--------------------|----------------------|
--7--7-7S---9---9--9--|--6-6-6--6-6-6-6--6-|--12--12-12S--7--7-7--|
----------------------|--------------------|----------------------|
----------------------|--------------------|----------------------|


  S S E  S S S E  S     E  S E    E   S  E     S S E  S S S E  S
---------------------|----------------------|--------------------|
---------------------|----------------------|--------------------|
--8-8-8--8-8-8-8--8S-|--9--9-9S--11--11-11--|--8-8-8--8-8-8-8--8-|
---------------------|----------------------|--------------------|
--6-6-6--6-6-6-6--6S-|--7--7-7S---9---9--9--|--6-6-6--6-6-6-6--6-|
---------------------|----------------------|--------------------|
---------------------|----------------------|--------------------|


                             PM PM       PM PM
  E  S S S S S S   E   S S S S  S  S S S S  S
-----------------------------------------------|
-----------------------------------------------|
--7--7-7---7-7-7S-14S--7-7-7-------7-7-7-------|
--x--x-x---x-x-x---x---x-x-x-------x-x-x-------|
--5--5-5---5-5-5S-12S--5-5-5-------5-5-5-------|
--x--x-x---x-x-x---x---x-x-x-------x-x-x-------|
--0--0-0---0-0-0---0---0-0-0-0--0--0-0-0-0--0--|


                             PM PM       PM PM
  E  S S S S S S   E   S S S S  S  S S S S  S
-----------------------------------------------|
-----------------------------------------------|
--8--8-8---8-8-8S-15S--8-8-8-------8-8---------|
--x--x-x---x-x-x---x---x-x-x-------x-x---------|
--6--6-6---6-6-6S-13S--6-6-6-------6-6---------|
--x--x-x---x-x-x---x---x-x-x-------x-x---------|
--0--0-0---0-0-0---0---0-0-0-0--0--0-0---0--0--|


                             PM PM       PM PM
  E  S S S S S S   E   S S S S  S  S S S S  S
-----------------------------------------------|
-----------------------------------------------|
--7--7-7---7-7-7S-14S--7-7-7-------7-7-7-------|
--x--x-x---x-x-x---x---x-x-x-------x-x-x-------|
--5--5-5---5-5-5S-12S--5-5-5-------5-5-5-------|
--x--x-x---x-x-x---x---x-x-x-------x-x-x-------|
--0--0-0---0-0-0---0---0-0-0-0--0--0-0-0-0--0--|


                             PM PM
  E  S S S S S S   E   S S S S  S  S S   E.
----------------------------------------------|
----------------------------------------------|
--8--8-8---8-8-8S-15S--8-8-8-------8-8--------|
--x--x-x---x-x-x---x---x-x-x-------x-x--------|
--6--6-6---6-6-6S-13S--6-6-6-------6-6--------|
--x--x-x---x-x-x---x---x-x-x-------x-x-<>8b---|
--0--0-0---0-0-0---0---0-0-0-0--0--0-0--------|


   E   S  E   E   S  E   S  S  E   S  S  S  E   S
--------------------------------------------------|
--------------------------------------------------|
--10--10-10--10--10-10--10-10-10--10-10-10-10--10-|
---x---x--x---x---x--x---x--x--x---x--x--x--x---x-|
---8---8--8---8---8--8---8--8--8---8--8--8--8---8-|
---x---x--x---x---x--x---x--x--x---x--x--x--x---x-|
---0---0--0---0---0--0---0--0--0---0--0--0--0---0-|


   E   S  E   E   S  E   S  S  E   S  S  S  E   S
--------------------------------------------------|
--------------------------------------------------|
--10--10-10--10--10-10--10-10-10--10-10-10-10--10-|
---x---x--x---x---x--x---x--x--x---x--x--x--x---x-|
---8---8--8---8---8--8---8--8--8---8--8--8--8---8-|
---x---x--x---x---x--x---x--x--x---x--x--x--x---x-|
---0---0--0---0---0--0---0--0--0---0--0--0--0---0-|


   E   S  E   E   S  E   S  S  E   S  S  S  E   S
--------------------------------------------------|
--------------------------------------------------|
--10--10-10--10--10-10--10-10-10--10-10-10-10--10-|
---x---x--x---x---x--x---x--x--x---x--x--x--x---x-|
---8---8--8---8---8--8---8--8--8---8--8--8--8---8-|
---x---x--x---x---x--x---x--x--x---x--x--x--x---x-|
---0---0--0---0---0--0---0--0--0---0--0--0--0---0-|


   E   S  E   E   S  E   S  S  E   S  S  S  E   S    W                Q
--------------------------------------------------|------------------------|
--------------------------------------------------|------------------------|
--10--10-10--10--10-10--10-10-10--10-10-10-10--10-|--8----------------L----|
---x---x--x---x---x--x---x--x--x---x--x--x--x---x-|--x---------------------|
---8---8--8---8---8--8---8--8--8---8--8--8--8---8-|--6----------------L----|
---x---x--x---x---x--x---x--x--x---x--x--x--x---x-|--x---------------------|
---0---0--0---0---0--0---0--0--0---0--0--0--0---0-|--0----------------L----|


  W                Q       W                Q       W                Q
------------------------|------------------------|------------------------|
------------------------|------------------------|------------------------|
--L----------------L----|--8----------------L----|--L----------------L----|
--L---------------------|--x---------------------|--L---------------------|
--L----------------L----|--6----------------L----|--L----------------L----|
--L---------------------|--x---------------------|--L---------------------|
--L----------------L----|--0----------------L----|--L----------------L----|


-------|-------|-------|-------|-------|-------||
-------|-------|-------|-------|-------|-------||
-------|-------|-------|-------|-------|-------||
-------|-------|-------|-------|-------|-------||
-------|-------|-------|-------|-------|-------||
-------|-------|-------|-------|-------|-------||
-------|-------|-------|-------|-------|-------||


Duration Legend
---------------
W - whole
H - half
Q - quarter
E - 8th
S - 16th
T - 32nd
X - 64th
. - note dotted
|-n-|  - n-tuplets


Tablature Legend
----------------
L - tied note
x - dead note
g - grace note
(n) - ghost note
> - accentuded note
NH - natural harmonic
AH - artificial harmonic
TH - tapped harmonic
SH - semi harmonic
PH - pitch harmonic
h - hammer on
p - pull off
b - bend
br - bendRelease
pb - preBend
pbr - preBendRelease
brb - bendReleaseBend
\n/ - tremolo bar dip
\n - tremolo bar dive
-/n - tremolo bar Release up
/n\ - tremolo bar inverted dip
/n - tremolo bar return
-\n - tremolo bar Release down
S - shift slide
s - legato slide
/ -  slide into from below or out of upwards
\ -  slide into from above or out of downwards
~ - vibrato
W - wide vibrato
tr - trill
TP - tremolo picking
T - tapping
S - slap
P - pop
< - fade in
^ - brush up
v - brush down
comments
print report bad tab
2 comments total.
0 reply
dustjunk wrote on November 6 2011, 04:25 am

It's actually played on an eight string guitar.

0 reply
Aays wrote on September 28 2012, 12:52 pm

This song just needs a seven string tuned to BEADGBE though. Tosin plays it live with his 8 string but doesn't use the 8th string.

I want to post or [tab]
guest
You may want to rate the tab now too:
select rating
Please do not post tabs as comments. Select "correction" instead!