Oops, an error
Loading. Please wait.

Never Neverland Tab

ver1
ver1

Album

Whole song

Interactive

More versions @911Tabs.com
3,023 views 1 this week
no commentswrite comment
1 2 3 4 5
excellent!
x 2
Autoscroll
+/-
esc
set tempo
stop
Contributor
Difficulty
advanced
WARNING: You are trying to view
                                    content from Ultimate-Guitar.com
                                    in an unauthorized application,
                                    which is prohibited.

                                    Please use an official Ultimate
                                    Guitar Tabs application for iPhone,
                                    iPad or Android to access legitimate
                                    chords, guitar, bass, and drum tabs
                                    from Ultimate-Guitar.com database.

                                    Type "ultimate guitar tabs" in Apple
                                    App Store's or Android Market's
                                    search to find the application.
             ANNIHILATOR - NEVER NEVERLAND ALBUM


NOTE: All Of These Were Tabbed By ol753_357lo@yahoo.co.uk, I am just posting them.

The Fun Palace
Tuning - E A D G B E


Gtr 1
play twice
  PM|   PM|   PM|           PM    PM    PM    PM       PM    PM    PM    PM
|-----------------------------------------------------------------------------------|
|-----------------------------------------------------------------------------------|
|-----------------------------------------------------------------------------------|
|-----4-----4-----4--4h5-4----2h4---2h4---2h4---2h4-2----2h4---2h4---2h4---4h5-4----|
|------------------------------------------------------2-----2-----2-----2----------|
|-0-2---0-2---0-2-----------0-----0-----0-----0-------------------------------------|


  PM    PM    PM  PM---------------------|
|----------------------------------------|
|----------------------------------------|
|----------------------------------------|
|---2h4---2h4---2------------------------|
|-0-----0-----0--------------------------|
|-----------------0-0-0-0-000-0-0--------|


  PM|   PM|   PM|           PM    PM    PM    PM       PM    PM    PM    PM
|-----------------------------------------------------------------------------------|
|-----------------------------------------------------------------------------------|
|-----------------------------------------------------------------------------------|
|-----4-----4-----4--4h5-4----2h4---2h4---2h4---2h4-2----2h4---2h4---2h4---4h5-4----|
|------------------------------------------------------2-----2-----2-----2----------|
|-0-2---0-2---0-2-----------0-----0-----0-----0-------------------------------------|


  PM    PM     PM
|--------------------------------|
|--------------------------------|
|--------------------------------|
|---2h4---2h4--------------------|
|-0-----0--------7----------7----|
|--------------0---0--0--0-------|


Gtr 2
                                           PM------------------|
|--------------------------------------------------------------|
|---------------------------------3----------------------------|
|---------------------------------2----------------------------|
|-----------------------4---------0----------------------------|
|-4----------2----------2---------0----------------------------|
|-2----------0----------2------------------0-0-0-0-000-0-0-----|

                                  PM
|------------------------------------------------|
|---------------------------3--------------------|
|---------------------------2--------------------|
|-------------------4-------0-------6----------6-|
|-4--------2--------2-------0--------------------|
|-2------\-0--------2-------------0---0--0--0----|


Gtr 1
play twice
  PM|   PM|   PM|           PM    PM    PM    PM       PM    PM    PM    PM
|-----------------------------------------------------------------------------------|
|-----------------------------------------------------------------------------------|
|-----------------------------------------------------------------------------------|
|-----4-----4-----4--4h5-4----2h4---2h4---2h4---2h4-2----2h4---2h4---2h4---4h5-4----|
|------------------------------------------------------2-----2-----2-----2----------|
|-0-2---0-2---0-2-----------0-----0-----0-----0-------------------------------------|


  PM    PM    PM  PM---------------------|
|----------------------------------------|
|----------------------------------------|
|----------------------------------------|
|---2h4---2h4---2------------------------|
|-0-----0-----0--------------------------|
|-----------------0-0-0-0-000-0-0--------|


  PM|   PM|   PM|           PM    PM    PM    PM       PM    PM    PM    PM
|-----------------------------------------------------------------------------------|
|-----------------------------------------------------------------------------------|
|-----------------------------------------------------------------------------------|
|-----4-----4-----4--4h5-4----2h4---2h4---2h4---2h4-2----2h4---2h4---2h4---4h5-4----|
|------------------------------------------------------2-----2-----2-----2----------|
|-0-2---0-2---0-2-----------0-----0-----0-----0-------------------------------------|


  PM    PM     PM
|--------------------------------|
|--------------------------------|
|--------------------------------|
|---2h4---2h4--------------------|
|-0-----0--------7----------7----|
|--------------0---0--0--0-------|


Gtr 2
  PM|   PM|   PM|           PM    PM    PM    PM       PM    PM    PM    PM
|-----------------------------------------------------------------------------------|
|-----------------------------------------------------------------------------------|
|-----2-----2-----2--2h4-2----1h2---1h2---1h2---1h2-1----1h2---1h2---1h2---2h4-2----|
|-----------------------------------------------------------------------------------|
|------------------------------------------------------2-----2-----2-----2----------|
|-0-2---0-2---0-2-----------0-----0-----0-----0-------------------------------------|


  PM    PM    PM  PM---------------------|
|----------------------------------------|
|----------------------------------------|
|---1h2---1h2---1------------------------|
|----------------------------------------|
|-0-----0-----0--------------------------|
|-----------------0-0-0-0-000-0-0--------|

  PM|   PM|   PM|           PM    PM    PM    PM       PM    PM    PM    PM
|-----------------------------------------------------------------------------------|
|-----------------------------------------------------------------------------------|
|-----2-----2-----2--2h4-2----1h2---1h2---1h2---1h2-1----1h2---1h2---1h2---2h4-2----|
|-----------------------------------------------------------------------------------|
|------------------------------------------------------2-----2-----2-----2----------|
|-0-2---0-2---0-2-----------0-----0-----0-----0-------------------------------------|

  PM    PM     PM
|--------------------------------|
|--------------------------------|
|---1h2---1h2--------------------|
|----------------6----------6----|
|-0-----0------------------------|
|--------------0---0--0--0-------|


Gtr 1
play twice
(second time, miss last note off)
  PM--|     PM--------|        PM--|       PM---------------------------------|       T
|-----------------------------------------------------------------------------|
|-------7-5-------------7-6----------10-8-------------------------------------|
|-7-6-4-----7-6-4-7-6-4-------10-9-7------10-9-7-9b10r=9(16)b10r=9b10r=9------|
|-----------------------------------------------------------------------------|
|-----------------------------------------------------------------------------|
|-----------------------------------------------------------------------------|


   PM---|        PM-----------|          PM---|         PM-------------------------------|
|------------------------------------------------------------------------------15-17-18--|
|---------12-10-----------------12-11------------15-13----------------14-16-17-----------|
|-12-11-9-------12-11-9-12-11-9---------15-14-12-------15-14-12-14-15--------------------|
|----------------------------------------------------------------------------------------|
|----------------------------------------------------------------------------------------|
|----------------------------------------------------------------------------------------|


Gtr 2
play twice
(second time, miss last note off)
                                                          T
|-------------------------------------------------------------------------------|
|-------7-5-------------7-6----------10-8---------------------------------------|
|-7-6-4-----7-6-4-7-6-4-------10-9-7------10-9-7-12b14r=12(19)b14r=12b14r=12----|
|-------------------------------------------------------------------------------|
|-------------------------------------------------------------------------------|
|-------------------------------------------------------------------------------|

   PM---|        PM-----------|          PM---|         PM-------------------------------|
|------------------------------------------------------------------------------15-17-18--|
|---------12-10-----------------12-11------------15-13----------------14-16-17-----------|
|-12-11-9-------12-11-9-12-11-9---------15-14-12-------15-14-12-14-15--------------------|
|----------------------------------------------------------------------------------------|
|----------------------------------------------------------------------------------------|
|----------------------------------------------------------------------------------------|


Verse
Both Gtrs
play twice
  PM|   PM  PM|       PM  PM--------|   PM  PM------------------------|
|---------------------------------------------------------------------|
|---------------------------------------------------------------------|
|-------------------0---------------------------------0-----0---------|
|-----5---5-------7-----5-------------5---5---------2-----4-----------|
|-----7---7-----5-------7-------------2---2-----0-3-----6-------------|
|-0-0---0---0-0-------0---0-0-0-0-0-0---0---0-0----------------0------|


Gtr 1
  PM|   PM  PM|       PM  PM--------|   PM  PM------------------------|
|---------------------------------------------------------------------|
|---------------------------------------------------------------------|
|-------------------0---------------------------------0-----0---------|
|-----5---5-------7-----5-------------5---5---------2-----4-----------|
|-----7---7-----5-------7-------------2---2-----0-3-----6-------------|
|-0-0---0---0-0-------0---0-0-0-000-0---0---0-0----------------\------|


  PM|   PM  PM|       PM  PM--------|   PM  PM------------------------|
|---------------------------------------------------------------------|
|---------------------------------------------------------------------|
|-------------------0---------------------------------0-----0---------|
|-----5---5-------7-----5-------------5---5---------2-----4-----------|
|-----7---7-----5-------7-------------2---2-----0-3-----6-------------|
|-0-0---0---0-0-------0---0-0-0-0-0-0---0---0-0----------------0------|


Gtr 2
  PM|   PM  PM|        PM  PM--------|   PM  PM------------------------|
|----------------------------------------------------------------------|
|----------------------------------------------------------------------|
|--------------------0---------------------------------0-----0---------|
|-----5---5-------10-----5-------------5---5---------2-----4-----------|
|-----7---7-----8--------7-------------2---2-----0-3-----6-------------|
|-0-0---0---0-0--------0---0-0-0-0-0-0---0---0-0----------------0------|


  PM|   PM  PM|        PM  PM--------|   PM  PM------------------------|
|----------------------------------------------------------------------|
|----------------------------------------------------------------------|
|--------------------0---------------------------------0-----0---------|
|-----5---5-------10-----5-------------5---5---------2-----4-----------|
|-----7---7-----8--------7-------------2---2-----0-3-----6-------------|
|-0-0---0---0-0--------0---0-0-0-000-0---0---0-0----------------\------|


Pre-Chorus
Gtr 1
  PM|   PM|   PM|           PM|   PM|   PM|           PM|   PM|   PM|
|------------------------------------------------------------------------------|
|------------------------------------------------------------------------------|
|------------------------------------------------------------------------------|
|-----4-----4-----4--4h5-4------4-----4-----4--2h4-2------4-----4-----4--4h5-4-|
|------------------------------------------------------------------------------|
|-0-2---0-2---0-2-----------0-2---0-2---0-2-----------0-2---0-2---0-2----------|


  PM|   PM|   PM|
|-----------------0-----------------|
|-------------------4-2-1-----------|
|-------------------------4-2-0-----|
|-----4-----4-------------------4---|
|-----------------------------------|
|-0-2---0-2---0-0-------------------|


Gtr 2
  PM|   PM|   PM|           PM|   PM|   PM|           PM|   PM|   PM|
|------------------------------------------------------------------------------|
|------------------------------------------------------------------------------|
|------------------------------------------------------------------------------|
|-----4-----4-----4--7h9-7------4-----4-----4--6h7-6------4-----4-----4--7h9-7-|
|------------------------------------------------------------------------------|
|-0-2---0-2---0-2-----------0-2---0-2---0-2-----------0-2---0-2---0-2----------|


  PM|   PM|   PM|
|-----------------3-----------------|
|-------------------7-5-4-----------|
|-------------------------7-5-3-----|
|-----4-----4-------------------7---|
|-----------------------------------|
|-0-2---0-2---0-0-------------------|


Chorus
Gtr 1
  PM|              PM--|             PM|               PM|
|-------------------------------------------------------------------------------------|
|-----15b17-15b17------------------------15b17-15b17----------------------------------|
|-------------------------------------------------------------------17----------14----|
|------------------------10S9------------------------------15-17-18----12-14-15-------|
|-------------------------8S7---------------------------------------------------------|
|-0-0--------------0-0-0------5-4----0-0---------------0-0----------------------------|


  PM|               PM|            PM|
|--------------------------------------10----10-------|
|-----15b17-15b17----------------------13b15-13b15----|
|-----------------------------------------------------|
|-----------------------10S9--------------------------|
|------------------------8S7--------------------------|
|-0-0---------------0-0------5-4---0-0----------------|


Gtr 2
  PM|              PM--|             PM|               PM|
|-------------------------------------------------------------------------------------|
|-----15b17-15b17------------------------19b20-19b20----------------------------------|
|-------------------------------------------------------------------17----------14----|
|------------------------10S9------------------------------15-17-18----12-14-15-------|
|-------------------------8S7---------------------------------------------------------|
|-0-0--------------0-0-0------5-4----0-0---------------0-0----------------------------|


  PM|               PM|            PM|
|--------------------------------------10----10-------|
|-----19b20-19b20----------------------13b15-13b15----|
|-----------------------------------------------------|
|-----------------------10S9--------------------------|
|------------------------8S7--------------------------|
|-0-0---------------0-0------5-4---0-0----------------|


Both Gtrs
|------------|
|------------|
|------------|
|------------|
|-7-6-8-8----|
|-5-4-6-6----|


Repeat Chorus


Both Gtrs
                   PM
|-----------------------|
|-7h8-8-12h13-13-8------|
|-7h9-9-12h14-14-9------|
|-----------------------|
|-----------------------|
|------------------0----|


Both Gtrs
  PM|   PM  PM|       PM  PM--------|   PM  PM------------------------|
|---------------------------------------------------------------------|
|---------------------------------------------------------------------|
|-------------------0---------------------------------0-----0---------|
|-----5---5-------7-----5-------------5---5---------2-----4-----------|
|-----7---7-----5-------7-------------2---2-----0-3-----6-------------|
|-0-0---0---0-0-------0---0-0-0-0-0-0---0---0-0----------------0------|


  PM|   PM  PM|       PM PM----------|   PM  PM---------------------------|
|-------------------------------------------------------------------------|
|-------------------------------------------------------------------------|
|-------------------0-----------------------------------------------------|
|-----5---5-------7-----5--------------5---5----------------------7-------|
|-----7---7-----5-------7--------------2---2-------5--4--2--4--5--5--2----|
|-0-0---0---0-0-------0---0-0-0-000-0----0---0-0-0-3--2--0--2--3-----0----|


Repeat Verse
Repeat Pre Chorus
Repeat Chorus


Gtr 1
(play notes aswell as slide)
|--------------------------------------------------------------------------------------|
|--------------------------------------------------------------------------------------|
|---7S10-----9S12------10S14-------13S12------7S10-----9S12-------15S14-------12S10----|
|--------------------------------------------------------------------------------------|
|-5------8S7------10S8-------12S11-------12S5------8S7------10S13-------12S10----------|
|--------------------------------------------------------------------------------------|

Gtr 2
|----------------------------------------------------------------------------------------|
|----------------------------------------------------------------------------------------|
|---7S10-----9S12------10S14-------13S12------7S10-----9S12-------19S17-------15S14------|
|----------------------------------------------------------------------------------------|
|-5------8S7------10S8-------12S11-------10S5------8S7------10S17-------15S13-------12---|
|----------------------------------------------------------------------------------------|


Both Gtrs
|-------0--------------------0-------0-----0---------------0----|
|-----6----6--------6------6-------6---6-----6-----6-----6------|
|---7--------7----7------7-------7-------7-------7-----7--------|
|-0------------9------8--------0---------------9-----8----------|
|---------------------------------------------------------------|
|---------------------------------------------------------------|


Repeat above


Both Gtrs
|--------------------------------|
|---------------------------3----|
|---9---7---5---3-2---------2----|
|-----------------0---------0----|
|-7---5---3---1---0---------0----|
|--------------------------------|


Both Gtrs
play 3 times
       PM|   PM|      PM|   PM|
|---------------------------------------------------------|
|-------------------------------------3--3----------------|
|-------------------------------0--0--2--2--2--2----------|
|-2h=4-----4-----2h=4-----4-----0--0--0--0--2--2--2--2----|
|-2--2-2-2-2-2-2-2--2-2-2-2-2-2-2--2--0--0--0--0--2--2----|
|-------------------------------3--3--------------0--0----|


       PM|   PM|      PM|   PM|                        PM
|----------------------------------------------------------|
|-------------------------------------3--3-----------------|
|-------------------------------0--0--2--2--2--2-----------|
|-2h=4-----4-----2h=4-----4-----0--0--0--0--2--2--9--------|
|-2--2-2-2-2-2-2-2--2-2-2-2-2-2-2--2--0--0--0--0--7--------|
|-------------------------------3--3-------------------0---|


Both Gtrs
        PM  PM|        PM  PM----|   PM---------------------------|
|-----------------------------------------------------------------|
|-----------------------------------------------------------------|
|-----------------------------------------------------------------|
|----------------------------------4-------7----------------------|
|---9-8---7--------9-8---7---------2-4-3-2-5----5---5-7-----------|
|-7-----0---0-0-7------0---0-0-0-0---2-1-0----0-3p0-3-5--0-5------|


         PM  PM|                   PM--|
|---------------------------------------------------------------|
|---------------------------------------------------------------|
|---------------------------------------------------------------|
|-----------------------------9-9--4-------7--------------------|
|----9-8---7--------9-8---7---7-7--2-4-3-2-5----5---5-7---------|
|-7------0---0-0-7------0---0--------2-1-0----0-3p0-3-5--0-5----|


         PM  PM|        PM  PM----|   PM---------------------------|
|------------------------------------------------------------------|
|------------------------------------------------------------------|
|------------------------------------------------------------------|
|-----------------------------------4-------7----------------------|
|----9-8---7--------9-8---7---------2-4-3-2-5----5---5-7-----------|
|-7------0---0-0-7------0---0-0-0-0---2-1-0----0-3p0-3-5--0-5------|

                                     PM--|                        PM--|                 PM|
|--------------------------------------------------------------------------------------------|
|--------------------------------------------------------------------------------------------|
|--------------------------------------------------------------------------------------------|
|-----------------------------9-9--4-------7---------------4-4--4-------7--------------------|
|----9-8---7--------9-8---7---7-7--2-4-3-2-5----5---5-7----2-2--2-4-3-2-5----5---5-7----2-2--|
|-7------0---0-0-7------0---0--------2-1-0----0-3p0-3-5--0--------2-1-0----0-3p0-3-5--0------|


Gtr 3
     PM|    PM   PM|    PM|    PM   PM|    PM|    PM   PM|    PM|    PM   PM|
|-------------------------------------------------------------------------------|
|-------------------------------------------------------------------------------|
|-11-----11---11-----11-----11---11-----11-----11---11-----11-----11---11-------|
|----9-9----9----9-9----9-9----9----9-9----9-9----9----9-9----9-9----9----9-9---|
|-------------------------------------------------------------------------------|
|-------------------------------------------------------------------------------|


Gtr 3
     PM|    PM   PM|    PM|    PM   PM|    PM|    PM   PM|    PM|    PM
|----------------------------------------------------------------------------|
|----------------------------------------------------------------------------|
|-11-----11---11-----11-----11---11-----11-----11---11-----11-----11---11\---|
|----9-9----9----9-9----9-9----9----9-9----9-9----9----9-9----9-9----9-------|
|----------------------------------------------------------------------------|
|----------------------------------------------------------------------------|


Gtr 4
      PM|      PM    PM|      PM|      PM    PM|      PM|      PM    PM|      PM|      PM
|-----------------------------------------------------------------------------------------------|
|-----------------------------------------------------------------------------------------------|
|-14-------14----14-------14-------14----14-------14-------14----14-------14-------14----14\----|
|----12-12----12----12-12----12-12----12----12-12----12-12----12----12-12----12-12----12--------|
|-----------------------------------------------------------------------------------------------|
|-----------------------------------------------------------------------------------------------|


Gtr 3
|-------------------------------------------------------------------------------------------------------|
|-7------7----------7------7----------------7-10p7-------7-10p7-------7-10p7-------7-10p7-------7-10p7--|
|-9b11---9b11-------9b11---9b11-------9b11---------9b11---------9b11---------9b11---------9b11----------|
|-------------------------------------------------------------------------------------------------------|
|-------------------------------------------------------------------------------------------------------|
|-------------------------------------------------------------------------------------------------------|


|----------------------------------------------------------------------------------------------------------------------------|
|-7------7----------10-------10------------------12-15p12--------12-15p12--------12-15p12--------12-15p12--------12-15p12----|
|-9b11---9b11-------12b14----12b14--------14b16-----------14b16-----------14b16-----------14b16-----------14b16--------------|
|----------------------------------------------------------------------------------------------------------------------------|
|----------------------------------------------------------------------------------------------------------------------------|
|----------------------------------------------------------------------------------------------------------------------------|


|--------------------------------------------------------------------------------------------------------------------------------|
|-12-------12----------14--------14------------------15-17p15--------15-17p15--------15-17p15--------15-17p15--------15-17p15----|
|-14b16----14b16-------16b18-----16b18--------17b19-----------17b19-----------17b19-----------17b19-----------17b19--------------|
|--------------------------------------------------------------------------------------------------------------------------------|
|--------------------------------------------------------------------------------------------------------------------------------|
|--------------------------------------------------------------------------------------------------------------------------------|


|-----------------------------------------------17--------------17--------------17--------------17-------------|
|-15------15---------17------17--------------------20p17-----------20p17-----------20p17-----------17-20b22----|
|-17b19---17b19------19b21---19b21-------19b21-----------19b21-----------19b21-----------19b21-----------------|
|--------------------------------------------------------------------------------------------------------------|
|--------------------------------------------------------------------------------------------------------------|
|--------------------------------------------------------------------------------------------------------------|


|---------------------------------------------------12h14p12----12-------------------------------------------|
|-14-15-15-15-15\-----14-15-15-15-15\------15b17-------------15----15-14-12-15-14-12----14-12----------------|
|-14-16-16-16-16\-----14-16-16-16-16\------------------------------------------------15-------15-14-12--11---|
|------------------------------------------------------------------------------------------------------------|
|------------------------------------------------------------------------------------------------------------|
|------------------------------------------------------------------------------------------------------------|


|-7h12p7---------7h10p7----7-----------------------------------------------------|
|--------10-7-10--------10---10-7--7-------------7----7----7---------------------|
|------------------------------------10-9-7-9-10---10---10---10-9-7-9h10p9p7-----|
|----------------------------------------------------------------------------9---|
|--------------------------------------------------------------------------------|
|--------------------------------------------------------------------------------|


|-------------------------------|
|--------------------7-7-7------|
|-9h10p9p7-----------7-7-7------|
|----------9-7-------------9----|
|--------------9-8-7------------|
|-------------------------------|


|--------19--------------19--------------19--------------19-19--------19-19--------19-19-------19-19-22p19----19-----------------------------------------------|
|-22b24-----22p19-22b24-----22p19-22b24-----22p19-22b24--------22b24--------22b24--------22b24-------------22----22p19----19-------------21--------------------|
|----------------------------------------------------------------------------------------------------------------------21----22p21p19--------21--19-------[21]-|
|-------------------------------------------------------------------------------------------------------------------------------------21------------21-19------|
|--------------------------------------------------------------------------------------------------------------------------------------------------------------|
|--------------------------------------------------------------------------------------------------------------------------------------------------------------|


                                                         PM    PM    PM    PM
|-------------------------------------------------------------------------------------------------|
|-19-------------------------------------------------------------------------------14-15----------|
|-19---------------------------------------------19-19-----19----18----16----14-16-------16-14----|
|-----21-19---------------------------------------------------------------------------------------|
|-----------21-20-19-17-19b20r=19p17-------19S21--------21----21----19----17----------------------|
|------------------------------------19-17--------------------------------------------------------|


|--------------14-15----14----------------------------------------------|
|-17b19-17b19--------17----17-15-14-------14-15----------17b19-17b19----|
|-----------------------------------16b18-------16-14-14----------------|
|-----------------------------------------------------------------------|
|-----------------------------------------------------------------------|
|-----------------------------------------------------------------------|


Both Gtrs
  PM-------------------------------------------------------------------|
|----------------------------------------------------------------------|
|----------------------------------------------------------------------|
|----------------------------------------------------------------------|
|----------------------------------------------------------------------|
|-2-2-2-2-2-2-2-2-2-2-2-2-2-2-2-2-5-5-5-5-5-5-5-5-5-5-5-5-5-5-5-5------|
|----------------------------------------------------------------------|


  PM---------------------------------------------------------------------------|                   PM
|------------------------------------------------------------------------------|
|------------------------------------------------------------------------------|
|------------------------------------------------------------------------------|
|------------------------------------------------------------------------------|
|-2-2-2-2-2-2-2-2-2-2-2--2-2-2--2-2-2--2-2-2--5-5-5-5-5-5-5-5-5-5-5-5-5-5-5----|
|-0-0-0-0-0-0-0-0-0-0-0--0-0-0--0-0-0--0-0-0--3-3-3-3-3-3-3-3-3-3-3-3-3-3-3-0--|


Gtr 3
  PM--|     PM--------|        PM--|       PM-----------------------------|
|-------------------------------------------------------------------------|
|-------7-5-------------7-6----------10-8---------------------------------|
|-7-6-4-----7-6-4-7-6-4-------10-9-7------10-9-7-9b10r=9b10r=9b10r=9------|
|-------------------------------------------------------------------------|
|-------------------------------------------------------------------------|
|-------------------------------------------------------------------------|


|------------------------------------------------------------------------------15-17\------|
|---------12-10-----------------12-11------------15-13----------------14-16-17-------------|
|-12-11-9-------12-11-9-12-11-9---------15-14-12-------15-14-12-14-15----------------------|
|------------------------------------------------------------------------------------------|
|------------------------------------------------------------------------------------------|
|------------------------------------------------------------------------------------------|


Repeat Verse
Repeat Pre Chorus
Repeat Chorus


Gtr 1
  PM|              PM--|             PM|               PM|
|-------------------------------------------------------------------------------------|
|-----15b17-15b17------------------------15b17-15b17----------------------------------|
|-------------------------------------------------------------------17----------14----|
|------------------------10S9------------------------------15-17-18----12-14-15-------|
|-------------------------8S7---------------------------------------------------------|
|-0-0--------------0-0-0------5-4----0-0---------------0-0----------------------------|


  PM|               PM|            PM|
|-----------------------------------------------------|
|-----15b17-15b17----------------------13b15-13b15----|
|-----------------------------------------------------|
|-----------------------10S9--------------------------|
|------------------------8S7--------------------------|
|-0-0---------------0-0------5-4---0-0----------------|


Gtr 2
  PM|              PM--|             PM|               PM|
|-------------------------------------------------------------------------------------|
|-----15b17-15b17------------------------19b20-19b20----------------------------------|
|-------------------------------------------------------------------17----------14----|
|------------------------10S9------------------------------15-17-18----12-14-15-------|
|-------------------------8S7---------------------------------------------------------|
|-0-0--------------0-0-0------5-4----0-0---------------0-0----------------------------|


  PM|               PM|            PM|
|-----------------------------------------------------|
|-----17b18-17b18----------------------17b18-17b18----|
|-----------------------------------------------------|
|-----------------------10S9--------------------------|
|------------------------8S7--------------------------|
|-0-0---------------0-0------5-4---0-0----------------|


Both Gtrs
play 5 times
  PM-------------------------------------------------------------------|
|----------------------------------------------------------------------|
|----------------------------------------------------------------------|
|---------------------------------------------------------------2------|
|---------------------------------------------------------0-0-0--------|
|----------------------------------------------------------------------|
|-0-0-0-0-0-0-0-0-0-0-0-0-0-0-0-0-0-0-0-0-0-0-0-0-1-1-1-1--------------|


6th time, fade out
  PM---------------------------------------------------------------------------------------------------|
|------------------------------------------------------------------------------------------------------|
|------------------------------------------------------------------------------------------------------|
|---------------------------------------------------------------------------------------------------2--|
|---------------------------------------------------------------------------------------------0-0-0----|
|------------------------------------------------------------------------------------------------------|
|-0-0-0--0-0-0--0-0-0--0-0-0--0-0-0--0-0-0--0-0-0--0-0-0--0-0-0--0-0-0--0-0-0--0-0-0--1-1-1-1----------|


Gtr 3
repeat to fade
    PM|   PM|   PM|   PM|   PM      PM|   PM|
|---------------------------------------------------------------------|
|-8-----8-----8-----8-----8-------8-----8-----8-----------------10----|
|---7-9---7-9---7-9---7-9---7-9-9---7-9---7-9-------------7-7-7-------|
|---------------------------------------------------------------------|
|-----------------------------------------------7-8-8-8-8-------------|
|---------------------------------------------------------------------|

Road To Ruin
Tuning - E A D G B E

(drum fill)

Both Gtrs
|------------|
|------------|
|------------|
|-------4----|
|-5-4-2-2----|
|-3-2-0------|


Both Gtrs
play 3 times
  PM-------------------------------------|
|----------------------------------------|
|----------------------------------------|
|----------------------------------------|
|----------------------------------------|
|----------------------------------------|
|-0-2-2-2-2-2-2-2-2-2-2-2-2-2-2h3p2------|


4th time
  PM---------------------------|
|------------------------------|
|------------------------------|
|------------------------------|
|-----------------------4------|
|-----------------5-4-2-2------|
|-0-2-2-2-2-2-2-2-3-2-0--------|


Both Gtrs
  PM----------------------|       PM---------------------------|
|--------------------------------------------------------------|
|--------------------------------------------------------------|
|--------------------------------------------------------------|
|--------------------------------------------------------------|
|-------------------------------------------------------8------|
|-0-2-2-2-2--2-2-2--2-2-2-2-2h3p2-0-2-2-2-2--2-2-2--2-0-6------|


  PM----------------------|       PM---------------------------|
|--------------------------------------------------------------|
|--------------------------------------------------------------|
|-------------------------------------------------------5------|
|-------------------------------------------------------3------|
|--------------------------------------------------------------|
|-0-2-2-2-2--2-2-2--2-2-2-2-2h3p2-0-2-2-2-2--2-2-2--2-0--------|


  PM----------------------|       PM---------------------------|
|--------------------------------------------------------------|
|--------------------------------------------------------------|
|--------------------------------------------------------------|
|--------------------------------------------------------------|
|-------------------------------------------------------8------|
|-0-2-2-2-2--2-2-2--2-2-2-2-2h3p2-0-2-2-2-2--2-2-2--2-0-6------|


  PM----------------------|       PM------------------------------|
|-----------------------------------------------------------------|
|-----------------------------------------------------------------|
|-----------------------------------------------------------------|
|-----------------------------------------------------------------|
|-------------------------------------------------------3--3------|
|-0-2-2-2-2--2-2-2--2-2-2-2-2h3p2-0-2-2-2-2--2-2-2--2-0-1--1------|


Both Gtrs
  PM-------------------------------------------------------------------|
|----------------------------------------------------------------------|
|----------------------------------------------------------------------|
|----------------------------------------------------------------------|
|----------------------------------------------------------------------|
|-------------------2-0---3-2-0---------------------2-0---3-2-0--------|
|-0-0-0-0-0-0-0-0-0-----3-------3-0-0-0-0-0-0-0-0-0-----3-------3------|


Gtr 1
                  PM---------------------------------------------|                             PM
|----------------------------------------------------------------|
|----------------------------------------------------------------|
|-5--4--2-----------------------------------------<5>-----<5>----|
|----------5--4-2-----------------<7>-----<5>---------<5>--------|
|-------------------------------------<7>-----<5>----------------|
|-----------------0-0-0-0-0-0-0-0-----------------------------0--|


Gtr 2
                  PM---------------------------------------------|                             PM
|----------------------------------------------------------------|
|----------------------------------------------------------------|
|-9--7--5-----------------------------------------<5>-----<5>----|
|----------9--7-5-----------------<7>-----<5>---------<5>--------|
|-------------------------------------<7>-----<5>----------------|
|-----------------0-0-0-0-0-0-0-0-----------------------------0--|


Both Gtrs
  PM------------|      PM|     PM----------------|      PM|     PM-------|
|------------------------------------------------------------------------|
|------------------------------------------------------------------------|
|------------------------------------------------------------------------|
|-----------------9S10-----7S9---------------------9S10-----7S9----------|
|-----------------7S=8-----5S7---------------------7S=8-----5S7----------|
|-0-0-0-0-0-0-0-0------0-0-----0-0-0-0-0-0-0-0-0-0------0-0-----0-0------|


Gtr 1
|---------------------------------|
|---------------------------------|
|-5--4--2-------------------------|
|----------5--4-2-5--4--2---------|
|-----------------3--2--0--5-4----|
|--------------------------3-2----|

Gtr 2
|---------------------------------|
|---------------------------------|
|-9--7--5-------------------------|
|----------9--7-5-5--4--2---------|
|-----------------3--2--0--5-4----|
|--------------------------3-2----|


Verse
Both Gtrs
play twice
  PM--|     PM----------------------|     PM-------------------|
|--------------------------------------------------------------|
|--------------------------------------------------------------|
|--------------------------------------------------------------|
|---------------------------------------------------5---5------|
|-------8-----------------------------8-------------3---3------|
|-3-3-6-6---6-3-6-3-3-3-3-3-3-3-3-3-3-6---6-3-6-3-3------------|


  PM--|     PM----------------|                   PM-------------|
|----------------------------------------------------------------|
|----------------------------------------------------------------|
|-------------------------------7S8-8-8--8-----------------------|
|-------------------------------5S6-6-6--6--8--8-----------------|
|-------8-----------------------------------6--6--6-6-5-4-3------|
|-3-3-6-6---6-3-6-3-3-3-3-3-3-3----------------------------------|


Chorus
Both Gtrs
  PM----------------------|       PM---------------------------|
|--------------------------------------------------------------|
|--------------------------------------------------------------|
|--------------------------------------------------------------|
|--------------------------------------------------------------|
|-------------------------------------------------------8------|
|-0-2-2-2-2--2-2-2--2-2-2-2-2h3p2-0-2-2-2-2--2-2-2--2-0-6------|


  PM----------------------|       PM---------------------------|
|--------------------------------------------------------------|
|--------------------------------------------------------------|
|-------------------------------------------------------5------|
|-------------------------------------------------------3------|
|--------------------------------------------------------------|
|-0-2-2-2-2--2-2-2--2-2-2-2-2h3p2-0-2-2-2-2--2-2-2--2-0--------|


  PM----------------------|       PM---------------------------|
|--------------------------------------------------------------|
|--------------------------------------------------------------|
|--------------------------------------------------------------|
|--------------------------------------------------------------|
|-------------------------------------------------------8------|
|-0-2-2-2-2--2-2-2--2-2-2-2-2h3p2-0-2-2-2-2--2-2-2--2-0-6------|


  PM----------------------|       PM------------------------------|
|-----------------------------------------------------------------|
|-----------------------------------------------------------------|
|-----------------------------------------------------------------|
|-----------------------------------------------------------------|
|-------------------------------------------------------3--3------|
|-0-2-2-2-2--2-2-2--2-2-2-2-2h3p2-0-2-2-2-2--2-2-2--2-0-1--1------|


Both Gtrs
  PM-------------------------------------------------------------------|
|----------------------------------------------------------------------|
|----------------------------------------------------------------------|
|----------------------------------------------------------------------|
|----------------------------------------------------------------------|
|-------------------2-0---3-2-0---------------------2-0---3-2-0--------|
|-0-0-0-0-0-0-0-0-0-----3-------3-0-0-0-0-0-0-0-0-0-----3-------3------|


Gtr 1
                  PM---------------------------------------------|                             PM
|----------------------------------------------------------------|
|----------------------------------------------------------------|
|-5--4--2-----------------------------------------<5>-----<5>----|
|----------5--4-2-----------------<7>-----<5>---------<5>--------|
|-------------------------------------<7>-----<5>----------------|
|-----------------0-0-0-0-0-0-0-0-----------------------------0--|


Gtr 2
                  PM---------------------------------------------|                             PM
|----------------------------------------------------------------|
|----------------------------------------------------------------|
|-9--7--5-----------------------------------------<5>-----<5>----|
|----------9--7-5-----------------<7>-----<5>---------<5>--------|
|-------------------------------------<7>-----<5>----------------|
|-----------------0-0-0-0-0-0-0-0-----------------------------0--|


Both Gtrs
  PM------------|      PM|     PM----------------|      PM|     PM-------|
|------------------------------------------------------------------------|
|------------------------------------------------------------------------|
|------------------------------------------------------------------------|
|-----------------9S10-----7S9---------------------9S10-----7S9----------|
|-----------------7S=8-----5S7---------------------7S=8-----5S7----------|
|-0-0-0-0-0-0-0-0------0-0-----0-0-0-0-0-0-0-0-0-0------0-0-----0-0------|


Gtr 1
|---------------------------------|
|---------------------------------|
|-5--4--2-------------------------|
|----------5--4-2-5--4--2---------|
|-----------------3--2--0--5-4----|
|--------------------------3-2----|

Gtr 2
|---------------------------------|
|---------------------------------|
|-9--7--5-------------------------|
|----------9--7-5-5--4--2---------|
|-----------------3--2--0--5-4----|
|--------------------------3-2----|


Repeat Verse
Repeat Chorus


Gtr 1, Gtr 2 accentuates
  PM|   PM|   PM    PM|       PM|   PM|   PM    PM----|
|----------------------------------------------------------|
|----------------------------------------------------------|
|----------------------------------------------------------|
|---------------8S7-------------------------8S7------------|
|-----7-----8---6S5-----3--3------7-----8---6S5------------|
|-0-5---0-6---0-----0-0-1--1--0-5---0-6---0-----0-0-0-0----|


  PM|   PM|   PM    PM|
|---------------------------------------------|
|---------------------------------------------|
|---------------------------------------------|
|---------------8S7---------------------------|
|-----7-----8---6S5-----3--3----9p7---10-9----|
|-0-5---0-6---0-----0-0-1--1--7-----7---------|


Both Gtrs
play 4 times
     PM  PM|   PM    PM|       PM|   PM|   PM    PM-------------|
|---------------------------------------------------------------|
|---------------------------------------------------------------|
|---------------------------------------------------------------|
|----------------8S7-------------------------8S7----------------|
|------7-----8---6S5-----3--3------7-----8---6S5----------------|
|-0--5---0-6---0-----0-0-1--1--0-5---0-6---0-----0-0-0-0-0-\----|


Both Gtrs
|-------------------------------------------------------|
|-------------------------------------------------------|
|----------------------------------------2--2-----------|
|-6-6-6-4---4--4-4-4-2---2--6-6-6-4------2--2-----------|
|-4-4-4-4---4--2-2-2-2---2--4-4-4-4--4-4-0--0--4---4----|
|----------------------------------------------2---2----|

                        PM------|     PM------------------------|
|---------------------------------------------------------------|
|---------------------------------------------------------------|
|---------------------------------------------------------------|
|-6-6-6-4---4--9-9-9-9--------------------------------9--9------|
|-4-4-4-4---4--7-7-7-7--7-7-7-7-7-7-------------------7--7------|
|-----------------------5-5-5-5-5-5---5-4-2-0-5-4-2-0-----------|


|-------------------------------------------------------|
|-------------------------------------------------------|
|----------------------------------------2--2-----------|
|-6-6-6-4---4--4-4-4-2---2--6-6-6-4------2--2-----------|
|-4-4-4-4---4--2-2-2-2---2--4-4-4-4--4-4-0--0--4---4----|
|----------------------------------------------2---2----|


                        PM------|     PM-------------------------|
|----------------------------------------------------------------|
|----------------------------------------------------------------|
|----------------------------------------------------------------|
|-6-6-6-4---4--9-9-9-9-------------------------------------------|
|-4-4-4-4---4--7-7-7-7--7-7-7-7-7-7-------------------8--7--5----|
|-----------------------5-5-5-5-5-5---5-4-2-0-5-4-2-0-6--5--3----|


Both Gtrs
     PM-------|            PM   PM-------------------------|
|----------------------------------------------------------|
|----------------------------------------------------------|
|----------------------------------------------------------|
|-6--------------------------6-------------2-2-2-2--4------|
|-4--6---5------4-----4--4---4--6---5------0-0-0-0--2------|
|----4-0-3--2-0-2p0-0-2--2-0----4-0-3--2-0-----------------|


     PM-------|            PM   PM------------------------|
|---------------------------------------------------------|
|---------------------------------------------------------|
|---------------------------------------------------------|
|-6--------------------------6-----------9--9--4---6------|
|-4--6---5------4-----4--4---4--6---5----7--7--2---4------|
|----4-0-3--2-0-2p0-0-2--2-0----4-0-3--0------------------|


  PM-|          PM    PM   PM----|
|-------------------------------------------------|
|-------------------------------------------------|
|-------------------------------------------------|
|-----------------------6----------9--9---4--4----|
|-6--5--4---4-----4-----4--6--5----7--7---2--2----|
|-4--3--2p0-2p0-0-2---0----4--3--0------0---------|


     PM-------|            PM   PM-------------------------|             PM
|----------------------------------------------------------|
|----------------------------------------------------------|
|----------------------------------------------------------|
|-6--------------------------6-------------2-2-2-2--4------|
|-4--6---5------4-----4--4---4--6---5------0-0-0-0--2------|
|----4-0-3--2-0-2p0-0-2--2-0----4-0-3--2-0-------------0---|


Both Gtrs
play twice
  PM----------------------------------------------------------|     PM
|-------------------------------------------------------------|
|------------------------------------------------3------------|
|------------------------------------------------2-----2------|
|------------------------------------------------0-----2------|
|------------------------------------------------0-----0------|
|-3-0-0-3--0-0-0-3-0-0-3--0-0-0-3-0-0-3--0-0-0-0-----0--------|


  PM--------------------------------------------------------|
|-----------------------------------------------------------|
|-----------------------------------------------------------|
|------------------------------------------------2---2------|
|------------------------------------------------2---2------|
|------------------------------------------------0---0------|
|-3-0-0-3--0-0-0-3-0-0-3--0-0-0-3-0-0-3--0-0-0-0------------|

  PM-------------------------------------------|     PM    PM       PM-------------------|      PM
|----------------------------------------------------------------------------------------|
|----------------------------------------------------------------------------------------|
|-------------------------------------------------9----9S8---[8]S9----9S11----[11]S9-----|
|-9-11-11-11--11-11-11-9-11-11-11--11-11-11-11-11---11-----9-------11------13--------11--|
|----------------------------------------------------------------------------------------|
|----------------------------------------------------------------------------------------|


  PM------------------------------------------------------------------------|
|---------------------------------------------------------------------------|
|----------------------12--12--12--12--9-9-9-9-9-9--------------------------|
|-----------------------9---9---8---9--9-9-9-9-9-9---9p8p6---9p8p6---8--8---|
|-9-11-11-11--11-11-11-------------------------------------9-------9-9--9---|
|---------------------------------------------------------------------------|
|---------------------------------------------------------------------------|


  PM-------------------------------------------|     PM    PM       PM-------------------|      PM
|----------------------------------------------------------------------------------------|
|----------------------------------------------------------------------------------------|
|-------------------------------------------------9----9S8---[8]S9----9S11----[11]S9-----|
|-9-11-11-11--11-11-11-9-11-11-11--11-11-11-11-11---11-----9-------11------13--------11--|
|----------------------------------------------------------------------------------------|
|----------------------------------------------------------------------------------------|


  PM-------------------------------------------------------------------------------------|
|-------------------------------------------------------------------18-----17-----15-----|
|----------------------12--12--12--12--9-9-9-9-9-9------------------21b23--20b22--18b20--|
|-----------------------9---9---8---9--9-9-9-9-9-9--9p8p6---9p8p6------------------------|
|-9-11-11-11--11-11-11------------------------------------9-------9----------------------|
|----------------------------------------------------------------------------------------|
|----------------------------------------------------------------------------------------|


           PM--|
|--------------------------------------11p9h11p9----9---------------------------------|
|-9b9.5-------------12b14-------12b14------------12---12p9----9------------11---------|
|-9b9.5----------------------------------------------------11---12p11p9----11----[9]--|
|---------11-9-11-------------------------------------------------------11----11------|
|-------------------------------------------------------------------------------------|
|-------------------------------------------------------------------------------------|


   PM---|     PM  PM  PM
|-----------------------------------------4---4-5---4---4------------|
|---------------------------4-5---4--7b9----7-----7---7---4---4------|
|----------9----8---6---4-6-----6---------------------------6---6----|
|--------------------------------------------------------------------|
|-11-11-11---11---9---7----------------------------------------------|
|--------------------------------------------------------------------|


|-----------------------------------|
|-[10]b12-----------10--9-----------|
|--------------------------11b13----|
|-----------------------------------|
|-----------------------------------|
|-----------------------------------|


Gtr 3
|---------9-----------------------------------9---12b14---12--11--10--9h10p9----------|
|-------9---12p9----9-----------------------9---9----------------------------12b14----|
|-11b13----------11---12p11p9----11----9h10-------------------------------------------|
|-----------------------------11----11------------------------------------------------|
|-------------------------------------------------------------------------------------|
|-------------------------------------------------------------------------------------|


|-------------12---12----------12-------------------------12------15----15h17h18p17p15h17----15h16----|
|-------12-14-12------15p12-------------------14-------------/17-----17-------------------17-------17-|
|-12-13---------------------14----15p14p12----14----12h13---------------------------------------------|
|------------------------------------------14----14---------------------------------------------------|
|-----------------------------------------------------------------------------------------------------|
|-----------------------------------------------------------------------------------------------------|


                                                                     PM---|
|----------------------------------------------------------------------------------|
|-15-15-14-12--12-14-14-15-15-14-12--12-14-14-15-15-14-12--12----------------------|
|-16-16-14-12--12-14-14-16-16-14-12--12-14-14-16-16-14-12--12-14-------14----12----|
|-------------------------------------------------------------------14----14-------|
|----------------------------------------------------------------------------------|
|----------------------------------------------------------------------------------|


|--------------------------------------------------------------17-16----|
|-----------------------------------------------------16-17-19----------|
|----------12--11-------------12-------------15-16-18-------------------|
|-13p12--------------13p12----------14h16h18----------------------------|
|-------14-----------------14-------------------------------------------|
|-----------------------------------------------------------------------|


|-----21b22--21---19--18--17h18p17--------------------19---------------------------|
|-17-------------------------------20p17----17-19b20-----19b20r19p17-20p17--17\----|
|----------------------------------------18----------------------------------------|
|----------------------------------------------------------------------------------|
|----------------------------------------------------------------------------------|
|----------------------------------------------------------------------------------|


Repeat Verse
Repeat Chorus


Gtr 1, Gtr 2 accentuates
  PM|   PM|   PM    PM|
|------------------------------------------------------------------------|
|------------------------------------------------------------------------|
|------------------------------------------------------------------------|
|---------------8S7------------------------------------------------------|
|-----7-----8---6S5-----3--3----9p7---10-9-----9p7---10-9-----9p7---10-9-|
|-0-5---0-6---0-----0-0-1--1--7-----7-------7------7--------7-----7------|


Both Gtrs
     PM  PM|   PM    PM|       PM|   PM|   PM    PM|
|---------------------------------------------------------------|
|---------------------------------------------------------------|
|---------------------------------------------------------------|
|----------------8S7-------------------------8S7----------------|
|------7-----8---6S5-----3--3------7-----8---6S5-----3--5--6----|
|-0--5---0-6---0-----0-0-1--1--0-5---0-6---0-----0-0-1--3--4----|


Gtr 1
  PM|   PM|   PM
|--------------------------------------------------------|
|--------------------------------------------------------|
|-----------------------------4-3-1----------------------|
|---------------8S7-----------------4-3-1----------------|
|-----7-----8---6S5-----3--3--------------4-3-1----------|
|-0-5---0-6---0-----0-0-1--1--------------------4-2-2----|


Gtr 2
  PM|   PM|   PM    PM|
|--------------------------------------------------------------------|
|--------------------------------------------------------------------|
|-----------------------------16-15-13-------------------------------|
|---------------8S7--------------------16-15-13----------------------|
|-----7-----8---6S5-----3--3--------------------16-15-13-------------|
|-0-5---0-6---0-----0-0-1--1-----------------------------16-14-14----|

Annihilator - Sixes And Sevens
Tuning - E A D G B E


Gtrs 2 & 3
|---|---------0-0-----------------0-0-------0-0-----------------0-0----|
|---|------11-----11-----------11-----11--------11-----------11--------|
|---|---10-----------10-----10-----------10--------10-----10-----------|
|-8-|-8-----------------8-8---------------------------8-8--------------|
|---|------------------------------------------------------------------|
|---|------------------------------------------------------------------|


Gtr 1
play twice
|---|--------------------------|
|---|--------------------------|
|---|--------------------------|
|---|--------------------------|
|-8-|-8----------------4--4----|
|-6-|-6----------------2--2----|


|-----------------------------------|
|-----------------------------------|
|-----------------------------------|
|---------------------6--5--3-------|
|-2--2----------------4--3--1--4----|
|-0--0-------------------------2----|


Gtrs 2 & 3
play twice
|---|---------0-0-----------------0-0---------------5-5-------------0-0--------|
|---|------11-----11-----------11-----11----------7-----7---------7-----7------|
|---|---10-----------10-----10-----------10-----6---------6-----6---------6----|
|-8-|-8-----------------8-8-----------------4-4-------------4-4----------------|
|---|--------------------------------------------------------------------------|
|---|--------------------------------------------------------------------------|


|---------3-3----------|
|-------5-----5--------|
|-----4---------4------|
|-2-2-------------2----|
|----------------------|
|----------------------|


Gtr 1
|---------|
|---------|
|---------|
|---------|
|-8--8----|
|-6--6----|


Gtr 2
|-------------0-0-------0-0------------|
|----------11-----11--------11---------|
|-------10-----------10--------10------|
|-8-8-8---------------------------8----|
|--------------------------------------|
|--------------------------------------|


Both Gtrs
              PM----------|              PM----------|     PM---------------------------------|                       PM|   PM
|---------------------------------------------------------------------------------------------|
|---------------------------------------------------------------------------------------------|
|-----10---10-----------------------------------------------------9-----10--------------------|
|-0-8---------8-0---------------------------------------------------7-0----8-0----------------|
|-----------------9-7-0-----5-----5--5-----------------5-5-----5---------------9-7-0-----5----|
|-----------------------6-6---6-5-3--3---0-3-6-5-0-3-5-----5-3-----------------------6-6---3--|


Both Gtrs
play 4 times
  PM--------------------------------|    PM|    PM---------|
|----------------------------------------------------------|
|----------------------------------------------------------|
|----------------------------------------------------------|
|----------------------------------------------------------|
|-------------------------------------1------8------1------|
|-0--0-0-0--0-0-0-0-0-0-0--0-0-0--0-0-3--0-0-6--0-0-3------|


Gtr 1
play twice
      PM--------|                 PM|    PM--------|    PM-------|
|----------------------------------------------------------------|
|----------------------------------------------------------------|
|----------------------------------------------------------------|
|----------------------------------------------------------------|
|-----------------------12------------1--------------1-----------|
|-3h5-0-0-0-0-0-0-10-11-------3h5-0-0-3--0-0-0-0-0-0-3--0-0------|


      PM-------------|            PM---------------|
|--------------------------------------------------|
|--------------------------------------------------|
|--------------------------------------------------|
|----------------------------------------3---------|
|-----------------------12------------1--1--1------|
|-3h5-0-0-0-0-0-0-10-11-------3h5-0-0-3-----3------|


Gtr 2
play twice
        PM-------------|              PM|    PM--------|    PM-------|
|--------------------------------------------------------------------|
|--------------------------------------------------------------------|
|--------------------------------------------------------------------|
|--------------------------------------------------------------------|
|-10h12-------------------12----10h12-----1--------------1-----------|
|-------0-0-0-0-0-0-10-11-------------0-0-3--0-0-0-0-0-0-3--0-0------|


        PM-------------|              PM---------------|
|------------------------------------------------------|
|------------------------------------------------------|
|------------------------------------------------------|
|--------------------------------------------3---------|
|-10h12-------------------12----10h12-----1--1--1------|
|-------0-0-0-0-0-0-10-11-------------0-0-3-----3------|


Both Gtrs
|----------------------------|
|----------------------------|
|----------------------------|
|-9-9-9-9--------------------|
|-7-7-7-7---8-7-5-----3-3----|
|-----------------8---1-1----|


Gtr 1
  PM|     PM|     PM----|                 PM|     PM|     PM---------------|
|--------------------------------------------------------------------------|
|--------------------------------------------------------------------------|
|--------------------------------------------------------------------------|
|-------------10----------<7>-----<5>-----------------10-------------------|
|-----7p5------8--------------<7>-----<5>-----7p5------8--------8---8------|
|-0-0-----0-0-----0-0-0-0-----------------0-0-----0-0-----0-0-0-6---6------|


Gtr 2
  PM|     PM|     PM----|                 PM|     PM|     PM--------------|
|-------------------------------------------------------------------------|
|-------------------------------------------------------------------------|
|-------------------------------------------------------------------------|
|-------------10----------<7>-----<5>-----------------10------------------|
|-----7p5------8--------------<7>-----<5>-----7p5------8--------5tr6------|
|-0-0-----0-0-----0-0-0-0-----------------0-0-----0-0-----0-0-0-----------|


Both Gtrs
  PM|     PM|     PM----|                 PM-----------------|   PM---------|
|---------------------------------------------------------------------------|
|---------------------------------------------------------------------------|
|---------------------------------------------------------------------------|
|-------------10----------<7>-----<5>---------------------------------------|
|-----7p5------8--------------<7>-----<5>----------------------8-----8------|
|-0-0-----0-0-----0-0-0-0-----------------\-\-\-\-\-\-\--6-5-3---0-0-6------|


Verse
Both Gtrs
  PM|     PM|     PM----|                 PM|     PM|     PM---------------|
|--------------------------------------------------------------------------|
|--------------------------------------------------------------------------|
|--------------------------------------------------------------------------|
|-------------10----------<7>-----<5>-----------------10-------------------|
|-----7p5------8--------------<7>-----<5>-----7p5------8--------8---8------|
|-0-0-----0-0-----0-0-0-0-----------------0-0-----0-0-----0-0-0-6---6------|

  PM|     PM|     PM----|                 PM|     PM|     PM--|   PM---------|
|----------------------------------------------------------------------------|
|----------------------------------------------------------------------------|
|----------------------------------------------------------------------------|
|-------------10----------<7>-----<5>-----------------10---------------------|
|-----7p5------8--------------<7>-----<5>-----7p5------8--------8-----8------|
|-0-0-----0-0-----0-0-0-0-----------------0-0-----0-0-----6-5-3---0-0-6------|

  PM|     PM|     PM----|                 PM|     PM|     PM--------------|
|-------------------------------------------------------------------------|
|-------------------------------------------------------------------------|
|-------------------------------------------------------------------------|
|-------------10----------<7>-----<5>-----------------10------------------|
|-----7p5------8--------------<7>-----<5>-----7p5------8------------------|
|-0-0-----0-0-----0-0-0-0-----------------0-0-----0-0-----0-0-0-6tr8------|


  PM|     PM|     PM----|                 PM|     PM|     PM--|   PM---------|
|----------------------------------------------------------------------------|
|----------------------------------------------------------------------------|
|----------------------------------------------------------------------------|
|-------------10----------<7>-----<5>-----------------10---------------------|
|-----7p5------8--------------<7>-----<5>-----7p5------8--------8-----8------|
|-0-0-----0-0-----0-0-0-0-----------------0-0-----0-0-----6-5-3---0-0-6------|


Chorus
Both Gtrs
  PM----------------------------------------------------------|
|-------------------------------------------------------------|
|-------------------------------------------------------------|
|-------------------------------------------------------------|
|-------------------------------------------------------------|
|-----------------------------------------------5------3------|
|-0--1-0--0-0-0-0--1-0--0-0-0-0--1-0--0-0-0-5h7----3h5--------|


  PM------------------------------------------------------|
|---------------------------------------------------------|
|---------------------------------------------------------|
|---------------------------------------------------------|
|---------------------------------------------------------|
|-------------------------------------------6-6--5-5------|
|-0--1-0--0-0-0-0--1-0--0-0-0-0--1-0--0-0-0-4-4--3-3------|


  PM--------------------------------------------|    PM----------|
|----------------------------------------------------------------|
|----------------------------------------------------------------|
|----------------------------------------------------------------|
|----------------------------------------------------------------| / 3 \ triplets
|-------------------------------------------/-3-\-5--/-3-\-3-----|
|-0--1-0--0-0-0-0--1-0--0-0-0-0--1-0--0-0-0-5-5-7----3-3-5-------|


  PM------------------------------------------------------|
|---------------------------------------------------------|
|---------------------------------------------------------|
|---------------------------------------------------------|
|---------------------------------------------------------|
|-------------------------------------------6-6--5-5------|
|-0--1-0--0-0-0-0--1-0--0-0-0-0--1-0--0-0-0-4-4--3-3------|


Both Gtrs
|----------------------------|
|----------------------------|
|----------------------------|
|-9-9-9-9--------------------|
|-7-7-7-7---8-7-5-----3-3----|
|-----------------8---1-1----|


Repeat Verse
Repeat Chorus


Both Gtrs
  PM------------------|   PM|    PM------------------|   PM--------|
|------------------------------------------------------------------|
|------------------------------------------------------------------|
|------------------------------------------------------------------|
|------------------------------------------------------------------|
|----------------------8-----8------------------------8-----8------|
|-0-0-0-0-0-0-0--6-5-3---0-0-6---0-0-0-0-0-0-0--6-5-3---0-0-6------|


  PM-----------------------------------|
|--------------------------------------|
|--------------------------------------|
|--------------------------------------|
|--------------------------------------|
|--------------------------------------|
|-7-6-4-3---6-5-3-2-5-4-2-1-4-3-1------|


  PM------------------|   PM|    PM------------------|   PM---------|
|-------------------------------------------------------------------|
|-------------------------------------------------------------------|
|-------------------------------------------------------------------|
|-------------------------------------------------------------------|
|-----------------------8-----8------------------------8-----8------|
|-0-0-0-0-0-0-0-0-6-5-3---0-0-6--0-0-0-0-0-0-0-0-6-5-3---0-0-6------|


Gtr 1, Gtr 2 accentuates
  PM--|           PM--|           PM--|           PM|    PM-------|
|-----------------------------------------------------------------|
|-----------------------------------------------------------------|
|-----------------------------------------------------------------|
|-----------------------------------------------------7-----------|
|-------0h=1p0----------0h=1p0----------0h=1p0--------5------7----|
|-0-0-3--------3--0-0-3--------3--0-0-3--------3--0-0----0-0-5----|

  PM--|           PM--|
|--------------------------------------------------|
|--------------------------------------------------|
|--------------------------------------------------|
|---------------------------------7-----5----------|
|-------0h=1p0----------0h=1p0----5--7--3--5--7----|
|-0-0-3--------3--0-0-3--------3-----5-----3--5----|


Both Gtrs
  PM--|           PM--|           PM--|           PM|    PM-------|
|-----------------------------------------------------------------|
|-----------------------------------------------------------------|
|-----------------------------------------------------------------|
|-----------------------------------------------------7-----------|
|-------0h=1p0----------0h=1p0----------0h=1p0--------5------7----|
|-0-0-3--------3--0-0-3--------3--0-0-3--------3--0-0----0-0-5----|


  PM--|           PM--|
|-----------------------------------------------|
|-----------------------------------------------|
|-----------------------------------------------|
|---------------------------------7-----5-------|
|-------0h=1p0----------0h=1p0----5--7--3--5----|
|-0-0-3--------3--0-0-3--------3-----5-----3----|


  PM--|           PM--|           PM--|           PM|    PM-------|
|-----------------------------------------------------------------|
|-----------------------------------------------------------------|
|-----------------------------------------------------------------|
|-----------------------------------------------------7-----------|
|-------0h=1p0----------0h=1p0----------0h=1p0--------5------7----|
|-0-0-3--------3--0-0-3--------3--0-0-3--------3--0-0----0-0-5----|

  PM--|           PM--|
|--------------------------------------------------|
|--------------------------------------------------|
|--------------------------------------------------|
|---------------------------------7-----5----------|
|-------0h=1p0----------0h=1p0----5--7--3--5--7----|
|-0-0-3--------3--0-0-3--------3-----5-----3--5----|


Both Gtrs
play 4 times
       PM|      PM|
|-------------------------------------------|
|-------------------------------------------|
|-------------------------------------------|
|-------------------------------------------|
|-4-5------8-7------4-5-----3p2-3--8S7S8----|
|-2-3--0-0-6-5--0-0-2-3-----1p0-1--6S5S6----|


Gtr 1
play 3 times
  PM----------------------------------------|
|-------------------------------------------|
|---11----12---11----12---11---9------------|
|-9----10----9----10----9----7-------7------|
|--------------------------------7-9--------|
|-------------------------------------------|
|-------------------------------------------|

4th time
  PM---------------------------|
|------------------------------|
|---11----12---11----12--------|
|-9----10----9----10----9------|
|------------------------------|
|------------------------------|
|------------------------------|

Gtr 2
play 3 times
   PM-----------------------------------------------|
|---------------------------------------------------|
|----14----15----14----15----14----12---------------|
|-12----13----12----13----12----10----------10------|
|-------------------------------------10-12---------|
|---------------------------------------------------|
|---------------------------------------------------|

4th time
   PM-----------------------------|
|---------------------------------|
|----14----15----14----15---------|
|-12----13----12----13----12------|
|---------------------------------|
|---------------------------------|
|---------------------------------|


Gtr 3
joins 3rd time
   PM-----------------------------------------------|
|---------------------------------------------------|
|----17----18----17----18----17----15---------------|
|-15----16----15----16----15----13----------13------|
|-------------------------------------13-15---------|
|---------------------------------------------------|
|---------------------------------------------------|


   PM-----------------------------|
|---------------------------------|
|----17----18----17----18---------|
|-15----16----15----16----15------|
|---------------------------------|
|---------------------------------|
|---------------------------------|


Both Gtrs
play twice
  PM---------------------------------|
|------------------------------------|
|------------------------------------|
|------------------------------------|
|------------------------------------|
|-7-7-8-8-7-7-8-8-7-7-5-5-----5------|
|-------------------------5h7--------|


Both Gtrs
play twice
|--------------------------------------|
|--------------------------------------|
|--------------------------------------|
|-9-9-10-10-9-9-10-10-9-9-7-7----------|
|-7-7--8--8-7-7--8--8-7-7-5-5-----5----|
|-----------------------------5h7------|


Both Gtrs
play 3 times
  PM--|        PM--|       PM--|        PM--------------------|
|-------------------------------------------------------------|
|--------------------3---3------------------------------------|
|--------------------2---2--------5---5-----------------------|
|-------9---9--------4---4--------5---5-----------------------|
|-------7---7--2-2-2-2---2--0-0-0--------0-0-0-0-0-0-0-0------|
|-0---0-------------------------------------------------------|


4th time
  PM-|       PM--|       PM--|        PM-------------------------|
|----------------------------------------------------------------|
|------------------3--3------------------------------------------|
|------------------2--2--------5--5------------------------------|
|------9--9--------4--4--------5--5------------------------------|
|------7--7--2-2-2-2--2--0-0-0--------------3----------8--8------|
|-0--0------------------------------\-0-0-0-1----------6--6------|


Both Gtrs
  PM----|      PM|      PM|     PM--------|      PM|      PM------------|
|-----------------------------------------------------------------------|
|-----------------------------------------------------------------------|
|-----------------------------------------------------------------------|
|------------------10S9------------------------------10S9---------------|
|---------10S9------8S7-----7S8-------------10S9------8S7-----8--8------|
|-0-0-0-0--8S7-0-0------0-0-5S6-0-0-0-0-0-0--8S7-0-0------0-0-6--6------|


|--------------------------|
|--------------------------|
|--------------------------|
|------------------10S9----|
|---------10S9------8S7----|
|-0-0-0-0--8S7-0-0---------|


Both Gtrs
play 3 times
  PM--|        PM--|       PM--|        PM--------------------|
|-------------------------------------------------------------|
|--------------------3---3------------------------------------|
|--------------------2---2--------5---5-----------------------|
|-------9---9--------4---4--------5---5-----------------------|
|-------7---7--2-2-2-2---2--0-0-0--------0-0-0-0-0-0-0-0------|
|-0-0-0-------------------------------------------------------|


4th time
  PM--|       PM--|       PM--|        PM-------------------------|
|-----------------------------------------------------------------|
|-------------------3--3------------------------------------------|
|-------------------2--2--------5--5------------------------------|
|-------9--9--------4--4--------5--5------------------------------|
|-------7--7--2-2-2-2--2--0-0-0--------------3----------8--8------|
|-0-0-0------------------------------\-0-0-0-1----------6--6------|


Both Gtrs
  PM----|      PM|      PM|     PM--------|      PM|      PM------------|
|-----------------------------------------------------------------------|
|-----------------------------------------------------------------------|
|-----------------------------------------------------------------------|
|------------------10S9------------------------------10S9---------------|
|---------10S9------8S7-----7S8-------------10S9------8S7-----8--8------|
|-0-0-0-0--8S7-0-0------0-0-5S6-0-0-0-0-0-0--8S7-0-0------0-0-6--6------|


Gtr 3
            T                 T                    T              T        T        T        T
|-12h15h17-18p17p15p12h14h15-17p15p14----12h14h15-17p15p14p12-------------------------------------|
|-------------------------------------------------------------15-17p12----------------------------|
|----------------------------------------------------------------------14-16p12-------------16p12-|
|-------------------------------------------------------------------------------14-16p12h14-------|
|-------------------------------------------------------------------------------------------------|
|-------------------------------------------------------------------------------------------------|


|---------------------------------------12h14p12----------15h18p15----------15h17h18p17p15----17----15h16----|
|---------------------12h15p12-------------------15-12-15----------17-15-17----------------17----17-------17-|
|-[12]h16p12-------------------14-12-14----------------------------------------------------------------------|
|------------14-12-14----------------------------------------------------------------------------------------|
|------------------------------------------------------------------------------------------------------------|
|------------------------------------------------------------------------------------------------------------|


                                            PM|      PM    PM-----------------------|
|-------------14-17--15--15p14------------------------------------------------------|
|----------15------------------15---------------------------------------------------|
|-14-15-16------------------------14S11---------------------------------------------|
|---------------------------------------12-------12----12---------------------------|
|------------------------------------------14-14----14----14-13-12----12b13r12------|
|------------------------------------------------------------------15---------------|


|-----10-----10----------12------12----------12---------------------------------------------|
|-7-8----7-8----7-8-8-10----8-10-----15b17------15----15------------------------------------|
|--------------------------------------------------15----15p14p12----14----12-13-------12---|
|-----------------------------------------------------------------14----14----15-------14---|
|-------------------------------------------------------------------------------------------|
|-------------------------------------------------------------------------------------------|


|----------------------------------------------------------|
|-------------------------------12p10p8S7---7h8---7--------|
|----------12------------12---------------9-----9---7------|
|-13p12---------13p12---------------------------------9----|
|-------14------------14-----------------------------------|
|----------------------------------------------------------|


|-----12------14-------15-------17-------15------14-----12-12-12-12----|
|-7S8----8S10----10S12----12S13----10S12----8S10----7S8-----8--8--8----|
|----------------------------------------------------------------------|
|----------------------------------------------------------------------|
|----------------------------------------------------------------------|
|----------------------------------------------------------------------|


                                               PM--------------------------------------|
|-------------14-17--15--15p14----14---------------------------------------------------|
|----------15------------------15----15------------------------------------------------|
|-14-15-16------------------------------14S11----11------------------------------------|
|---------------------------------------------14----14-13-12----14-12------------------|
|------------------------------------------------------------14-------14-13-12---------|
|------------------------------------------------------------------------------15------|


|-----10-----10----------12------12-----------12----------------------------------------------|
|-7-8----7-8----7-8-8-10----8-10------15b17------15p12----15----------------------------------|
|------------------------------------------------------15----15p14p12----14----12-13------12--|
|---------------------------------------------------------------------14----14----15------14--|
|---------------------------------------------------------------------------------------------|
|---------------------------------------------------------------------------------------------|


Gtr 1
|---------------------------------------|
|---------------------------------------|
|-8-7------------------7-8-10-----------|
|-----10-8-7----7-8-10-------------7----|
|------------10---------------8-10------|
|---------------------------------------|

Gtr 2
|-------------------------------------------------|
|-------------------------------------------------|
|-12-10----------------------10-12-14-------------|
|-------13-12-10----10-12-13----------------10----|
|----------------13-------------------12-13-------|
|-------------------------------------------------|


Both Gtrs
|----------------------------|
|----------------------------|
|----------------------------|
|-9-9-9-9--------------------|
|-7-7-7-7---8-7-5-----3-3----|
|-----------------8---1-1----|


Repeat Verse
Repeat Chorus


Both Gtrs
  PM------------------|   PM|    PM------------------|   PM---------|
|-------------------------------------------------------------------|
|-------------------------------------------------------------------|
|-------------------------------------------------------------------|
|-------------------------------------------------------------------|
|-----------------------8-----8------------------------8-----8------|
|-0-0-0-0-0-0-0---6-5-3---0-0-6--0-0-0-0-0-0-0---6-5-3---0-0-6------|

  PM-----------------------------------|
|--------------------------------------|
|--------------------------------------|
|--------------------------------------|
|--------------------------------------|
|--------------------------------------|
|-7-6-4-3---6-5-3-2-5-4-2-1-4-3-1------|


Gtr 1
  PM------------------|   PM|    PM------------------|   PM---------|
|-------------------------------------------------------------------|
|-------------------------------------------------------------------|
|-------------------------------------------------------------------|
|-------------------------------------------------------------------|
|-----------------------8-----8------------------------8-----8------|
|-0-0-0-0-0-0-0-0-6-5-3---0-0-6--0-0-0-0-0-0-0-0-6-5-3---0-0-6------|


Gtr 2
  PM------------------|   PM|    PM------------------|   PM---------|
|-------------------------------------------------------------------|
|-------------------------------------------------------------------|
|-------------------------------------------------------------------|
|-------------------------------------------------------------------|
|-----------------------8-----8--8\--------------------8-----8------|
|-0-0-0-0-0-0-0-0-6-5-3---0-0-6--6\------0-0-0-0-6-5-3---0-0-6------|


Repeat Intro

Stonewall
Tuning - E A D G B E


Both Gtrs
  PM--|
|----------|
|----------|
|----------|
|----------|
|----------|
|-00-0-----|


Both Gtrs
         PM     PM--|        PM|    PM--|      PM|   PM|      PM|     PM
|--------------------------------------------------------------------------|
|--------------------------------------------------------------------------|
|--------------------------------------------------------------------------|
|-12--12-----12-------11--11-----11-------5--5-----5-----5--5--------------|
|-10--10-----10--------9---9------9-------3--3-----3-----3--3-----3p0------|
|--------0-0----00-0---------0-0----00-0-------0-0---0-0------0-0-----0----|


         PM|    PM--|        PM|    PM--|      PM|   PM|      PM
|----------------------------------------------------------------------|
|----------------------------------------------------------------------|
|----------------------------------------------------------------------|
|-12--12-----12-------11--11-----11-------5--5-----5-----5--5------7---|
|-10--10-----10--------9---9------9-------3--3-----3-----3--3---5--5---|
|--------0-0----00-0---------0-0----00-0-------0-0---0-0------0-3------|


         PM|    PM--|        PM|    PM--|      PM|   PM|        PM    PM
|------------------------------------------------------------------------|
|------------------------------------------------------------------------|
|------------------------------------------------------------------------|
|-12--12-----12-------11--11-----11-------5--5-----5-----5---------------|
|-10--10-----10--------9---9------9-------3--3-----3-----3--3p0---3p0----|
|--------0-0----00-0---------0-0----00-0-------0-0---0-0--------0-----0--|


         PM|    PM--|        PM|    PM--|      PM|   PM|      PM
|----------------------------------------------------------------------|
|----------------------------------------------------------------------|
|----------------------------------------------------------------------|
|-12--12-----12-------11--11-----11-------5--5-----5-----5--5------7---|
|-10--10-----10--------9---9------9-------3--3-----3-----3--3---5--5---|
|--------0-0----00-0---------0-0----00-0-------0-0---0-0------0-3------|


Gtr 1
|--------------------------------------|
|--------------------------------------|
|-55-5-4-------------------------------|
|---------7-5-4-5-7--------------------|
|-------------------7-6-5--------------|
|-------------------------7-6-5-3-5----|


Gtr 2
|--------------------------------------|
|--------------------------------------|
|-99-9-7-5--------5--------------------|
|-----------9-7-9----------------------|
|-------------------7-6-5--------------|
|-------------------------7-6-5-3-5----|


Chorus
Both Gtrs
play twice
    PM|             PM|         PM  PM|         PM--|     PM|
|--------------------------------------------------------------------|
|-----------------------------------------------------3-3------------|
|-----------------------------------------------------2-2------------|
|---------------------------6-7---------4-3-2---------0-0-----2-2----|
|-2-----6-7-8-9\--2-----6-7-4-5---2-----2-1-0---------0-0-----0-0----|
|-0-0-0-4-5-6-7\--0-0-0-4-5-----0-0-0-0-------3-0-0-0-----0-0--------|


    PM|             PM|         PM  PM|       PM|
|-------------------------------------------------------------------|
|-------------------------------------------------3-----------------|
|-------------------------------------------------2-----------------|
|---------------------------6-7---------4-3-2-----0------0---0------|
|-2-----6-7-8-9\--2-----6-7-4-5---2-----2-1-0-----0--0-2------------|
|-0-0-0-4-5-6-7\--0-0-0-4-5-----0-0-0-0-------3-0----------3---2----|


Both Gtrs
|-------------0------------------------------------2---0h2p0-------|
|-----0-----0------------0---------------------------3-------3-----|
|---0-----0----------5-----5--------0-----0------2-------------2---|
|-2-----4----------7---7-----7----2-----0------0-------------------|
|----------------0--------------0-----2-----3----------------------|
|------------------------------------------------------------------|


|-------------0------------------------------------2---0h2p0-----|
|-----0-----0------------0---------------------------3-------3---|
|---0-----0----------5-----5--------0-----0------2---------------|
|-2-----4----------7---7-----7----2-----0------0-----------------|
|----------------0--------------0-----2-----3--------------------|
|----------------------------------------------------------------|


Verse
Both Gtrs
play twice
    PM|   PM  PM|   PM|   PM  PM|   PM|   PM  PM|   PM|   PM
|--------------------------------------------------------------------|
|--------------------------------------------------------------------|
|---------------------------------------------------------------0----|
|-------5---5---------------------------5---5------------------------|
|-2-----2---2-----4-----1---1-----2-----2---2-----4-----1-----1------|
|-0-0-0-0-0-0-0-0-2-0-0-2-0-2-0-0-0-0-0-0-0-0-0-0-2-0-0-2-0-2--------|


Pre-Chorus
Both Gtrs
    PM|              PM|              PM|             PM|
|---------------------------------------------------------------------|
|---------------------------------------------------------------------|
|-7-----7--7------7-------7--7-------2-----2--2-----0-----0--0--------|
|-7-----7--7------7-------7--7-------2-----2--2-----0-----0--0--------|
|------------0h9-10------10-10------------------0h2-------------------|
|---7-7-----------7--7-7--7--7--0h2----2-2------------0-0------5S7----|

    PM|              PM|              PM|            PM|
|---------------------------------------------------------------------|
|---------------------------------------------------------------------|
|-7-----7--7------7-------7--7-------2-----2--2-----0-----0-----------|
|-7-----7--7------7-------7--7-------2-----2--2-----0-----0-----------|
|------------0h9-10------10-10------------------0h2----------8-7-5----|
|---7-7-----------7--7-7--7--7--0h2----2-2------------0-0----6-5-3----|


Repeat Chorus
Repeat Verse
Repeat Pre Chorus
Repeat Chorus


Both Gtrs
|-------------0------------------------------------2---0h2p0-------|
|-----0-----0------------0---------------------------3-------3-----|
|---0-----0----------5-----5--------0-----0------2-------------2---|
|-2-----4----------7---7-----7----2-----0------0-------------------|
|----------------0--------------0-----2-----3----------------------|
|------------------------------------------------------------------|


|-------------0------------------------------------2---0h2p0-----|
|-----0-----0------------0---------------------------3-------3---|
|---0-----0----------5-----5--------0-----0------2---------------|
|-2-----4----------7---7-----7----2-----0------0-----------------|
|----------------0--------------0-----2-----3--------------------|
|----------------------------------------------------------------|


Both Gtrs
|--------------------------------------------------------------------------------|
|--------------------------------------------------------------------------------|
|-------------------------------------------------------------------7-6----------|
|--------------------------4S3----------------5----------------7--5-5-4----------|
|--2---2--------------4--2-2S1----------------3----------------5--3--------4-4---|
|-\0---0--------------2--0-------------------------------------------------2-2---|


                                (toggle pickups
                                 listen for rhythm)
|--------------------------------------------------------------------------------|
|--------------------------------------------------------------------------------|
|-------------------------------------------------------------------7-6----------|
|--------------------------4S3------------------7-5---5--------7--5-5-4----------|
|--2---2--------------4--2-2S1------------------5-3---3--------5--3--------4-4---|
|-\0---0--------------2--0-------------------------------------------------2-2---|


Both Gtrs
play twice
    PM|             PM|              PM|            PM|
|------------------------------------------------------------------|
|------------------------------------------------------------------|
|-7-----7--7------7------7---7-----2-----2--2-----0-----0--0-------|
|-7-----7--7------7------7---7-----2-----2--2-----0-----0--0-------|
|------------0h9-10-----10--10----------------0h2------------------|
|---7-7-----------7-7-7--7---7-0h2---2-2------------0-0------5S7---|


    PM|             PM|              PM|            PM|
|--------------------------------------------------------------|
|--------------------------------------------------------------|
|-7-----7--7------7------7---7-----2-----2--2-----0-0----------|
|-7-----7--7------7------7---7-----2-----2--2-----0-0---2-2----|
|------------0h9-10-----10--10----------------0h2-2-2---0-0----|
|---7-7-----------7-7-7--7---7-0h2---2-2----------3-3----------|


Gtr 3
|----------------------7h9p7----7------------------------------------------------------|
|-10b12=======*=======-------10---10p7---7h10p7-7--------------------------------------| *tap harmonic on 24th fret
|--------------------------------------9----------10p9p7---9p8p7---7-------7-----------|
|--------------------------------------------------------9-------9---9p7-----9p7---9---|
|------------------------------------------------------------------------9-------9-----|
|--------------------------------------------------------------------------------------|


  PM  PM  PM  PM  PM
|-----------------------------------------------------------------|
|-----------------------------2h=3p2--------2h3-3----14-15-14-15--|
|---7---6---7---9---7-6--------------2-2h4------4----14-16-14-16--|
|-----------------------------------------------------------------|
|-9---9---7---9---9-----------------------------------------------|
|-----------------------------------------------------------------|


|-12h14p12----12----------12h14p12----12----------12h14p12----12----------12h14p12----12-------------|
|----------15----15-14-12----------15----15-14-12----------15----15-14-12----------15----15-14-12----|
|----------------------------------------------------------------------------------------------------|
|----------------------------------------------------------------------------------------------------|
|----------------------------------------------------------------------------------------------------|
|----------------------------------------------------------------------------------------------------|


|-15-14-12-------------12-14-12-15-14-17-15-14----15-14-------14----------------|
|----------15-14-12-15-------------------------17-------17-15----17-15-14-------|
|-------------------------------------------------------------------------16----|
|-------------------------------------------------------------------------------|
|-------------------------------------------------------------------------------|
|-------------------------------------------------------------------------------|


|-----19---17-17b19--------------------------------------17----------14-15-----------------|
|--------0-----------------19----17----15----14----14-15----15-14-----------14h15----------|
|-/16------------------/16----16----14----12----------------------14-----------------------|
|---------------------------------------------------------------------------------[16]\----|
|------------------------------------------------------------------------------------------|
|------------------------------------------------------------------------------------------|


Both Gtrs
play 4 times
    PM|   PM----------------------|
|---------------------------------|
|---------------------------------|
|-3-----3-------------------------|
|-3-----3-----------5-3--3-3------|
|-------------------3-1--1-0------|
|---3-3---3-3-3-3-3---------------|


Gtr 3
|----------------------|
|----------------------|* decrease bar and play artificial harmonic, raising bar
|-0*-------------------|
|----------------------|
|----------------------|
|----------------------|

Both Gtrs
    PM|   PM|   PM|                  PM|   PM|   PM|
|--------------------------------------------------------------------|
|--------------------------------------------------------------------|
|-3-----3-----3--------------------3-----3-----3---------------------|
|-3-----3-----3-----5-3--3---3-----3-----3-----3-----5-3--3---3------|
|-------------------3-1--1p0-0-----------------------3-1--1p0-0------|
|---3-3---3-3---3-3------------1S3---3-3---3-3---3-3------------1S3--|


    PM|   PM|   PM|                  PM|   PM|   PM|
|----------------------------------------------------|
|----------------------------------------------------|
|-3-----3-----3--------------------3-----3-----3-----|
|-3-----3-----3-----5-3--3---3-----3-----3-----3-----|
|-------------------3-1--1p0-0-----------------------|
|---3-3---3-3---3-3------------1S3---3-3---3-3---3---|


  PM-----------------------|
|--------------------------|
|--------------------------|
|--------------------------|
|-------------------9------|
|-------------------7------|
|-3-0-0-3-0-0-3-0-0--------|


Repeat Verse
Repeat Pre Chorus
Repeat Chorus


Both Gtrs
play to fade
|-------------0------------------------------------2---0h2p0-------|
|-----0-----0------------0---------------------------3-------3-----|
|---0-----0----------5-----5--------0-----0------2-------------2---|
|-2-----4----------7---7-----7----2-----0------0-------------------|
|----------------0--------------0-----2-----3----------------------|
|------------------------------------------------------------------|


Gtr 2
joins 3rd time
play to fade
|-------------0--------------------------------------------------0----------|
|-----0-----0--------------0------------0-------0----------10------10-------|
|---0-----0-----------9------9--------9------11---------11----11------11----|
|-5-----7----------10---10-----10--10-----12------14--0---------------------|
|----------------0----------------------------------------------------------|
|---------------------------------------------------------------------------|

Never, Neverland
Tuning - E A D G B E

Both Gtrs
|---------------------------------------------------------|
|--------------------------------------0-------------0----|
|-------0--------------3-------------5-------------5------|
|-----4--------------7-------------2-------------3--------|
|---2--------------5-------------0-------------0----------|
|-0--------------3----------------------------------------|


Gtr 1
|---------------------|
|---------------------|
|---------------------|
|-----5--7--4---------|
|-5h7----------5-3----|
|---------------------|


Gtr 2
|-----------------------|
|-----------------------|
|-----------------------|
|------9--10--7---------|
|-9h10-----------9-7----|
|-----------------------|


Both Gtrs
  PM|    PM|                  PM|    PM|
|----------------------0---------------------------3------|
|------------------------0---------------------------3----|
|-----0------0-------------0------3------3-------------3--|
|-----4------4--------------------7------7----------------|
|-----2------2--------------------5------5----------------|
|-0-0-0--0-0-0----------------3-3-3--3-3-3----------------|


  PM|     PM|                   PM|    PM|
|--------------------------------------------------5--------|
|----------------------------------------------------5------|
|------7-------7-----------7--------5------5-----------5----|
|-----11------11-------------11-----9------9-------------9--|
|------9-------9---------9----------7------7----------------|
|-7-7--7--7-7--7----------------5-5-5--5-5-5----------------|


Both Gtrs
  PM--|     PM    PM--|     PM    PM--|     PM    PM-------------------|     PM
|----------------------------------------------------------------------|
|----------------------------------------------------------------------|
|-------0-----0---------0-----0---------3-----3---------3-----3--------|
|-----4---4-----4-----4---4-----4-----7---7-----7-----7---7-----7------|
|---2-------2-------2-------2-------5-------5-------5-------5----------|
|-0---------------0---------------3---------------3--------------------|


  PM--|       PM     PM--|       PM     PM--|     PM    PM--|   PM-----------------|
|----------------------------------------------------------------------------------|
|----------------------------------------------------------------------------------|
|--------7------7-----------7------7----------5-----5---------5--------------------|
|-----11---11-----11-----11---11-----11-----9---9-----9-----9----------------------|
|---9---------9--------9---------9--------7-------7-------7------------------------|
|-7------------------7------------------5---------------5-------\-\-\-\-\-\-\-\----|


Gtr 3
|----------------------------|
|----------------------------|
|-<5>\--------------/<12>----|
|-<5>\--------------/<12>----|
|----------------------------|
|----------------------------|


|-------------------------------------------|
|---------<7>-------------------------------|
|---------<7>-------------------<5>-/<5>----|
|-----<5>-------------------<5>-------------|
|-<5>---------------------------------------|
|-------------------------------------------|

|------------------|
|--12tr15\---------|
|------------------|
|------------------|
|------------------|
|------------------|


|-------------------------|
|-------------------16----|
|-0\----------------17----|
|-------------------------|
|-------------------------|
|-------------------------|


|-----------7----------------------------------------------------------------------|
|-10b12-------10p7------7-10----------------------10-8--------------7-8-8-7-8-8-7--|
|------------------9b11------9b11--9b11r=9p7-9-------7-9-7----------7-9-9-7-9-9-7--|
|----------------------------------------------------------9-8-7-------------------|
|----------------------------------------------------------------10----------------|
|----------------------------------------------------------------------------------|


|------|
|------|
|------|
|------|
|------|
|-0\---|


|-----------------------|
|----------------<5>\---|
|-<5>\--\--\--\---------|
|-----------------------|
|-----------------------|
|-----------------------|


Both Gtrs
play 3 times
  PM-----------------------------|      PM---------------------------------|
|--------------------------------------------------------------------------|
|--------------------------------------------------------------------------|
|--------------------------------------------------------------------------|
|----------------------------------------------------------------2---------|
|----------------------------------------------------------------0--4------|
|-0--<3>-0-0-0-<3>-0-0-0-<3>-0-0-0-<3>--0--<3>-0-0-0-<3>-0-3-0-3----2------|


  PM-----------------------------|      PM---------------------------------|
|--------------------------------------------------------------------------|
|--------------------------------------------------------------------------|
|--------------------------------------------------------------------------|
|----------------------------------------------------------------2--5------|
|----------------------------------------------------------------0--3------|
|-0--<3>-0-0-0-<3>-0-0-0-<3>-0-0-0-<3>--0--<3>-0-0-0-<3>-0-3-0-3-----------|


Gtr 3
play twice
      PM|     PM|                      PM       PM      PM
|----------------------------------------------------------------|
|----------------------------------12----12S10----10S8----8S7----|
|-7h9-9-9-7h9-9-9-7h9-9-[9]--------------------12------11--------|
|----------------------------12h14----14-------------------------|
|----------------------------------------------------------------|
|----------------------------------------------------------------|


      PM|     PM|
|----------------------------------12-------14-------15-----------------|
|-----------------------------------------------------------------------|
|-7h9-9-9-7h9-9-9-7h9-9-9----11S12----12S14----14S16----16\---11--12----|
|-----------------------------------------------------------------------|
|-----------------------------------------------------------------------|
|-----------------------------------------------------------------------|


Gtr 4
play twice
         PM|         PM|                           PM       PM       PM
|-------------------------------------------------------------------------------|
|----------------------------------------------15----15S13----13S12----12S10----|
|-11h12-12-12-11h12-12-12-11h12-12-[12]--------------------14-------12----------|
|----------------------------------------16h17----17----------------------------|
|-------------------------------------------------------------------------------|
|-------------------------------------------------------------------------------|


         PM|         PM|
|----------------------------------------|
|----------------------------------------|
|-11h12-12-12-11h12-12-12-11h12-12-[12]--|
|----------------------------------------|
|----------------------------------------|
|----------------------------------------|


Gtr 1
play 4 times
|---0-----------------0---------3----|
|-----6-------6-----6---6-----3------|
|-------5---5-----5---------3--------|
|-0-------8-----7---------5----------|
|------------------------------------|
|------------------------------------|


Gtr 3
play twice
|----------------------------------------------------------|
|-6-5h6p5-------5-/8--6--5---------6-5h6p5-------5-/8--6---|
|---------7-5h7----------------------------7-5h7-----------|
|---------------------------7------------------------------|
|----------------------------------------------------------|
|----------------------------------------------------------|


Gtr 4
join 2nd time
|-----------------------------------------------------------------------|
|-10-8h10p8---------/8-11--10--8----------10-8h10p8---------8-/11--10---|
|-----------10-9h10---------------------------------10-9h10-------------|
|---------------------------------10------------------------------------|
|-----------------------------------------------------------------------|
|-----------------------------------------------------------------------|


Verse
Gtr 1
play 4 times
|---0-----0---------0-----0----------|
|-----3-----3---3-----3-----3---3----|
|-------2-----2---------2-----2------|
|-0---------------5------------------|
|------------------------------------|
|------------------------------------|


Gtr 2
play 4 times
|---0-----0---------0-----0----------|
|-----6-----6---6-----6-----6---6----|
|-------5-----5---------5-----5------|
|-0---------------8------------------|
|------------------------------------|
|------------------------------------|


Both Gtrs
|---3-----3---------5--------5------|
|-----3-----3---3-----5----5---5----|
|-------3-----3---------5-----------|
|-5---------------7-----------------|
|-----------------------------------|
|-----------------------------------|


Gtr 1
|---0-----0---------0-----0----------|
|-----3-----3---3-----3-----3---3----|
|-------2-----2---------2-----2------|
|-0---------------5------------------|
|------------------------------------|
|------------------------------------|


|---3-----3---------5--------5------|
|-----3-----3---3-----5----5---5----|
|-------3-----3---------5-----------|
|-5---------------7-----------------|
|-----------------------------------|
|-----------------------------------|


Gtr 2
|---0-----0---------0-----0----------|
|-----6-----6---6-----6-----6---6----|
|-------5-----5---------5-----5------|
|-0---------------8------------------|
|------------------------------------|
|------------------------------------|


|---6-----6----------8--------8------|
|-----6-----6---6------8----8---8----|
|-------7-----7----------9-----------|
|-8---------------10-----------------|
|------------------------------------|
|------------------------------------|


Gtr 1
play twice
|---0-----0---------0-----0----------|
|-----3-----3---3-----3-----3--------|
|-------2-----2---------2-----2h3----|
|-0---------------5------------------|
|------------------------------------|
|------------------------------------|


Gtr 2
play twice
|---0-----0---------0-----0----------|
|-----6-----6---6-----6-----6--------|
|-------5-----5---------5------------|
|-0---------------8-----------7h8----|
|------------------------------------|
|------------------------------------|


Both Gtrs
play 4 times
|---------------------------------------------------------0----------|
|-------------------------0---0---------0-------0-------0---0--------|
|-----6-------6-------6-----6---6-----6-------6-------6-------6------|
|---0---0---0---0---0---0-----------0-------0-------0-----------0----|
|-4-------4-------4---------------2-------2-------2------------------|
|--------------------------------------------------------------------|


Gtr 3
play twice
|----------------------------7-9-----------7-9-10--9b10----7h9h10p9-----9b10b9p=7--|
|-10b12--10b12---------10b12-----10-7-9-10-----------------------------------------|
|----------------------------------------------------------------------------------|
|----------------------------------------------------------------------------------|
|----------------------------------------------------------------------------------|
|----------------------------------------------------------------------------------|


Gtr 3
|-9----|
|------|
|------|
|------|
|------|
|------|


Both Gtrs
|------|
|------|
|-6----|
|-0----|
|-4----|
|------|


Both Gtrs
play 3 times
       PM-------------|      PM-------------|      PM-----------------------------|
|---------------------------------------------------------------------------------|
|---------------------------------------------------------------------------------|
|---------------------------------------------------------------------------------|
|-------------------------------------------------------------------8-8-----------|
|-8S7-------------------5S3-------------------8S7-------------------6-6--8-8------|
|-6S5--0-0-0-0--0-0-0-0-3S1--0-0-0-0--0-0-0-0-6S5--0-0-0-0--0-0-0-0------6-6------|


       PM-------------|      PM-------------|      PM-------------------------------|
|-----------------------------------------------------------------------------------|
|-----------------------------------------------------------------------------------|
|-----------------------------------------------------------------------------------|
|-------------------------------------------------------------------8-8--10-10------|
|-8S7-------------------5S3-------------------8S7-------------------6-6---8--8------|
|-6S5--0-0-0-0--0-0-0-0-3S1--0-0-0-0--0-0-0-0-6S5--0-0-0-0--0-0-0-0-----------------|


Gtr 1, Gtr 2 joins in
  PM|   PM|   PM|   PM|   PM|     PM|   PM|   PM|
|--------------------------------------------------------------------|
|--------------------------------------------------------------------|
|--------------------------------------------------------------------|
|--------------------------------------------------------------------|
|-----5-----5-----5-----5-----8S7-----5-----5-------5-4-0-3-2---1----|
|-0-0-3-0-0-3-0-0-3-0-0-3-0-0-6S5-0-0-3-0-0-3-0-0-3-----------3------|


Both Gtrs
  PM|   PM|   PM|   PM|   PM|     PM|   PM|   PM|
|--------------------------------------------------------------------|
|--------------------------------------------------------------------|
|--------------------------------------------------------------------|
|--------------------------------------------------------------------|
|-----5-----5-----5-----5-----8S7-----5-----5-------5-4-0-3-2---1----|
|-0-0-3-0-0-3-0-0-3-0-0-3-0-0-6S5-0-0-3-0-0-3-0-0-3-----------3------|


  PM|   PM|   PM|   PM-|    PM|     PM|   PM|   PM----------------------|
|-----------------------------------------------------------------------|
|-----------------------------------------------------------------------|
|-----------------------------------------------------------------------|
|-----------------------------------------------------------------------|
|-----5-----5-----5-------5-----8S7-----5-----5-------5-4-0-3-2---1-----|
|-0-0-3-0-0-3-0-0-3-00-0--3-0-0-6S5-0-0-3-0-0-3-0-0-3-----------3-------|


  PM|   PM|   PM|   PM|   PM|     PM|   PM|   PM|   PM|   PM|
|--------------------------------------------------------------------|
|--------------------------------------------------------------------|
|--------------------------------------------------------------------|
|--------------------------------------------------------------------|
|-----5-----5-----5-----5-----8S7-----5-----5-----5-----5-----8S7----|
|-0-0-3-0-0-3-0-0-3-0-0-3-0-0-6S5-0-0-3-0-0-3-0-0-3-0-0-3-0-0-6S5----|


  PM|   PM|   PM|   PM--|   PM|         PM      PM
|--------------------------------------------------------|
|--------------------------------------------------------|
|--------------------------------------------------------|
|-------------------------------------------------3-3----|
|-----5-----5-----5-------5-----8S7-5p4-0-[3]p2---1-1----|
|-0-0-3-0-0-3-0-0-3-00-0--3-0-0-6S5-------------3--------|


Both Gtrs
  PM-----------------|
|--------------------|
|--------------------|
|--------------------|
|--------------------|
|--------------------|
|-\-\-\-\-\-\-\-\----|


Both Gtrs
play twice
  PM------------------------------------------------------------|
|---------------------------------------------------------------|
|---------------------------------------------------------------|
|----------------------------------------------------2----------|
|----------------------------------------------------2----------|
|----------------------------------------------------0---4------|
|-0--3-0-0-0-3-0-0-0-3-0-0-0-3--0--3-0-0-0-3-0-3-0-3-----2------|


  PM------------------------------------------------------------|
|---------------------------------------------------------------|
|---------------------------------------------------------------|
|----------------------------------------------------2----------|
|----------------------------------------------------2---5------|
|----------------------------------------------------0---3------|
|-0--3-0-0-0-3-0-0-0-3-0-0-0-3--0--3-0-0-0-3-0-3-0-3------------|


Gtr 3
play twice
      PM|     PM|                      PM       PM      PM
|----------------------------------------------------------------|
|----------------------------------12----12S10----10S8----8S7----|
|-7h9-9-9-7h9-9-9-7h9-9-[9]--------------------12------11--------|
|----------------------------12h14----14-------------------------|
|----------------------------------------------------------------|
|----------------------------------------------------------------|


      PM|     PM|
|----------------------------------12-------14-------15-----------------|
|-----------------------------------------------------------------------|
|-7h9-9-9-7h9-9-9-7h9-9-9----11S12----12S14----14S16----16\---11--12----|
|-----------------------------------------------------------------------|
|-----------------------------------------------------------------------|
|-----------------------------------------------------------------------|


Gtr 4
play twice
         PM|         PM|                           PM       PM       PM
|-------------------------------------------------------------------------------|
|----------------------------------------------15----15S13----13S12----12S10----|
|-11h12-12-12-11h12-12-12-11h12-12-[12]--------------------14-------12----------|
|----------------------------------------16h17----17----------------------------|
|-------------------------------------------------------------------------------|
|-------------------------------------------------------------------------------|


         PM|         PM|
|----------------------------------------|
|----------------------------------------|
|-11h12-12-12-11h12-12-12-11h12-12-[12]--|
|----------------------------------------|
|----------------------------------------|
|----------------------------------------|


Both Gtrs
  PM--|   PM|   PM----|   PM|   PM---------------------|
|------------------------------------------------------|
|------------------------------------------------------|
|-------0-----0---------0-----0---------3-----3--------|
|-----4---4-----4-----4---4-----4-----7---7------------|
|---2-------2-------2-------2-------5-------5---5------|
|-0---------------0---------------3-------------3------|


  PM--|     PM|    PM----|     PM|    PM----|     PM---------|
|------------------------------------------------------------|
|------------------------------------------------------------|
|--------7------7-----------7------7----------5-----5--------|
|-----11---11-----11-----11---11-----11-----9---9-----2------|
|---9---------9--------9---------9--------7-------7---0------|
|-7------------------7------------------5--------------------|


Gtr 3
|-------------------------------------------------------13b15----|
|-7h8p7--------------8p7---7h8-8---10h11p10----------------------|
|-------7---7-7-7h9------7-7h9-9------------10----10-10----------|
|---------9------------------------------------12----------------|
|----------------------------------------------------------------|
|----------------------------------------------------------------|


|-------------------------------------------------------|
|-2h3p2--------------3p2---2h3-3---0h1p0----------------|
|-------2---2-2-2h4------2-2h4-4---------0---0-0-0h2----|
|---------4--------------------------------2------------|
|-------------------------------------------------------|
|-------------------------------------------------------|


Gtr 1
play twice
|---0-----------------0---------3----|
|-----6-------6-----6---6-----3------|
|-------5---5-----5---------3--------|
|-0-------8-----7---------5----------|
|------------------------------------|
|------------------------------------|


Repeat Verse


Gtr 1
|---0-----0---------0-----0----------|
|-----6-----6---6-----6-----6---6----|
|-------5-----5---------5-----5------|
|-0---------------8------------------|
|------------------------------------|
|------------------------------------|


|---0-----0---------0-----0----------|
|-----6-----6---6-----6-----6--------|
|-------5-----5---------5-----5------|
|-0---------------8------------------|
|------------------------------------|
|------------------------------------|


Both Gtrs
|---------------------------------------------------------0----------|
|-------------------------0---0---------0-------0-------0---0--------|
|-----6-------6-------6-----6---6-----6-------6-------6-------6------|
|---0---0---0---0---0---0-----------0-------0-------0-----------0----|
|-4-------4-------4---------------2-------2-------2------------------|
|--------------------------------------------------------------------|


|---------------------------------------------------------0----------|
|-------------------------0---0---------0-------0-------0---0--------|
|-----6-------6-------6-----6---6-----6-------6-------6-------6------|
|---0---0---0---0---0---0-----------0-------0-------0----------------|
|-4-------4-------4---------------2-------2-------2-------------4----|
|--------------------------------------------------------------------|


play twice
|---------------------------------------------------------0----------|
|-------------------------0---0-------------------------0---0--------|
|-----6-------6-------6-----6---------6-------6-------6-------0------|
|---0-------0-------0---0-----------0-------0-------0----------------|
|-4-----4-4-----4-4-------------2-2-----2-2-----2-2-------------4----|
|--------------------------------------------------------------------|


play to fade
|---------------------------------------------------------0----------|
|-------------------------0---0---------0-------0-------0---0--------|
|-----6-------6-------6-----6---6-----6-------6-------6-------6------|
|---0---0---0---0---0---0-----------0-------0-------0-----------0----|
|-4-------4-------4---------------2-------2-------2------------------|
|--------------------------------------------------------------------|


Imperiled Eyes
Tuning - E A D G B E

Gtr 1, Gtr 2 accentuates
              PM----|                    PM  PM|
|---------------------------------------------------------|
|---------------------------------------------------------|
|---------------------------------------------------------|
|---------------------------------------------------------|
|-7-5-7-8-7-5----------5-3-5-6-5-3------------------------|
|-------------0--0--0--------------0--\--0-6-0-0-3S6-4----|


Gtr 1
  PM--|
|------------------------|
|------------------------|
|-------------------7----|
|-------------6-8-9------|
|-------5-7-8------------|
|-4-6-7------------------|


Gtr 2
  PM--|
|------------------------------|
|------------------------------|
|------------------------10----|
|----------------9-11-12-------|
|--------8-10-11---------------|
|-7-9-10-----------------------|


Gtr 1, Gtr 2 accentuates
              PM----|                    PM  PM|
|---------------------------------------------------------|
|---------------------------------------------------------|
|---------------------------------------------------------|
|---------------------------------------------------------|
|-7-5-7-8-7-5----------5-3-5-6-5-3------------------------|
|-------------0--0--0--------------0--\--0-6-0-0-3S6-4----|


Gtr 1
  PM--|
|------------------------|
|------------------------|
|-------------------7----|
|-------------6-8-9------|
|-------5-7-8------------|
|-4-6-7------------------|


Gtr 2
  PM--|
|------------------------------|
|------------------------------|
|------------------------10----|
|----------------9-11-12-------|
|--------8-10-11---------------|
|-7-9-10-----------------------|


Gtr 1, Gtr 2 accentuates
              PM----|                    PM  PM|
|---------------------------------------------------------|
|---------------------------------------------------------|
|---------------------------------------------------------|
|---------------------------------------------------------|
|-7-5-7-8-7-5----------5-3-5-6-5-3------------------------|
|-------------0--0--0--------------0--\--0-6-0-0-3S6-4----|


Gtr 1
  PM--|
|---------------------------------------------------------|
|---------------------------------------------------------|
|-------------------7-----------7----------10-10-10-10----|
|-------------6-8-9-------6-8-9----9-11-12----------------|
|-------5-7-8---------------------------------------------|
|-4-6-7---------------------------------------------------|


Gtr 2
  PM--|
|-------------------------------------------------------------------|
|-------------------------------------------------------------------|
|------------------------10-------------10-----------13-13-13-13----|
|----------------9-11-12--------9-11-12-----12-14-15----------------|
|--------8-10-11----------------------------------------------------|
|-7-9-10------------------------------------------------------------|


Both Gtrs
              PM--------|             PM-----------------------------------|
|--------------------------------------------------------------------------|
|--------------------------------------------------------------------------|
|--------------------------------------------------------------------------|
|-------------------------------------------------------------------8------|
|-7-5-7-8-7-5-------------5-3-5-6-5-3-------------7-5-7-8-7-6-7-6-5-6------|
|-------------0-0-0-0-0-0-------------0-0-0-0-0-0--------------------------|


|------------------------|
|------------------------|
|------------------------|
|-------------------4----|
|-5-4-3-4-3-2-3-2-1-2----|
|------------------------|


              PM--------|             PM---------------------------------|
|------------------------------------------------------------------------|
|------------------------------------------------------------------------|
|------------------------------------------------------------------------|
|-------------------------------------------------------------------8----|
|-7-5-7-8-7-5-------------5-3-5-6-5-3-------------7-5-7-8-7-6-7-6-5-6----|
|-------------0-0-0-0-0-0-------------0-0-0-0-0-0------------------------|


Both Gtrs
|----------------|
|-------4--------|
|-----3---3------|
|---6-------6----|
|-3--------------|
|----------------|


Both Gtrs
              PM--------|             PM---------------------------------|
|------------------------------------------------------------------------|
|------------------------------------------------------------------------|
|------------------------------------------------------------------------|
|-------------------------------------------------------------------8----|
|-7-5-7-8-7-5-------------5-3-5-6-5-3-------------7-5-7-8-7-6-7-6-5-6----|
|-------------0-0-0-0-0-0-------------0-0-0-0-0-0------------------------|


Both Gtrs
|------------------|
|-------4----------|
|-----3---4--------|
|---6-------6------|
|-3-----------3----|
|------------------|


Both Gtrs
        PM|   PM       PM|            PM|   PM       PM----------------|
|----------------------------------------------------------------------|
|----------------------------------------------------------------------|
|----------------------------------------------------------------------|
|-----------2---3------------4-3----------2---3------------------------|
|--2--5-----0---1-2--5-----3-2-1-2--5-----0---1-2--5-----4-3-0---------|
|-\0--3-0-0---0---0--3-0-0-1-----0--3-0-0---0---0--3-0-0-------4-3-0---|


      PM|   PM       PM|            PM|   PM
|--------------------------------------------------|
|--------------------------------------------------|
|--------------------------------------------------|
|---------2---3------------4-3----------2---3------|
|-2-5-----0---1-2--5-----3-2-1-2--5-----0---1-2----|
|-0-3-0-0---0---0--3-0-0-1-----0--3-0-0---0---0----|


Gtr 1
   PM------------------------------------------------|         PM|         PM|         PM----------|
|--------------------------------------------------------------------------------------------------|
|-------------------------------------------------------17-17-------16-16-------15-15-------14-14--|
|-------------------------------------------17-17-15-15-------14-14-------13-13-------12-12--------|
|-------------------15-15-------17-17-15-15--------------------------------------------------------|
|-------14-14-13-13-------15-15--------------------------------------------------------------------|
|-12-12--------------------------------------------------------------------------------------------|


   PM|         PM|         PM|         PM|         PM|         PM|
|-------------------------------------------------------------------------------|
|-------------------------------------------------------------------------------|
|-------17-17-------16-16-------15-15-------------------------------------------|
|-15-15-------14-14-------13-13-------------17-17-------16-16-------15-15-13----|
|-------------------------------------15-15-------14-14-------13-13-------11----|
|-------------------------------------------------------------------------------|


Gtr 2
   PM------------------------------------------------|         PM|         PM|         PM----------|
|--------------------------------------------------------------------------------------------------|
|-------------------------------------------------------20-20-------19-19-------18-18-------17-17--|
|-------------------------------------------20-20-18-18-------17-17-------16-16-------15-15--------|
|-------------------18-18-------20-20-18-18--------------------------------------------------------|
|-------17-17-16-16-------18-18--------------------------------------------------------------------|
|-15-15--------------------------------------------------------------------------------------------|


   PM|         PM|         PM|         PM|         PM|         PM|
|-------------------------------------------------------------------------------|
|-------------------------------------------------------------------------------|
|-------20-20-------19-19-------18-18-------------------------------------------|
|-18-18-------17-17-------16-16-------------20-20-------19-19-------18-18-13----|
|-------------------------------------18-18-------17-17-------16-16-------11----|
|-------------------------------------------------------------------------------|


Verse
Both Gtrs
       PM|   PM       PM|            PM|   PM       PM----------------|
|---------------------------------------------------------------------|
|---------------------------------------------------------------------|
|---------------------------------------------------------------------|
|----------2---3------------4-3----------2---3------------------------|
|-2--5-----0---1-2--5-----3-2-1-2--5-----0---1-2--5-----4-3-0---------|
|-0--3-0-0---0---0--3-0-0-1-----0--3-0-0---0---0--3-0-0-------4-3-0---|


      PM|   PM       PM|            PM|   PM       PM----|
|-----------------------------------------------------------------|
|-----------------------------------------------------------------|
|-----------------------------------------------------------------|
|---------2---3------------4-3----------2---3--------------3------|
|-2-5-----0---1-2--5-----3-2-1-2--5-----0---1-2--5---3-3---1-2----|
|-0-3-0-0---0---0--3-0-0-1-----0--3-0-0---0---0--3-0-1-1-0---0----|


      PM|   PM       PM|            PM|   PM       PM-------------------|
|-----------------------------------------------------------------------|
|-----------------------------------------------------------------------|
|-----------------------------------------------------------------------|
|---------2---3------------4-3----------2---3---------------------------|
|-2-5-----0---1-2--5-----3-2-1-2--5-----0---1-2--5-----4-3-0------------|
|-0-3-0-0---0---0--3-0-0-1-----0--3-0-0---0---0--3-0-0-------4-3-0------|


      PM|   PM       PM|            PM|   PM       PM----|
|---------------------------------------------------------------|
|---------------------------------------------------------------|
|---------------------------------------------------------------|
|---------2---3------------4-3----------2---3--------------3----|
|-2-5-----0---1-2--5-----3-2-1-2--5-----0---1-2--5---3-3---1----|
|-0-3-0-0---0---0--3-0-0-1-----0--3-0-0---0---0--3-0-1-1-0------|


Gtr 1
riff 1
|---------------------------------------------------------------------|
|---------------------------------------------------------------------|
|-------------------------------2tr3-------------2tr3-----------------|
|-2--5--9-9-9-9-------------------------------------------------------|
|-0--3--7-7-7-7--5-5-5-7--8--7----------8--7--5----------8--7--5--3---|
|----------------3-3-3-5--6--5----------6--5--3----------6--5--3--1---|


|--7-10-9-----|
|-------------|
|-------------|
|-------------|
|-------------|
|----------\--|


Gtr 2
|-------------------------------------------------------------------------|
|-------------------------------------------------------------------------|
|-----------------------------------5tr7-------------5tr7-----------------|
|-2--5--12-12-12-12-------------------------------------------------------|
|-0--3--10-10-10-10--5-5-5-7--8--7----------8--7--5----------8--7--5--3---|
|--------------------3-3-3-5--6--5----------6--5--3----------6--5--3--1---|


|-10-14-12----|
|-------------|
|-------------|
|-------------|
|-------------|
|-----------\-|


Both Gtrs
Pre Chorus
play twice
                           PM----|
|-------------------------------------|
|-------------------------------------|
|-------------------------------------|
|---4--------4-5---4------------------|
|-4-2------4-2-3-4-2-------0-0-0-0----|
|-2--------2-----2--------------------|


|--------------------------------|
|--------------------------------|
|--------------------------------|
|---4--------4-5---4-------------|
|-4-2------4-2-3-4-2----7---7----|
|-2--------2-----2------5---4----|


Chorus
Both Gtrs
play twice
  PM--------------------|       PM---------------------------------|
|------------------------------------------------------------------|
|------------------------------------------------------------------|
|------------------------------------------------------------------|
|-------------------------5--2-------------------------------------|
|-------------------------3--0--------------------------2-2-2------|
|-5-2-2-5-2-2-5-2-2-5-2-2-------5-2-2-5-2-2-5-2-2-5-2-2------------|


  PM--------------------|       PM------------------------|
|---------------------------------------------------------|
|---------------------------------------------------------|
|---------------------------------------------------------|
|-------------------------5--2----------------------------|
|-------------------------3--0------------------5--6------|
|-5-2-2-5-2-2-5-2-2-5-2-2-------5-2-2-5-2-2-5-2-3--4------|


Gtr 1
|-------0---------------------------|
|-----0------------------------0----|
|---5------------------------5------|
|-4------------------------4--------|
|------------------------6----------|
|-----------------------------------|


Gtr 2
|-------0---------------------------|
|-----0------------------------0----|
|---8------------------------8------|
|-7------------------------7--------|
|------------------------9----------|
|-----------------------------------|


Gtr 1
|-------0-----------2-----------3-----------2--------|
|-----0---0-------0---0-------0---0-------0---0------|
|---5-------5---5-------5---5-------5---5-------5----|
|-4-----------4-----------4-----------4--------------|
|----------------------------------------------------|
|----------------------------------------------------|


Gtr 2
|-------3-----------5-----------7-----------5--------|
|-----0---0-------0---0-------0---0-------0---0------|
|---8-------8---8-------8---8-------8---8-------8----|
|-7-----------7-----------7-----------7--------------|
|----------------------------------------------------|
|----------------------------------------------------|


Gtr 1
|--------------------------------------------|
|--------------------------------------------|
|--------------------------------------------|
|-4--------------------------5-5-5------4----|
|-3----------------2-4p2-4-4-3-3-3----3------|
|-2----------------0-2p0-2-2--------2--------|

Gtr 2
|--------------------------------------------|
|--------------------------------------------|
|--------------------------------------------|
|-----4----------------------5-5-5------4----|
|---3--------------2-4p2-4-4-3-3-3----3------|
|-2----------------0-2p0-2-2--------2--------|


Both Gtrs
|-------------------------------------------|
|-------------------------------------------|
|-------6-----------------------------------|
|----5--4--5-------2--4--4S5-4---------4----|
|-4--3-----3-------0--2--2S3-2---0---3------|
|-2--------------------------------2--------|


Gtr 1
Clean
|-------------------------|
|-------------------------|
|-------------------------|
|-----4----------------4--|
|---3----------------3----|
|-2----------------2------|

Gtr 2
Clean
|-------------------------|
|-------------------------|
|-------------------------|
|-----4----------------7--|
|---3----------------6----|
|-2----------------5------|

Bass solo

Gtr 1
|-------0-----------2-----------3-----------2---|
|-----0---0-------0---0-------0---0-------0-----|
|---5-------5---5-------5---5-------5---5-------|
|-4-----------4-----------4-----------4---------|
|-----------------------------------------------|
|-----------------------------------------------|


Gtr 2
|-------3-----------5-----------7-----------5---|
|-----0---0-------0---0-------0---0-------0-----|
|---8-------8---8-------8---8-------8---8-------|
|-7-----------7-----------7-----------7---------|
|-----------------------------------------------|
|-----------------------------------------------|


Gtr 1
|----------|
|----------|
|-[11]\----|
|----------|
|----------|
|----------|

Gtr 2
|----------|
|----------|
|-[14]\----|
|----------|
|----------|
|----------|


Both Gtrs
|-------------------------------------------|
|-------------------------------------------|
|-------6-----------------------------------|
|----5--4--5-------2--4--4S5-4---------4----|
|-4--3-----3-------0--2--2S3-2---0---3------|
|-2--------------------------------2--------|


|---------|
|---------|
|---------|
|---------|
|-8--7----|
|-6--5----|


Gtr 3
|---------|
|---------|
|---------|
|---------|
|---------|
|-0\n-----|


Both Gtrs
  PM|            PM-------------------------------------|
|-------------------------------------------------------|
|-------------------------------------------------------|
|-------------------------------------------------------|
|-----7------------------------5-------------8---8------|
|-----5---7--8-----------------3---5---8-8-8-6---6------|
|-0-0-----5--6-6-5-3-6-5-3-0-0-----3---6-6-6------------|


  PM|          PM---------------------------------------------|
|-------------------------------------------------------------|
|-------------------------------------------------------------|
|-------------------------------------------------------------|
|-----7--------------------------------------------8---8------|
|-----5---7--8-------------------------------------6---6------|
|-0-0-----5--6-6-5-3-6-5-3-\-\-\-\-\-\-\-\-\-\-\--------------|


Gtr 1
  PM|          PM-------------------------------------------------|
|-----------------------------------------------------------------|
|-----------------------------------------------------------------|
|-----------------------------------------------------------------|
|-----7-------------------------------------------------8---8-----|
|-----5---7--8-------------3-3-3-3-3-3-6-6-6-6-6-6-5--5-6---6-----|
|-0-0-----5--6-6-5-3-6-5-3----------------------------------------|


Gtr 2
  PM|          PM-------------------------------------------------------|
|-----------------------------------------------------------------------|
|-----------------------------------------------------------------------|
|-----------------------------------------------------------------------|
|-----7-------------------------------------------------------8---8-----|
|-----5---7--8-------------6-6-6-6-6-6-10-10-10-10-10-10-8--8-6---6-----|
|-0-0-----5--6-6-5-3-6-5-3----------------------------------------------|


Both Gtrs
  PM|          PM------------------------------------------------|
|----------------------------------------------------------------|
|----------------------------------------------------------------|
|----------------------------------------------------------------|
|-----7------------------------------------------8--8--8--8------|
|-----5---7--8-----------------------------------6--6--6--6------|
|-0-0-----5--6-6-5-3-6-5-3-\-\-\-\-\-\-\-\-\-\-\-----------------|


Repeat Verse


Gtr 1
|-------------------------------------------------------------------------|
|-------------------------------------------------------------------------|
|-----------------------------------5tr7-------------5tr7-----------------|
|-2--5--12-12-12-12-------------------------------------------------------|
|-0--3--10-10-10-10--5-5-5-7--8--7----------8--7--5----------8--7--5--3---|
|--------------------3-3-3-5--6--5----------6--5--3----------6--5--3--1---|


|-10-14-12----|
|-------------|
|-------------|
|-------------|
|-------------|
|-----------\-|


Gtr 2
|---------------------------------------------------------------------|
|---------------------------------------------------------------------|
|-------------------------------2tr3-------------2tr3-----------------|
|-2--5--9-9-9-9-------------------------------------------------------|
|-0--3--7-7-7-7--5-5-5-7--8--7----------8--7--5----------8--7--5--3---|
|----------------3-3-3-5--6--5----------6--5--3----------6--5--3--1---|


|--7-10-9-----|
|-------------|
|-------------|
|-------------|
|-------------|
|----------\--|


Repeat Pre Chorus
Repeat Chorus


Gtr 1
|-8----10----12----10-------|
|---10----12----13----12----|
|---------------------------|
|---------------------------|
|---------------------------|
|---------------------------|


Gtr 1
play 3 times
|-8----10----12----10----8----10----12----14-------|
|---10----12----13----12---10----12----13----16----|
|--------------------------------------------------|
|--------------------------------------------------|
|--------------------------------------------------|
|--------------------------------------------------|


4th time
|-8----10----12----10----8----10----12----14\------|
|---10----12----13----12---10----12----13----------|
|--------------------------------------------------|
|--------------------------------------------------|
|--------------------------------------------------|
|--------------------------------------------------|


Gtr 2
play 3 times
|-12----14----15----14----12----14----15----17-------|
|----13----15----17----15----13----15----17----19----|
|----------------------------------------------------|
|----------------------------------------------------|
|----------------------------------------------------|
|----------------------------------------------------|


4th time
|-12----14----15----14----12----14----15----17\------|
|----13----15----17----15----13----15----17----------|
|----------------------------------------------------|
|----------------------------------------------------|
|----------------------------------------------------|
|----------------------------------------------------|


Both Gtrs
|--------------------------------------------------------------|
|---------2-3-----------------------------2-3------------------|
|-----4-------4-2-4---2---------------4-------4-2-4----/16\----|
|-------4-----------5---4-5-2-4---------4----------------------|
|-2-5---------------------------5-2-5--------------------------|
|--------------------------------------------------------------|


|--------------------------------------------------------------------|
|---------2-3-----------------------------2-3------------------------|
|-----4-------4-2-4---2---------------4-------4-2-4---2--------------|
|-------4-----------5---4-5-2-4---------4-----------5---4-5-2-4------|
|-2-5---------------------------5-2-5---------------------------5----|
|--------------------------------------------------------------------|


|--------------------------------------------------------------------|
|---------5-6-----------------------------5-6------------------------|
|-----7-------7-5-7---5---------------7-------7-5-7---5--------------|
|-------7-----------8---7-8-5-7---------7-----------8---7-8-5-7------|
|-5-8---------------------------8-5-8---------------------------8----|
|--------------------------------------------------------------------|


|------------------------------------------------------------------------------------------|
|------------9-10---------------------------------------9-10-------------------------------|
|------11---------11-9-11----9--------------------11---------11-9-11----9------------------|
|---------11--------------12---11-12-9-11------------11--------------12---11-12-9-11-------|
|-9-12------------------------------------12-9-12------------------------------------12----|
|------------------------------------------------------------------------------------------|


Gtr 1
|-----7-12p7-10p7-----10p7----7-------------------------------------|
|---8-------------8-7------10---10-8-7---8p7---7S5-----5S3----------|
|-9------------------------------------9-----9-----7p5-----5p4------|
|--------------------------------------------------------------2----|
|--------------------------------------------------------------0----|
|-------------------------------------------------------------------|


Gtr 2
|-------10-15p10-13p10-------13p10----10---------------------------------------------|
|----11----------------11-10-------13----13-11-10----11p10----10S8------8S6----------|
|-12----------------------------------------------12-------12------10p8-----8p7------|
|-------------------------------------------------------------------------------2----|
|-------------------------------------------------------------------------------0----|
|------------------------------------------------------------------------------------|


Both Gtrs
                                 PM-------------------|
|-----------------------------------------------------|
|-----------------------------------------------------|
|-----------------------------------------------------|
|------------7---7\-----2---2-------------------------|
|-9---9\-----5---5\-----0---0-------------------------|
|-7---7\-------------------------0-0-0-0-0-0-0-0------|

         PM|          PM|
|----------------------------------------------------|
|----------------------------------------------------|
|----------------------------------------------------|
|------------7----7\-----2---2-------9-9-9-9-9-------|
|-9---9\-----5----5\-----0---0-------7-7-7-7-7--7----|
|-7---7\----------------------------------------5----|


                                 PM-------------------|
|-----------------------------------------------------|
|-----------------------------------------------------|
|-----------------------------------------------------|
|------------7---7\-----2---2-------------------------|
|-9---9\-----5---5\-----0---0-------------------------|
|-7---7\-------------------------0-0-0-0-0-0-0-0------|


         PM|          PM|
|----------------------------------------------------|
|----------------------------------------------------|
|----------------------------------------------------|
|------------7----7\-----2---2-------9-9-9-9-9-9-----|
|-9---9\-----5----5\-----0---0-------7-7-7-7-7-7-----|
|-7---7\---------------------------------------------|


Gtr 3
|-------------------------------22b25-----------19----19----------|
|-22b24------------22pb24r22p19--------------------22----22b24----|
|-----------------------------------------------------------------|
|-----------------------------------------------------------------|
|-----------------------------------------------------------------|
|-----------------------------------------------------------------|


                           PM  PM
|--------7-------------------------9b10-----7h9p7----7---------------|
|----------7h10---7--------------7----------------10---10-7-10b12----|
|-9b11----------9---10p9p7---9---------------------------------------|
|--------------------------9---9-------------------------------------|
|--------------------------------------------------------------------|
|--------------------------------------------------------------------|


                                                              PM--|
|-7-10-14-10-7-9-10-7-9----9---------------------------------------------|
|-----------------------10---10p7------7---------------------------------|
|---------------------------------10-9---10p9p7---9---[6]----------------|
|-----------------------------------------------9---9---------7-----9----|
|---------------------------------------------------------------9-7------|
|------------------------------------------------------------------------|


   PM------------------------------------------------------------------------------------------------------------------|
|-------------14h15p14h15p14----14-------------14h15h18p15p14---14-----------------------------------------------------|
|----------------------------17----17-14h15h18---------------------17-15-14-15-17-15p14S12-14p12S10-12p10S8-10p8S7-10--|
|----------16----------------------------------------------------------------------------------------------------------|
|-------16-------------------------------------------------------------------------------------------------------------|
|-14-17----------------------------------------------------------------------------------------------------------------|
|----------------------------------------------------------------------------------------------------------------------|


Repeat Verse
Repeat Riff 1
Repeat Pre Chorus
Repeat Chorus


Gtr 3
|---------|
|---------|
|---------|
|---------|
|---------|
|-0\n-----|


Both Gtrs
  PM|            PM-------------------------------------|
|-------------------------------------------------------|
|-------------------------------------------------------|
|-------------------------------------------------------|
|-----7------------------------5-------------8---8------|
|-----5---7--8-----------------3---5---8-8-8-6---6------|
|-0-0-----5--6-6-5-3-6-5-3-0-0-----3---6-6-6------------|


  PM|          PM---------------------------------------------|
|-------------------------------------------------------------|
|-------------------------------------------------------------|
|-------------------------------------------------------------|
|-----7--------------------------------------------8---8------|
|-----5---7--8-------------------------------------6---6------|
|-0-0-----5--6-6-5-3-6-5-3-\-\-\-\-\-\-\-\-\-\-\--------------|


  PM|          PM-------------------------------------------------|
|-----------------------------------------------------------------|
|-----------------------------------------------------------------|
|-----------------------------------------------------------------|
|-----7-------------------------------------------------8---8-----|
|-----5---7--8-------------3-3-3-3-3-3-6-6-6-6-6-6-5--5-6---6-----|
|-0-0-----5--6-6-5-3-6-5-3----------------------------------------|


  PM|         PM--------------------------------------------|
|-----------------------------------------------------------|
|-----------------------------------------------------------|
|-----------------------------------------------------------|
|-----7------------------------------------------8--8-------|
|-----5---7-8------------------------------------6--6-------|
|-0-0-----5-6-6-5-3-6-5-3-\-\-\-\-\-\-\-\-\-\-\-------------|


  PM------------------|       PM------------------------------------|
|-------------------------------------------------------------------|
|-------------------------------------------------------------------|
|-------------------------------------------------------------------|
|-----------------------8--8-------------------------------8--8-----|
|-----------------------6--6--3-3-3-3-3-3-6-6-6-6-6-6-5--5-6--6-----|
|-\-\-\-\-\-\-\-\-\-\-\---------------------------------------------|


  PM------------------------------|
|---------------------------------|
|---------------------------------|
|---------------------------------|
|-----------------------8--8------|
|-----------------------6--6------|
|-\-\-\-\-\-\-\-\-\-\-\-----------|


Kraf Dinner
Tuning - E A D G B E

Gtr 1
|-----------------------------------------------------------|
|-------3---------------------------3-----------------------|
|-2-2-2-2---------------------2-2-2-2-----------------------|
|-2-2-2-0---------------------2-2-2-0-----------------------|
|-0-0-0-0---2-2-3-3-3-5-------0-0-0-0---2-2-3-3-3-5---------|
|-----------0-0-1-1-1-3---3p0-----------0-0-1-1-1-3---3p0---|


|----------------------------------|
|-------3--------------------------|
|-2-2-2-2--------------------------|
|-2-2-2-0---------------------5----|
|-0-0-0-0---2-2-3-3-3-5-------3----|
|-----------0-0-1-1-1-3---3p0------|

Gtr 2
|-----------------------|
|------------------3----|
|------------------0----|
|-2----------------2----|
|-0----------------3----|
|-----------------------|


Both Gtrs
play 4 times
|---------------------------|
|-------3-------------------|
|-2-2-2-2-------------------|
|-2-2-2-0-------------------|
|-0-0-0-0------3-3-3-5----5-|
|------------001-1-1-3----3-|


Both Gtrs
play 4 times
|---------------------------|
|-------3-------------------|
|-2-2-2-2-------------------|
|-2-2-2-0-------------------|
|-0-0-0-0------3-3-3-5----5-|
|------------001-1-1-3----3-|


Gtr 3
|----------12-------------12-------------------------------|
|-12h13-13-13----12h13-13-13--------8---8S6---6S5---5S3----|
|-12h14-14-14----12h14-14-14----------------7-----5--------|
|-------------------------------7h9---9--------------------|
|----------------------------------------------------------|
|----------------------------------------------------------|


|----------12-------------12------12----12----12----12-------------------------------------|
|-12h13-13-13----12h13-13-13---13-13-13-13-13-13-13-13----13-------------------------------|
|-12h14-14-14----12h14-14-14---14----14----14----14----14----14p12----12-------------------|
|------------------------------------------------------------------14----14-13-12----------|
|---------------------------------------------------------------------------------15-12\---|
|------------------------------------------------------------------------------------------|


Verse 1
Both Gtrs
  PM|       PM--|      PM|     PM-----------------------------------|
|-------------------------------------------------------------------|
|-------------------------------------------------------------------|
|-------------------------------------------------------------------|
|-------------------------------------------------------------------|
|-----6-5---------6p5------6p5--------------------------------------|
|-5-6-------0-5-6------5-6-----5-5-5-5-6-6-6-6-8-8-8-8-6-6-6-6------|

  PM|       PM--|      PM|     PM-----------------------------------|
|-------------------------------------------------------------------|
|-------------------------------------------------------------------|
|-------------------------------------------------------------------|
|-------------------------------------------------------------------|
|-----6-5---------6p5------6p5--------------------------------------|
|-5-6-------0-5-6------5-6-----5-5-5-5-6-6-6-6-8-8-8-8-6-6-6-6------|


  PM|       PM--|      PM|
|---------------------------------------------------------------------|
|---------------------------------------------------------------------|
|---------------------------------------------------------------------|
|------------------------------7-7-7-7-8-8-8-8-10-10-10-10-8-8-8-8----|
|-----6-5---------6p5------6p5----------------------------------------|
|-5-6-------0-5-6------5-6--------------------------------------------|


  PM|       PM--|      PM|     PM--------------------------------|
|----------------------------------------------------------------|
|----------------------------------------------------------------|
|----------------------------------------------------------------|
|----------------------------------------------------------------|
|-----6-5---------6p5------6p5-----------------------------------|
|-5-6-------0-5-6------5-6-----5-5-5-5-6-6-6-6-8-8-8--6-6-6------|


Both Gtrs
Chorus 1
        PM--|                      PM--|
|---------------------------------------------------------|
|---------------------------------------------------------|
|-----------------------<5>-------------------------------|
|-7-----------5-----<5>------7-----------5---------<5>----|
|-5--7--------3--5-----------5--7--------3--5--<5>--------|
|----5--0-0-0----3--------------5--0-0-0----3-------------|


        PM--|                      PM--|
|----------------------------------------------------|
|----------------------------------------------------|
|-----------------------<5>--------------------------|
|-7-----------5-----<5>------7-----------5-----------|
|-5--7--------3--5-----------5--7--------3--5-3-5----|
|----5--0-0-0----3--------------5--0-0-0----3-1-3----|


Both Gtrs
play twice
|-----------------------------------------------------------|
|-------3---------------------------3-----------------------|
|-2-2-2-2---------------------2-2-2-2-----------------------|
|-2-2-2-0---------------------2-2-2-0-----------------------|
|-0-0-0-0---2-2-3-3-3-5-------0-0-0-0---2-2-3-3-3-5---------|
|-----------0-0-1-1-1-3---3p0-----------0-0-1-1-1-3---3p0---|


Verse 2
Both Gtrs
  PM|       PM--|      PM|     PM-----------------------------------|
|-------------------------------------------------------------------|
|-------------------------------------------------------------------|
|-------------------------------------------------------------------|
|-------------------------------------------------------------------|
|-----6-5---------6p5------6p5--------------------------------------|
|-5-6-------0-5-6------5-6-----5-5-5-5-6-6-6-6-8-8-8-8-6-6-6-6------|

  PM|       PM--|      PM|     PM-----------------------------------|
|-------------------------------------------------------------------|
|-------------------------------------------------------------------|
|-------------------------------------------------------------------|
|-------------------------------------------------------------------|
|-----6-5---------6p5------6p5--------------------------------------|
|-5-6-------0-5-6------5-6-----5-5-5-5-6-6-6-6-8-8-8-8-6-6-6-6------|


Gtr 1
  PM|       PM--|      PM|
|---------------------------------------------------------------------|
|---------------------------------------------------------------------|
|---------------------------------------------------------------------|
|------------------------------7-7-7-7-8-8-8-8-10-10-10-10-8-8-8-8----|
|-----6-5---------6p5------6p5----------------------------------------|
|-5-6-------0-5-6------5-6--------------------------------------------|


Gtr 2
  PM|       PM--|      PM|
|-----------------------------------------------------------------|
|-----------------------------------------------------------------|
|------------------------------5-5-5-5-7-7-7-7-9-9-9-9-7-7-7-7----|
|-----------------------------------------------------------------|
|-----6-5---------6p5------6p5------------------------------------|
|-5-6-------0-5-6------5-6----------------------------------------|


Both Gtrs
  PM|       PM--|      PM|     PM--------------------------------|
|----------------------------------------------------------------|
|----------------------------------------------------------------|
|----------------------------------------------------------------|
|----------------------------------------------------------------|
|-----6-5---------6p5------6p5-----------------------------------|
|-5-6-------0-5-6------5-6-----5-5-5-5-6-6-6-6-8-8-8--6-6-6------|


Repeat Chorus


Both Gtrs
play twice
|-----------------------------------------------------------|
|-------3---------------------------3-----------------------|
|-2-2-2-2---------------------2-2-2-2-----------------------|
|-2-2-2-0---------------------2-2-2-0-----------------------|
|-0-0-0-0---2-2-3-3-3-5-------0-0-0-0---2-2-3-3-3-5---------|
|-----------0-0-1-1-1-3---3p0-----------0-0-1-1-1-3---3p0---|


Both Gtrs
play 4 times
  PM--|      PM-------------------|
|---------------------------------|
|---------------------------------|
|---------------------------------|
|---------------------------------|
|-------5--5-----------7---7\-----|
|-0-0-0-3--3-3-0-2-0-0-5---5\-----|


Both Gtrs
play 4 times
             PM-------------------|
|---------------------------------|
|---------------------------------|
|---------------------------------|
|---------------------------------|
|-------7--7-----------9---9------|
|-2-2-2-5--5-5-4-4-4-4-7---7------|


Both Gtrs
play 4 times
     PM--------------|           PM---------------------------|
|-------------------------------------------------------------|
|----------------------3---3----------------------------------|
|----------------------0---2----------------------------------|
|-2--------------------2---0--2--------------------5----------|
|-0--0-0-0-0-0-0-0-0-0-3---0--0--0-0-0-0-0-0-0-0-0-3---5------|
|------------------------------------------------------3------|

     PM----------------------------------------------|
|----------------------------------------------------|
|--------------------------3--3----------------------|
|--------------------------2--2----------------------|
|-2--------------------5---0--0-----------5----------|
|-0--0-0-0-0-0-0-0-0-0-3---0--0-------5---3---5------|
|-------------------------------------3-------3------|


Gtr 3
            PM------|           PM------|         PM---------------|
|------------------------------------------------------------------|
|------------------------------------------------------------------|
|-[5]b5.5-------------[5]b5.5-------------5b5.5--------------------|
|-----------7-5-7-5-7-----------7-5-7-5-7---------7-5-7-5-7-7------|
|------------------------------------------------------------------|
|------------------------------------------------------------------|


            PM------|           PM---------------------------|
|------------------------------------------------------------|
|------------------------------------------8b10r==8p5-8------|
|-[5]b5.5-------------[5]b5.5--------------------------------|
|-----------7-5-7-5-7-----------7-5-7-5-7--------------------|
|------------------------------------------------------------|
|------------------------------------------------------------|


|-5-5-7p5---5-----------5h7p5---5-----------------------------------|
|---------8---8p5-----5-------8---8p5---5---------------------------|
|-----------------7b9-----------------7---8p7p5---7---5---5-5-------|
|-----------------------------------------------7---7---7------7----|
|-------------------------------------------------------------------|
|-------------------------------------------------------------------|


     PM   PM   PM
|----------------------------------15----------------------|
|----------------5h6---5-----12-13----13-12----12-13-------|
|-4----5----7--0-----7----------------------14-------14----|
|----0----3------------------------------------------------|
|----------------------------------------------------------|
|----------------------------------------------------------|


|--------10----10-12----10--------10----10-12----10--------10----10-12----10-------------------|
|-13b15-----13-------13----13b15-----13-------13----13b15-----13-------13----13-12-10-13-12----|
|----------------------------------------------------------------------------------------------|
|----------------------------------------------------------------------------------------------|
|----------------------------------------------------------------------------------------------|
|----------------------------------------------------------------------------------------------|


|-----10------12-------15-------17-------19-19b20------------|
|---8------10-------13-------15-------17---------------17----|
|-7------9-------12-------14-------16------------------------|
|------------------------------------------------------------|
|------------------------------------------------------------|
|------------------------------------------------------------|


|-15-15-15-15--15-15-15-15-15-15-15--15---------------------------------19b20----|
|-13-13-13-13--13-13-13-12-12-12-12--12--17--------------------20-19-17----------|
|-14-14-14-14--14-14-14-12-12-12-12--12--17-----------19-18-17-------------------|
|--------------------------------------------19-18-17----------------------------|
|--------------------------------------------------------------------------------|
|--------------------------------------------------------------------------------|


|-17-20----17-20----17-20----17-20-19-------------------|
|-------19-------19-------19------------17b19-----17----|
|---------------------------------------17b19-----17----|
|-------------------------------------------------------|
|-------------------------------------------------------|
|-------------------------------------------------------|


Repeat Verse 2


Both Gtrs
Chorus 2
        PM--|                      PM--|
|---------------------------------------------------------|
|---------------------------------------------------------|
|-----------------------<5>------------------------<5>----|
|-7-----------5-----<5>------7-----------5-----<5>--------|
|-5--7--------3--5-----------5--7--------3--5-------------|
|----5--0-0-0----3--------------5--0-0-0----3-------------|


        PM--|                  PM--|
|-----------------------------------------|
|-----------------------------------------|
|--------------------<5>------------------|
|-7-----------5----<5>---7-----------5----|
|-5--7--------3--5-------5--7--------3----|
|----5--0-0-0----3----------5--0-0-0------|


Both Gtrs
play 3 times
|-----------------------------------------------------------|
|-------3---------------------------3-----------------------|
|-2-2-2-2---------------------2-2-2-2-----------------------|
|-2-2-2-0---------------------2-2-2-0-----------------------|
|-0-0-0-0---2-2-3-3-3-5-------0-0-0-0---2-2-3-3-3-5---------|
|-----------0-0-1-1-1-3---3p0-----------0-0-1-1-1-3---3p0---|


Both Gtrs
play 4 times
  PM--|      PM-------------------|
|---------------------------------|
|---------------------------------|
|---------------------------------|
|---------------------------------|
|-------5--5-----------7---7\-----|
|-0-0-0-3--3-3-0-2-0-0-5---5\-----|


Both Gtrs
|-----------|
|-----------|
|-----------|
|-2---------|
|-0--<3>----|
|-----------|

Phantasmagoria
Tuning - E A D G B E

Gtr 1
play 8 times
      PM  PM|   PM
|--------------------|
|--------------------|
|--------------------|
|-8S7----------------|
|-6S5---7-----5------|
|-----0-5-0-0-3-0----|


Gtr 2
|-----------------------------------------|
|-----------------------------------------|
|-----------------------------------------|
|-2-----------5-----------4----------3----|
|-2-----------5-----------4----------3----|
|-0-----------3-----------2----------1----|


Both Gtrs
play 7 times
  PM|       PM-----------------------|
|------------------------------------|
|------------------------------------|
|------------------------------------|
|-----8--7---------------------------|
|-----6--5---------------------------|
|-0-0-------0-0-5-0-0-0-0-0-3-0------|


8th time
  PM|       PM|
|--------------------------|
|--------------------------|
|--------------------------|
|-----8--7-----------------|
|-----6--5------7--6--5----|
|-0-0-------0-0-5--4--3----|


Both Gtrs
            PM   PM--|    PM|       PM   PM--|
|---------------------------------------------------|
|---------------------------------------------------|
|---------------------------------------------------|
|-----8--7--------------------8--7------------------|
|-2---6--5----5--------7------6--5----5--------7----|
|-0---------0-3--0-0-0-5--0-0-------0-3--0-0-0-5----|


  PM|       PM   PM--|    PM|       PM|
|--------------------------------------------------|
|--------------------------------------------------|
|---------------------------------------------0----|
|-----8--7--------------------8--7-----------------|
|-----6--5----5--------7------6--5-----------------|
|-0-0-------0-3--0-0-0-5--0-0-------0-0-3--0-------|

            PM   PM--|    PM|       PM   PM|
|-------------------------------------------------|
|-------------------------------------------------|
|-------------------------------------------------|
|-----8--7--------------------8--7----------------|
|-2---6--5----5--------7------6--5----5------7\---|
|-0---------0-3--0-0-0-5--0-0-------0-3--0-0-5\---|


            PM   PM--|     PM|       PM|
|---------------------------------------------------|
|---------------------------------------------------|
|----------------------------------------------0----|
|-----8--7---------------------8--7-----------------|
|-----6--5----5--------7-------6--5---------------2-|
|-----------0-3--0-0-0-5---0-0-------0-0-3--0-----0-|


Gtr 1
|-------------------------------------------------------------|
|-------------------------------------------------------------|
|-------------------------------------------------------------|
|------------------------------------------------------4h5----|
|-2-----------------------------------------------------------|
|-0-----------------------------------------------------------|


Gtr 2
play 2 times
  PM------------------|       PM------------------------------|
|-------------------------------------------------------------|
|-------------------------------------------------------------|
|-------------------------------------------------------------|
|-------------------------------------------------------------|
|-----------------------8--8------------------------8--8------|
|-0-0-2-0-0-3-0-0-2-0-0-6--6--0-0-2-0-0-3-0-0-2-0-0-6--6------|


Both Gtrs
  PM------------------|       PM------------------------------|
|-------------------------------------------------------------|
|-------------------------------------------------------------|
|-------------------------------------------------------------|
|-------------------------------------------------------------|
|-----------------------8--8------------------------8--8------|
|-0-0-2-0-0-3-0-0-2-0-0-6--6--0-0-2-0-0-3-0-0-2-0-0-6--6------|

  PM------------------|       PM-------------------------|
|--------------------------------------------------------|
|--------------------------------------------------------|
|--------------------------------------------------------|
|--------------------------------------------------------|
|-----------------------8--8----------------8--5--7------|
|-0-0-2-0-0-3-0-0-2-0-0-6--6--0-0-2-0-3-0-0-6--3--5------|


Both Gtrs
play twice
  PM------------------------|     PM---------------------------------|
|--------------------------------------------------------------------|
|--------------------------------------------------------------------|
|--------------------------------------------------------------------|
|--------------------------------------------------------------------|
|-----------------------------7--------------------------------------|
|-0-0-6-0-0-3-0-0-6-0-0-3-0-0-5---0-0-6-0-0-3-0-0-6-0-0-3-0-0-5------|


  PM------------------------|     PM---------------------------|
|--------------------------------------------------------------|
|--------------------------------------------------------------|
|--------------------------------------------------------------|
|--------------------------------------------------------------|
|-----------------------------7-------------------8--5--7------|
|-0-0-6-0-0-3-0-0-6-0-0-3-0-0-5---0-0-6-0-0-3-0-0-6--3--5------|


Both Gtrs
|------------------------|
|------------------------|
|------------------------|
|-9---12---10---7--------|
|-7---10----8---5---8----|
|-------------------6----|


Gtr 1
     PM--------|              PM--------|             PM-------------------------|
|--------------------------------------------------------------------------------|
|--------------------------------------------------------------------------------|
|--------------------------------------------------------------------------------|
|-9--------------------7--10--------------------7--9--------------------7--10----|
|-7--------------7--9--5---8--------------7--9--5--7--------------7--9--5---8----|
|----0-0-0-0-0-0-5--7---------0-0-0-0-0-0-5--7--------0-0-0-0-0-0-5--7-----------|


Both Gtrs
Pre verse
     PM--------|              PM-----------------------|
|------------------------------------------------------|
|------------------------------------------------------|
|------------------------------------------------------|
|-9--------------------7--10--------------------7------|
|-7--------------7--9--5---8--------------7--9--5------|
|----0-0-0-0-0-0-5--7---------0-0-0-0-0-0-5--7---------|

     PM--------|              PM-----------------------|
|------------------------------------------------------|
|------------------------------------------------------|
|------------------------------------------------------|
|-9--------------------7--10--------------------7------|
|-7--------------7--9--5---8--------------7--9--5------|
|----0-0-0-0-0-0-5--7---------0-0-0-0-0-0-5--7---------|


  PM-----------------------------------|
|--------------------------------------|
|--------------------------------------|
|--------------------------------------|
|-3-3-3-3------------------------------|
|-1-1-1-1-3-3-3-3-6-6-6-6-9-9-9-9------|
|---------1-1-1-1-4-4-4-4-7-7-7-7------|

     PM--------|              PM-----------------------|
|------------------------------------------------------|
|------------------------------------------------------|
|------------------------------------------------------|
|-9--------------------7--10--------------------7------|
|-7--------------7--9--5---8--------------7--9--5------|
|----0-0-0-0-0-0-5--7---------0-0-0-0-0-0-5--7---------|


Gtr 1
  PM-----------------------------------|
|--------------------------------------|
|--------------------------------------|
|--------------------------------------|
|-3-3-3-3------------------------------|
|-1-1-1-1-3-3-3-3-6-6-6-6-9-9-9-9------|
|---------1-1-1-1-4-4-4-4-7-7-7-7------|


Gtr 2
  PM-----------------------------------------------------------------------------------------------|
|--------------------------------------------------------------------------------------------------|
|--------------------------------------------------------------------------------------------------|
|--------------------------------------------------------------------------------------------------|
|--------------------------------------------------------------------------------------------------|
|-13-13-13-13-13-13-13-13--------------------------------------------------------------------------|
|-------------------------13-13-13-13-13-13-13-13-16-16-16-16-16-16-16-16-19-19-19-19-19-19-19-19--|


Both Gtrs
     PM--------|              PM-----------------------|
|------------------------------------------------------|
|------------------------------------------------------|
|------------------------------------------------------|
|-9--------------------7--10--------------------7------|
|-7--------------7--9--5---8--------------7--9--5------|
|----0-0-0-0-0-0-5--7---------0-0-0-0-0-0-5--7---------|


Both Gtrs
verse
  PM-----------------------------------------------------------|
|--------------------------------------------------------------|
|--------------------------------------------------------------|
|--------------------------------------------------------------|
|-------------------------------------------------------7------|
|-------------------------------------------------7--9--5------|
|-0-0-0-0-0-0-0-0-0-0-0-0-0-0-0-0-0-0-0-0-0-0-0-0-5--7---------|


     PM--------------------------------------------------------|
|--------------------------------------------------------------|
|--------------------------------------------------------------|
|--------------------------------------------------------------|
|-5----------------------------------------------5--7--11------|
|-3--3-3-3-3-3-3-3-3-3-3-3-3-3-3-3-3-3-3-3-3-3-3-3--5---9------|
|--------------------------------------------------------------|


  PM-----------------------------------------------------------|
|--------------------------------------------------------------|
|--------------------------------------------------------------|
|--------------------------------------------------------------|
|-------------------------------------------------------7------|
|-------------------------------------------------7--9--5------|
|-0-0-0-0-0-0-0-0-0-0-0-0-0-0-0-0-0-0-0-0-0-0-0-0-5--7---------|


     PM-------------------------------------------------------|
|-------------------------------------------------------------|
|-------------------------------------------------------------|
|-------------------------------------------------------------|
|-5----------------------------------------------5--7---------|
|-3--3-3-3-3-3-3-3-3-3-3-3-3-3-3-3-3-3-3-3-3-3-3-3--5--4------|
|------------------------------------------------------2------|


Chorus 1
Both Gtrs
play twice
  PM--|         PM--|         PM--|        PM----------------|
|------------------------------------------------------------|
|------------------------------------------------------------|
|------------------------------------------------------------|
|------------------------------------------------------------|
|-------8---5---------5---8---------8---5----------------4---|
|-0-0-0-6---3---0-0-0-3---6---0-0-0-6---3--0-0-0-0-3-5-6-----|


Pre Verse
Both Gtrs
     PM--------|              PM-----------------------|
|------------------------------------------------------|
|------------------------------------------------------|
|------------------------------------------------------|
|-9--------------------7--10--------------------7------|
|-7--------------7--9--5---8--------------7--9--5------|
|----0-0-0-0-0-0-5--7---------0-0-0-0-0-0-5--7---------|

     PM--------|              PM-----------------------|
|------------------------------------------------------|
|------------------------------------------------------|
|------------------------------------------------------|
|-9--------------------7--10--------------------7------|
|-7--------------7--9--5---8--------------7--9--5------|
|----0-0-0-0-0-0-5--7---------0-0-0-0-0-0-5--7---------|


  PM-----------------------------------|
|--------------------------------------|
|--------------------------------------|
|--------------------------------------|
|-3-3-3-3------------------------------|
|-1-1-1-1-3-3-3-3-6-6-6-6-9-9-9-9------|
|---------1-1-1-1-4-4-4-4-7-7-7-7------|


     PM--------|              PM-----------------------|
|------------------------------------------------------|
|------------------------------------------------------|
|------------------------------------------------------|
|-9--------------------7--10--------------------7------|
|-7--------------7--9--5---8--------------7--9--5------|
|----0-0-0-0-0-0-5--7---------0-0-0-0-0-0-5--7---------|


Gtr 1
  PM-------------------------------------------------------------------|
|----------------------------------------------------------------------|
|----------------------------------------------------------------------|
|----------------------------------------------------------------------|
|----------------------------------------------------------------------|
|-1-1-1-1-1-1-1-1------------------------------------------------------|
|-----------------1-1-1-1-1-1-1-1-4-4-4-4-4-4-4-4-7-7-7-7-7-7-7-7------|


Gtr 2
  PM-----------------------------------------------------------------------------------------------|
|--------------------------------------------------------------------------------------------------|
|--------------------------------------------------------------------------------------------------|
|--------------------------------------------------------------------------------------------------|
|--------------------------------------------------------------------------------------------------|
|-13-13-13-13-13-13-13-13--------------------------------------------------------------------------|
|-------------------------13-13-13-13-13-13-13-13-16-16-16-16-16-16-16-16-19-19-19-19-19-19-19-19--|


Both Gtrs
     PM--------|              PM-----------------------|
|------------------------------------------------------|
|------------------------------------------------------|
|------------------------------------------------------|
|-9--------------------7--10--------------------7------|
|-7--------------7--9--5---8--------------7--9--5------|
|----0-0-0-0-0-0-5--7---------0-0-0-0-0-0-5--7---------|


Repeat Verse


Both Gtrs
Chorus 2
  PM--|         PM--|         PM--|        PM----------------|
|------------------------------------------------------------|
|------------------------------------------------------------|
|------------------------------------------------------------|
|------------------------------------------------------------|
|-------8---5---------5---8---------8---5----------------4---|
|-0-0-0-6---3---0-0-0-3---6---0-0-0-6---3--0-0-0-0-3-5-6-----|

  PM--|         PM--|         PM--|        PM----|     PM----|
|------------------------------------------------------------|
|------------------------------------------------------------|
|------------------------------------------------------------|
|-------8---5---------5---8---------8---5--------------------|
|-0-0-0-6---3---0-0-0-3---6---0-0-0-6---3--0-0-0-0-3h5-------|
|------------------------------------------------------0-0---|


Both Gtrs
    PM--|   PM--|   PM--|     PM     PM--|   PM-------------------------|
|-----------------------------------------------------------------------|
|-----------------------------------------------------------------------|
|-----------------------------------------------------------------------|
|------------------------------------------------------------------9----| / 3 \ triplets
|-8-------7-------5--------------8-------7-------/-3-\-------------7----|
|-6-0-0-0-5-0-0-0-3-0-0-0-\--0-0-6-0-0-0-5-0-0-0-3-0-0-3-0-0-3-0-0------|


    PM--|   PM--------------------|   PM--|   PM---------------------------|
|--------------------------------------------------------------------------|
|--------------------------------------------------------------------------|
|--------------------------------------------------------------------------|
|---------------------------------------------------------------------9----|
|-8-------7----------5--5--5--------8-------7-------/-3-\-------------7----|
|-6-0-0-0-5-00-0--00-3--3--3-\--0-0-6-0-0-0-5-0-0-0-3-0-3-0-3-0-3-0-0------|


Both Gtrs
  PM------------------|           PM------------------------------------|
|-----------------------------------------------------------------------|
|-----------------------------------------------------------------------|
|-----------------------------------------------------------------------|
|---------------------------7-------------------------------7-----------|
|-----------------------7h8---8p7-----------------------7h8---9h10------|
|-0-0-0-0-0-0-0-0-0-0-0-----------0-0-0-0-0-0-0-0-0-0-0-----------------|


     PM--------------|           PM--------------------|
|------------------------------------------------------|
|------------------------------------------------------|
|------------------------------------------------------|
|-9------------------------7---------------------------|
|-7--------------------7h8---8p7----------------2------|
|----0-0-0-0-0-0-0-0-0-----------0-0-0-0-0-0-\--0------|


|--------|
|--------|
|--------|
|--------|
|--------|
|-2S4----|


    PM----------------------|       PM--------------------------------|   PM|   PM
|---------------------------------------------------------------------|
|---------------------------------------------------------------------|
|-4-------------------------------4-------------4-----4---4-----------|
|-4-------------------------------4-------------4-----4---4-----------|
|---------------------------------------------------------------------|
|---4-4-4-4-4-4-4-4-4-4-4-4-4-2S4---4-4-4-4-4-4---4-4---4----2S4------|


    PM--|   PM--|     PM----|       PM--|   PM-------------|
|----------------------------------------------------------|
|----------------------------------------------------------|
|-4-------------------------------4------------------------|
|-4-------6-------7S6-------------4-------6-------7S6------|
|---------4-------5S4---------------------4-------5S4------|
|---4-4-4---4-4-4-----4-4-4-4-2S4---4-4-4---4-4-4----------|


Gtr 3
|--------------------------------|
|-----<7>------------------------|
|-<5>----------------------------|
|--------------------------------|
|--------------------------------|
|---------------------------0\---|


|---------------------------------------------------------------|
|--------------------------------------------12-----------------|
|-----------------12-------11----------------12-----------------|
|---------9h10h12-------------12-------14-----------14p12-14----|
|-9h10h12------------------------14-12--------------------------|
|---------------------------------------------------------------|


|-------------------------|
|-7b9=======*=========----| * tap harmonic on 19th fret
|-------------------------|
|-------------------------|
|-------------------------|
|-------------------------|


|-4h6p4---4------------------------------------------------------|
|-------7---7p4-4-4h7p4-4-5p4-----4------------------------------|
|-----------------------------6-----6p4---4-------6p4------------|
|-------------------------------6-------6---6p4-------6---4h6----|
|-----------------------------------------------6-------6--------|
|----------------------------------------------------------------|


Gtr 3
|----------------------------------------------------|
|----------------------------------------------------|
|---------11h13h15-13-----------------15h16h18-15----|
|-9h11h13--------------------13h14h16----------------|
|----------------------------------------------------|
|----------------------------------------------------|


Gtr 4
|-----------------------------------------------------|
|-----------------------------------------------------|
|----------15h16h18-16-----------------18h20h21-18----|
|-13h14h16--------------------16h18h20----------------|
|-----------------------------------------------------|
|-----------------------------------------------------|


Gtr 3
|----------------------------------------------------------------------------------------------------|
|----------------------------------------------------------------------------------------------------|
|----------13-15-16-15-13----15-13----13-------------------------------------------------------------|
|-11-13-14----------------14-------14----14-13-------------13-15-16-15-13----15-13----13-------------|
|----------------------------------------------16-11-13-14----------------14-------14----14-13-------|
|----------------------------------------------------------------------------------------------16----|


Both Gtrs
|----------------------------------|
|----------------------------------|
|----------------------------------|
|-6-6-------6-------7-7-------6----|
|-4-4-------4-------5-5-------4----|
|----------------------------------|


|--------------------------------------------|
|--------------------------------------------|
|-----------4-4------------------------------|
|-6-6-------6-6------7-7-------6--6--6--6----|
|-4-4-------4-4------5-5-------4--4--4--4----|
|--------------------------------------------|

Gtr 3
|----------------------------------------------------------------------------------------|
|----------------------------------------------------------------------------------------|
|-9h11p9----9---------------9-11-13-11-9----9h11p9----9---------------9-11-13-11-9-------|
|--------13---13-11-9-11-13--------------13--------13---13-11-9-11-13--------------13----|
|----------------------------------------------------------------------------------------|
|----------------------------------------------------------------------------------------|


|-------------------------------------------------------------------------------------|
|---------------------------------------------------------------------------9h10p9----|
|-11h13p11----11----------------11-13-14-13-11----9h11p9----9-------------------------|
|----------14----14-13-11-13-14----------------14--------13---13-11-9-11-13-----------|
|-------------------------------------------------------------------------------------|
|-------------------------------------------------------------------------------------|


|------------------------------------------------------------------------|
|---------------------------9h10p9-----------------------------9h10p9----|
|-9h11p9----9------------------------9h11p9----9-------------------------|
|--------13---13-11-9-11-13-----------------13---13-11-9-11-13-----------|
|------------------------------------------------------------------------|
|------------------------------------------------------------------------|


|-------------------------------------------------------------------|
|-------------------------------------------------------------------|
|-11h13p11----11----------------------------------------------------|
|----------14----14-13-11-14-13-11----13-11-------------------------|
|----------------------------------14-------14-12-11--11--11--11----|
|--------------------------------------------------9---9---9---9----|


Gtr 3
|----------------------------------------------------------------------------------------------------|
|----------------------------------------------------------------------------------------------------|
|-13h14p13----13----------------13-14-16-14-13----13h14p13----13----------------13-14-16-14-13-------|
|----------16----16-14-13-14-16----------------16----------16----16-14-13-14-16----------------16----|
|----------------------------------------------------------------------------------------------------|
|----------------------------------------------------------------------------------------------------|


|-------------------------------------------------------------------------------------------|
|-------------------------------------------------------------------------------12h14p12----|
|-14h16p14----14----------------14-16-18-16-14----13h14p13----13----------------------------|
|----------18----18-16-14-16-18----------------18----------16----16-14-13-14-16-------------|
|-------------------------------------------------------------------------------------------|
|-------------------------------------------------------------------------------------------|


|------------------------------------------------------------------------------------|
|-------------------------------12h14p12---------------------------------12h14p12----|
|-13h14p13----13---------------------------13h14p13----13----------------------------|
|----------16----16-14-13-14-16---------------------16----16-14-13-14-16-------------|
|------------------------------------------------------------------------------------|
|------------------------------------------------------------------------------------|


|----------------------------------------------------------------|
|-10h12p10----10-------------------------------------------------|
|----------13----13-11-9-13-11-9----11-9-------------------------|
|--------------------------------12------12-11-------------------|
|----------------------------------------------11--11--11--11----|
|-----------------------------------------------9---9---9---9----|


Gtr 1
  PM----------------------------------------------------------------------------------------|
|----------------------------------10-12-13-12----------------------------------------------|
|--------------------------9-11-12--------------11------12----------------------------------|
|-------------------7-9-10--------------------------10------11------12----------------------|
|-------------6-8-9---------------------------------------------10------11------12----------|
|-------5-7-8---------------------------------------------------------------10------11------|
|-4-6-7---------------------------------------------------------------------------------10--|


Gtr 2
  PM------------------------------------------------------------------------------------------------|
|------------------------------------------13-15-16-15----------------------------------------------|
|---------------------------------12-14-15--------------14------15----------------------------------|
|------------------------10-12-13---------------------------13------14------15----------------------|
|----------------9-11-12------------------------------------------------13------14------15----------|
|--------8-10-11--------------------------------------------------------------------13------14------|
|-7-9-10----------------------------------------------------------------------------------------13--|


Gtr 3
  PM----------------------------------------------------------------------------------------------------|
|----------------------------------------------16-18-19-18----------------------------------------------|
|-------------------------------------15-17-18--------------17------18----------------------------------|
|----------------------------13-15-16---------------------------16------17------18----------------------|
|-------------------12-14-15------------------------------------------------16------17------18----------|
|----------11-13-14---------------------------------------------------------------------16------17------|
|-10-12-13------------------------------------------------------------------------------------------16--|


Repeat Verse
Repeat Chorus 1


Both Gtrs
play twice
  PM--|        PM--|        PM---------------------|       PM
|--------------------------------------------------|
|--------------------------------------------------|
|--------------------------------------------------|
|--------------------------------------------------|
|-------8---5--------5---8--------8---5---8S7------|
|-0-0-0-6---3--0-0-0-3---6--0-0-0-6---3-0-6S5------|


Both Gtrs
  PM--|        PM--|        PM---|        PM---------------|
|----------------------------------------------------------|
|----------------------------------------------------------|
|----------------------------------------------------------|
|----------------------------------------------------------|
|-------5---7--------5---7---------5---7--------7---8------|
|-0-0-0-3---5--0-0-0-3---5--0-00-0-3---5--0-0-0-5---6------|


Gtr 1
|--------|
|--------|
|--------|
|-9-9----|
|-7-7----|
|--------|


Gtr 2
|----------|
|----------|
|----------|
|-12-12----|
|-10-10----|
|----------|

Annihilator - Reduced To Ash
Tuning - E A D G B E

Gtr 1
play 3 times
|------------------------------|
|------------------------------|
|------------------------------|
|------------------------------|
|-7-7-7-8---10--7-7-7-8---5----|
|-5-5-5-6----8--5-5-5-6---3----|


4th time, Gtr 2 joins
|------------------------|
|------------------------|
|------------------------|
|------------------------|
|-7-7-7-8---10--7---8----|
|-5-5-5-6----8--5---6----|


Both Gtrs
play 3 times
|------------------------------|
|------------------------------|
|------------------------------|
|------------------------------|
|-7-7-7-8---10--7-7-7-8---5----|
|-5-5-5-6----8--5-5-5-6---3----|


4th time
|---------------------|
|---------------------|
|---------------------|
|---------------------|
|-7-7-7-8---10--7-----|
|-5-5-5-6----8--5-*-\-|


Both Gtrs
play 3 times
|------------------------------|
|------------------------------|
|------------------------------|
|------------------------------|
|-7-7-7-8---10--7-7-7-8---5----|
|-5-5-5-6----8--5-5-5-6---3----|


4th time
|--------------------------|
|--------------------------|
|--------------------------|
|--------------------------|
|-7-7-7-8---10--7--6--5----|
|-5-5-5-6----8--5--4--3----|


Both Gtrs
|-------------------------------------|
|-------------------------------------|
|----------------------------6-5-4----|
|----4--5----7-5-4----4--5---4-3-2----|
|-4--2--3----5-3-2-4--2--3------------|
|-2----------------2------------------|


|-------------------------------------|
|-------------------------------------|
|-------------------------------------|
|----4--5----7-5-4----4--5-----8-9----|
|-4--2--3----5-3-2-4--2--3---6-6-7----|
|-2----------------2---------4--------|


  PM--|              PM--|
|------------------------------------------|
|------------------------------------------|
|---------------------------------6-5-4----|
|-------4--5---7-5-4-------4--5---4-3-2----|
|-------2--3---5-3-2-------2--3------------|
|-2-2-2--------------2-2-2-----------------|


  PM--|              PM--|
|------------------------------------------|
|------------------------------------------|
|------------------------------------------|
|-------4--5---7-5-4-------4--5-----8-9----|
|-------2--3---5-3-2-------2--3---6-6-7----|
|-2-2-2--------------2-2-2--------4--------|


Verse
Both Gtrs
  PM--|       PM--|       PM--|       PM-------------------|
|----------------------------------------------------------|
|----------------------------------------------------------|
|-------7--9--------6--7--------7--9-----------------------|
|-------7--7--------7--7--------7--7-----------------------|
|----------------------------------------------------------|
|-7-7-7-------7-7-7-------7-7-7-------7-7-7-7-7-7-7-7------|


  PM--|       PM--|       PM--|       PM-------------------|
|----------------------------------------------------------|
|----------------------------------------------------------|
|-------7--9--------6--7--------7--9-----------------------|
|-------7--7--------7--7--------7--7-----------------------|
|--------------------------------------------7-9-10-9------|
|-7-7-7-------7-7-7-------7-7-7-------7-9-10---------------|


Both Gtrs
|-------------------------------------|
|-------------------------------------|
|----------------------------6-5-4----|
|----4--5----7-5-4----4--5---4-3-2----|
|-4--2--3----5-3-2-4--2--3------------|
|-2----------------2------------------|


|-------------------------------------|
|-------------------------------------|
|-------------------------------------|
|----4--5----7-5-4----4--5-----8-9----|
|-4--2--3----5-3-2-4--2--3---6-6-7----|
|-2----------------2---------4--------|


  PM--|       PM--|       PM--|       PM-------------------|
|----------------------------------------------------------|
|----------------------------------------------------------|
|-------7--9--------6--7--------7--9-----------------------|
|-------7--7--------7--7--------7--7-----------------------|
|----------------------------------------------------------|
|-7-7-7-------7-7-7-------7-7-7-------7-7-7-7-7-7-7-7------|


  PM--|       PM--|       PM--|       PM-------------------|
|----------------------------------------------------------|
|----------------------------------------------------------|
|-------7--9--------6--7--------7--9-----------------------|
|-------7--7--------7--7--------7--7-----------------------|
|--------------------------------------------7-9-10-9------|
|-7-7-7-------7-7-7-------7-7-7-------7-9-10---------------|


Both Gtrs
|-------------------------------------|
|-------------------------------------|
|----------------------------6-5-4----|
|----4--5----7-5-4----4--5---4-3-2----|
|-4--2--3----5-3-2-4--2--3------------|
|-2----------------2------------------|


                             PM--|
|-------------------------------------|
|-------------------------------------|
|-------------------------------------|
|----4--5----7-5-4----4--5------------|
|-4--2--3----5-3-2-4--2--3---4-3-2----|
|-2----------------2---------2-1-0----|


|-------------------------------------|
|-------------------------------------|
|----------------------------6-5-4----|
|----4--5----7-5-4----4--5---4-3-2----|
|-4--2--3----5-3-2-4--2--3------------|
|-2----------------2------------------|


  PM--|              PM--|
|------------------------------------------|
|------------------------------------------|
|------------------------------------------|
|-------4--5---7-5-4-------4--5-----8-9----|
|-------2--3---5-3-2-------2--3---6-6-7----|
|-2-2-2--------------2-2-2--------4--------|


Both Gtrs
  PM----------------------------------------------------------------------------|
|-------------------------------------------------------------------------------|
|-------------------------------------------------------------------------------|
|-------------------------------------------------------------------------------|
|-------------------------------------------------------------------------------|
|-------------------------------------------------------------------------------|
|-9-9-9-10-10-10-7-7-9-9-9-10-10-10-7-7-9-9-9-10-10-10-7-7-9-\-\-\-\-\-\-\------|


  PM-------------------------------------------------------------------------|
|----------------------------------------------------------------------------|
|----------------------------------------------------------------------------|
|----------------------------------------------------------------------------|
|----------------------------------------------------------------------------|
|----------------------------------------------------------11--10--9--8------|
|-9-9-9-10-10-10-7-7-9-9-9-10-10-10-7-7-9-9-9-10-10-10-7-7--9---8--7--6------|


Both Gtrs
play twice
  PM--|       PM--|       PM--|       PM--------------|
|-----------------------------------------------------|
|-----------------------------------------------------|
|-----------------------------------------------------|
|-------2-----------2-----------5-----------5---------|
|-------0--2--------0--2--------3--5--------3--5------|
|-0-2-2----0--0-2-2----0--5-5-5----3--5-5-5----3------|


  PM--|       PM--|       PM--------------------|
|-----------------------------------------------|
|-----------------------------------------------|
|-----------------------------------------------|
|-------2-----------2-----------5---------------|
|-------0--2--------0--2--------3---------------|
|-0-2-2----0--0-2-2----0--5-5-5----3--5--\------|


Both Gtrs
play 4 times
  PM--------------------|         PM---------------------------|
|--------------------------------------------------------------|
|--------------------------------------------------------------|
|--------------------------------------------------------------|
|-------------------------2h4-------------------------2h4------|
|-------------------------0h2--2----------------------0h2------|
|-2-2-2-2-2-2-2-2-2-2-2-2------0--0-0-0-0-0-0-0-0-0-0----------|


     PM----------------------------------------|
|----------------------------------------------|
|----------------------------------------------|
|----------------------------------------------|
|------------------------2h4---9--7--7--4------|
|-4----------------------0h2---7--5--4--2------|
|-2--2-2-2-2-2-2-2-2-2-2-----------------------|


Both Gtrs
  PM--------------------------|    PM-----------------------------|
|-----------------------------------------------------------------|
|-----------------------------------------------------------------|
|-----------------------------------------------------------------|
|-----------------------------------------------------------------|
|-------------------------------7---------------------------------|
|-2-2-2-2-2-2-2-2-2-2-2-2-2-3-4-5--5-5-5-5-5-5-5-5-5-5-5-4-3------|


     PM----------------------|    PM--------------------------|
|-------------------------------------------------------------|
|-------------------------------------------------------------|
|-------------------------------------------------------------|
|-------------------------------------------------------------|
|-4----------------------------7-----------------7--6--5------|
|-2--2-2-2-2-2-2-2-2-2-2-2-3-4-5--5-5-5-5-5-5-5--5--4--3------|


  PM--------------------------|    PM-----------------------------|
|-----------------------------------------------------------------|
|-----------------------------------------------------------------|
|-----------------------------------------------------------------|
|-----------------------------------------------------------------|
|-------------------------------7---------------------------------|
|-2-2-2-2-2-2-2-2-2-2-2-2-2-3-4-5--5-5-5-5-5-5-5-5-5-5-5-4-3------|


     PM----------------------|    PM--------------------------|
|-------------------------------------------------------------|
|-------------------------------------------------------------|
|-------------------------------------------------------------|
|-------------------------------------------------------------|
|-4----------------------------7--------------7--6--5--4------|
|-2--2-2-2-2-2-2-2-2-2-2-2-3-4-5--5-5-5-5-5-5-5--4--3--2------|


Gtr 3
|-----------------------|
|-17b19r====17p14-17----|
|-----------------------|
|-----------------------|
|-----------------------|
|-----------------------|


|-14-14-14-19p14----14h17p14----14h19p14----14h17p14----14h19p14----14h17p14----14h19p14----14h20p14----14h19p14----14--------|
|----------------17----------17----------17----------17----------17----------17----------17----------17----------17----17b19--|
|-----------------------------------------------------------------------------------------------------------------------------|
|-----------------------------------------------------------------------------------------------------------------------------|
|-----------------------------------------------------------------------------------------------------------------------------|
|-----------------------------------------------------------------------------------------------------------------------------|


|----16p14h16p14----14-------14-------------------------|
|-17-------------17----14-------------------------------|
|-------------------------16----17p16p14----16----14----|
|----------------------------------------16----16-------|
|-------------------------------------------------------|
|-------------------------------------------------------|


                                                              PM--|
|----14----14S12----12S10----10S9----9S7---7S5---5S4--4------------------|
|-15----15-------14-------12------10-----9-----7--------5----------------|
|---------------------------------------------------------4S1------------|
|-------------------------------------------------------------------4----|
|-------------------------------------------------------------4-2-4------|
|------------------------------------------------------------------------|


|--------------------------------------9--9--9\-------------|
|-----------------------------7--9h10-10-10-10\----7---9----|
|---------------------6---4-7----9h11-11-11-11\----7---9----|
|-------------6---4-7---7-----------------------------------|
|-----4---4-7---7-------------------------------------------|
|-2-5---5---------------------------------------------------|


|--------7----7-9----7--------7----7-9----7--------7----7-9----7---------------------|
|-10b12----10-----10---10b12----10-----10---10b12----10-----10---10-9-7-10-9b10r9----|
|------------------------------------------------------------------------------------|
|------------------------------------------------------------------------------------|
|------------------------------------------------------------------------------------|
|------------------------------------------------------------------------------------|


|------12------12------------14-------14-------------16-------16----16b17----|
|-9-10----9-10----9-10-10-12----10-12----10-12-12-14----12-14----12----------|
|----------------------------------------------------------------------------|
|----------------------------------------------------------------------------|
|----------------------------------------------------------------------------|
|----------------------------------------------------------------------------|


|-------------------------------------------------------------------------------------------14h16p14----------17h20p17-17S14----14h17p14----------|
|-------------------------------------------------------------------------14h17p14-------------------17-14-17----------------16----------16--16---|
|-------------------------------------------------------14h17p14-------------------16-14-16-------------------------------------------------------|
|-------------------12h16p12----------14h18p14-------------------16-14-16-------------------------------------------------------------------------|
|-12h16p12-------------------14-12-14----------16-14-16-------------------------------------------------------------------------------------------|
|----------14-12-14-------------------------------------------------------------------------------------------------------------------------------|


|------------------------------------------------------------------------------------------------------------|
|-14h16h17p16p14----16p14----14------------------------------------------------------------------------------|
|----------------17-------17----17-16-14h16h18p16p14----16p14----14------------------------------------------|
|----------------------------------------------------18-------18----18-16-14h16h18p16p14----16p14--------16--|
|----------------------------------------------------------------------------------------17-------16-14------|
|------------------------------------------------------------------------------------------------------------|


|--------2-----------------------------------5-------------------------|
|------2---2h5---2-------------------------5---5h8---5-----------------|
|-4b6----------4---5p4p2---4---2h3----7b9----------7---8p7p5---7---5h6-|
|------------------------4---4-------------------------------7---7-----|
|----------------------------------------------------------------------|
|----------------------------------------------------------------------|


|-----------14-----------------------------------------------17--------17--------17----------|
|--------14----14h17----14----------------------------20b22-----20b22-----20b22-----20b22----|
|-16b18--------------16----17p16p14----16----14h15-------------------------------------------|
|-----------------------------------16----16-------------------------------------------------|
|--------------------------------------------------------------------------------------------|
|--------------------------------------------------------------------------------------------|


|------------------------------------------------------------|
|-2-------------2-------------5-------------5----------------|
|-2-------------2-------------5-------------5----------------|
|-----4-3-2---------4-3-2---------7-6-5---------7-6-5--------|
|-----------4-3-----------4-3-----------7-6-----------7-6----|
|------------------------------------------------------------|


|------------------------------------------------------------------------------------|
|-2-------------2---------------------------------------------------20b22------20b22-|
|-2-------------2---------------17-17-17-17-17-17-17-17-17-17-17-17------------------|
|-2---4-3-2---------4-3-2-------17-17-17-17-17-17-17-17-17-17-17-17------------------|
|-----------4-3-----------4-3--------------------------------------------------------|
|------------------------------------------------------------------------------------|


Gtr 1
play twice
|------------------------------|
|------------------------------|
|------------------------------|
|------------------------------|
|-7-7-7-8---10--7-7-7-8---5----|
|-5-5-5-6----8--5-5-5-6---3----|


Gtr 1
|------------------------------|
|------------------------------|
|------------------------------|
|------------------------------|
|-7-7-7-8---10--7-7-7-8---5----|
|-5-5-5-6----8--5-5-5-6---3----|


  PM------------------------|
|---------------------------|
|---------------------------|
|---------------------------|
|---------------------------|
|-----------------7--8------|
|-5-5-5-6-6-6-8-8-5--6------|

Gtr 2
                  PM-------------------------|
|--------------------------------------------|
|--------------------------------------------|
|--------------------------------------------|
|--------------------------------------------|
|-7-7-7-8---10\--------------------7--8------|
|-5-5-5-6----8\----5-5-5-6-6-6-8-8-5--6------|


Verse
Both Gtrs
  PM--|       PM--|       PM--|       PM-------------------|
|----------------------------------------------------------|
|----------------------------------------------------------|
|-------7--9--------6--7--------7--9-----------------------|
|-------7--7--------7--7--------7--7-----------------------|
|----------------------------------------------------------|
|-7-7-7-------7-7-7-------7-7-7-------7-7-7-7-7-7-7-7------|


  PM--|       PM--|       PM--|       PM-------------------|
|----------------------------------------------------------|
|----------------------------------------------------------|
|-------7--9--------6--7--------7--9-----------------------|
|-------7--7--------7--7--------7--7-----------------------|
|--------------------------------------------7-9-10-9------|
|-7-7-7-------7-7-7-------7-7-7-------7-9-10---------------|


Both Gtrs
|-------------------------------------|
|-------------------------------------|
|----------------------------6-5-4----|
|----4--5----7-5-4----4--5---4-3-2----|
|-4--2--3----5-3-2-4--2--3------------|
|-2----------------2------------------|


|-------------------------------------|
|-------------------------------------|
|-------------------------------------|
|----4--5----7-5-4----4--5-----8-9----|
|-4--2--3----5-3-2-4--2--3---6-6-7----|
|-2----------------2---------4--------|


Both Gtrs
play 3 times
  PM----------------------------------------------------------------------------|
|-------------------------------------------------------------------------------|
|-------------------------------------------------------------------------------|
|-------------------------------------------------------------------------------|
|-------------------------------------------------------------------------------|
|-------------------------------------------------------------------------------|
|-9-9-9-10-10-10-7-7-9-9-9-10-10-10-7-7-9-9-9-10-10-10-7-7-9-\-\-\-\-\-\-\------|


  PM-------------------------------------------------------------------------|
|----------------------------------------------------------------------------|
|----------------------------------------------------------------------------|
|----------------------------------------------------------------------------|
|----------------------------------------------------------------------------|
|----------------------------------------------------------11--10--9--8------|
|-9-9-9-10-10-10-7-7-9-9-9-10-10-10-7-7-9-9-9-10-10-10-7-7--9---8--7--6------|


Both Gtrs
                       PM-------------------|
|-------------------------------------------|
|-------------------------------------------|
|-------------------------------------------|
|-------------------------------------------| * (heavy metal song ending etc.)
|-4--------4--4-----------------------------|
|-2--------2--2--------0-0-0-0-0-0-0-0-*----|


Gtr 3
|--------14-------18p14----14----------------------------------------------------|
|-17b19-----17p14-------17----17p14----14----------------------------------------|
|-----------------------------------16----16-15----15----------------------------|
|-----------------------------------------------16----16-14-13-16-14-13----------|
|-----------------------------------------------------------------------16-16----|
|--------------------------------------------------------------------------14----|


Both Gtrs
|-----------|
|-----------|
|-----------|
|-----------|
|-4----4----|
|-2----2----|


Annihilator - I Am In Command
Tuning - E A D G B E

Gtr 1, Gtr 2 accentuates parts
  PM---------------------------------------------|
|------------------------------------------------|
|------------------------------------------------|
|------------------------------------------------|
|------------------------------------------------|
|------------------------------------------------|
|-0-0-0-0-0-0-0-0-0-0-0---0-0-0-0-0-0-0-0-0------|


  PM--------------------|      PM|   PM---------|
|-----------------------------------------------|
|-----------------------------------------------|
|-----------------------------------------------|
|-----------------------------------------------|
|----------------------------8-----8-----8------|
|-0-0-0-0-0-0-0-0-0-0-0-0-\--6-0-0-6-0-0-6------|


  PM--------------------|      PM-----------------------------|
|-------------------------------------------------------------|
|-------------------------------------------------------------|
|-------------------------------------------------------------|
|-------------------------------------------------------------|
|-------------------------10---------------------------8------|
|-0-0-0-0-0-0-0-0-0-0-0-0--8---0-0-0-0-0-0-0-0-0-0-0-0-6------|


  PM-------------------------------------------------|       PM|   PM
|----------------------------------------------------|
|--------------------------------------------11------|
|-----------------------------------------10---------|
|---------------------------------------8------------|
|-----------------------------8-----8----------------|
|-0-0-0-0-0-0-0-0-0-0-0-0-0---6-0-0-6-0--------------|


Both Gtrs
play twice
  PM--------|                    PM|   PM---------|
|-------------------------------------------------|
|-------------3------3----------------------------|
|-------------2------0----------------------------|
|-------------0------2------4--3-----3-----3/-----|
|-------------0------3------2--1-----1-----1/-----|
|-0-0-0-2-3-0--------------------0-0---0-0--------|


Both Gtrs
play twice
  PM--------|    PM--------|    PM--------|      PM|   PM---------|
|-----------------------------------------------------------------|
|-----------------------------------------------------------------|
|-----------------------------------------------------------------|
|-------------7\-------------5\-------------4--3-----3-----3/-----|
|-------------5\-------------3\-------------2--1-----1-----1/-----|
|-0-0-0-2-3-0----0-0-0-2-3-0----0-0-0-2-3-0------0-0---0-0--------|


  PM--------|    PM--------|    PM----------------------------------|   PM    PM    PM
|-------------------------------------------------------------------|
|-------------------------------------------------------------------|
|-------------------------------------------------------------------|
|-------------7\-------------5\--------------4---3p2---3p2---3/-----|
|-------------5\-------------3\--------------2---1p0---1p0---1/-----|
|-0-0-0-2-3-0----0-0-0-2-3-0----0-00-0-2-3-0---0-----0-----0--------|


Both Gtrs
|------|
|------|
|------|
|------|
|-2----|
|-0----|


Both Gtrs
      PM    PM         PM    PM
|-----------------------------------|
|-----------------------------------|
|-----------------------------------|
|-------------3----------------3----|
|-1p0---1p0---1----1p0---1p0---1----|
|-----0-----0----------0-----0------|


Gtr 1
play 3 times, Gtr 2 accentuates parts
  PM----------------|     PM-------------|
|----------------------------------------|
|----------------------------------------|
|----------------------------------------|
|----------------------------------------|
|---------------------3p2-----3p2p0------|
|-3-0-0-3-0-0-3-0-0-0-----3-0------------|


4th time
  PM----------------|     PM--------|
|-----------------------------------|
|-----------------------------------|
|-----------------------------------|
|-----------------------------------|
|---------------------3p2-----------|
|-3-0-0-3-0-0-3-0-0-0-----3-0-\-----|


Both Gtrs
    PM    PM     PM  PM    PM     PM  PM    PM     PM  PM   PM
|------------------------------------------------------------------|
|------------------------------------------------------------------|
|------------------------------------------------------------------|
|-7---7S9---9S10---7---7S9---9S10---7---7S9---9S10---7-------------|
|-5---5S7---7S=8---5---5S7---7S=8---5---5S7---7S=8---5---8---------|
|---0-----0------0---0-----0------0---0-----0------0---0-6--0-/----|


  PM    PM     PM  PM    PM     PM  PM    PM     PM  PM   PM
|----------------------------------------------------------------|
|----------------------------------------------------------------|
|----------------------------------------------------------------|
|---7S9---9S10---7---7S9---9S10---7---7S9---9S10---7-------------|
|---5S7---7S=8---5---5S7---7S=8---5---5S7---7S=8---5---8---------|
|-0-----0------0---0-----0------0---0-----0------0---0-6--0-/----|


  PM    PM     PM  PM    PM     PM  PM    PM     PM  PM   PM
|----------------------------------------------------------------|
|----------------------------------------------------------------|
|----------------------------------------------------------------|
|---7S9---9S10---7---7S9---9S10---7---7S9---9S10---7-------------|
|---5S7---7S=8---5---5S7---7S=8---5---5S7---7S=8---5---8---------|
|-0-----0------0---0-----0------0---0-----0------0---0-6--0-/----|


  PM    PM     PM  PM    PM     PM  PM    PM     PM  PM   PM
|----------------------------------------------------------------|
|----------------------------------------------------------------|
|----------------------------------------------------------------|
|---7S9---9S10---7---7S9---9S10---7---7S9---9S10---7-------------|
|---5S7---7S=8---5---5S7---7S=8---5---5S7---7S=8---5---8---------|
|-0-----0------0---0-----0------0---0-----0------0---0-6--0-/----|


Verse
Both Gtrs
play 3 times
  PM  PM|      PM--|   PM|      PM--|   PM|      PM----------------|    PM
|------------------------------------------------------------------|
|------------------------------------------------------------------|
|------------------------------------------------------------------|
|---9-----9S10-------9-----9S10-------9-----9S10-------------------|
|---7-----7S=8-------7-----7S=8-------7-----7S=8-------8-----------|
|-0---0-0------0-0-0---0-0------0-0-0---0-0------0-0-0-6--0-/------|


4th time
  PM  PM|      PM--|   PM|      PM--|   PM|      PM----------------|    PM
|------------------------------------------------------------------|
|------------------------------------------------------------------|
|------------------------------------------------------------------|
|---9-----9S10-------9-----9S10-------9-----9S10-------------------|
|---7-----7S=8-------7-----7S=8-------7-----7S=8-------8----3------|
|-0---0-0------0-0-0---0-0------0-0-0---0-0------0-0-0-6--0-1------|


Chorus
Both Gtrs
                    PM----------------------------------|
|-------------------------------------------------------|
|-------------------------------------------------------|
|-------------------------------------------------------|
|----------------7--------------------------------------|
|-5-----5--3--2--5--------------------------------------|
|-3-----3--1--0-----0--0-0-0-0-0-0-0-0-0-0-0-0-0-0------|


                    PM---------------------------------------|
|------------------------------------------------------------|
|------------------------------------------------------------|
|------------------------------------------------------------|
|----------------7-------------------------------------| /3\-| triplets
|-5-----5--3--2--5--------------------------/-3-\------------|
|-3-----3--1--0-----0-0-0-0-0-0-0-0-0-0-0-0-0-0-0-0----------|


                    PM------------|     PM  PM-----------|
|--------------------------------------------------------|
|--------------------------------------------------------|
|--------------------------------------------------------|
|----------------7---------------------------------------|
|-5-----5--3--2--5----------5-7-7-7-7p5---5--------------|
|-3-----3--1--0-----0-0-5-7-------------7---7-6-5-0------|


|--------------------|
|--------------------|
|--------------------|
|---------------7----|
|-5-------3--2--5----|
|-3-------1--0-------|


Gtr 1, Gtr 2 accentuates parts
  PM----------------|     PM-------------|
|----------------------------------------|
|----------------------------------------|
|----------------------------------------|
|----------------------------------------|
|---------------------3p2-----3p2p0------|
|-3-0-0-3-0-0-3-0-0-0-----3-0------------|


  PM----------------|     PM--------|
|-----------------------------------|
|-----------------------------------|
|-----------------------------------|
|-----------------------------------|
|---------------------3p2-----------|
|-3-0-0-3-0-0-3-0-0-0-----3-0-\-----|


Both Gtrs
    PM    PM     PM  PM    PM     PM  PM    PM     PM  PM   PM
|------------------------------------------------------------------|
|------------------------------------------------------------------|
|------------------------------------------------------------------|
|-7---7S9---9S10---7---7S9---9S10---7---7S9---9S10---7-------------|
|-5---5S7---7S=8---5---5S7---7S=8---5---5S7---7S=8---5---8---------|
|---0-----0------0---0-----0------0---0-----0------0---0-6--0-/----|


  PM    PM     PM  PM    PM     PM  PM    PM     PM  PM   PM
|----------------------------------------------------------------|
|----------------------------------------------------------------|
|----------------------------------------------------------------|
|---7S9---9S10---7---7S9---9S10---7---7S9---9S10---7-------------|
|---5S7---7S=8---5---5S7---7S=8---5---5S7---7S=8---5---8---------|
|-0-----0------0---0-----0------0---0-----0------0---0-6--0-/----|


Repeat Verse
Repeat Chorus


Both Gtrs, Gtr 3 Lead (to be added)
|------------------------|
|------------------------|
|------------------------|
|------------------------|
|-2---------2------------|
|-0---------0-------\----|


Both Gtrs
  PM---------------------------------------------------------------|
|------------------------------------------------------------------|
|------------------------------------------------------------------|
|---------------------------------------------------------6-7------|
|---------------------------------------------------------7-7------|
|------------------------------------------------------------------|
|-7-7-7-7-7-7-7-7-7-7-7-7-7-7-7-7-7-7-7-7-7-7-7-7-7-7-7-7----------|


  PM-------------------------------------------------------------------|
|----------------------------------------------------------------------|
|----------------------------------------------------------------------|
|----------------------------------------------------------------------|
|----------------------------------------------------------------------|
|----------------------------------------------------------------------|
|-7-7-7-7-7-7-7-7-7-7-7-7-7-7-7-7-7-7-7-7-7-7-7-7-7-\-\-\-\-\-\-\------|


  PM----------------------------------------------------------------|
|-------------------------------------------------------------------|
|-------------------------------------------------------------------|
|-------------------------------------------------------------------|
|-----------------------------------------------------------10------|
|------------------------------------------------------------8------|
|-0-0-0-0-0-0-0-0-0-0-0-0-0-0-0-0-0-0-0-0-0-0-0-0-0-0-0-0-0---------|


  PM---------------------------------------------------------------|
|------------------------------------------------------------------|
|------------------------------------------------------------------|
|---------------------------------------------------------6-7------|
|---------------------------------------------------------7-7------|
|------------------------------------------------------------------|
|-7-7-7-7-7-7-7-7-7-7-7-7-7-7-7-7-7-7-7-7-7-7-7-7-7-7-7-7----------|


Both Gtrs
                   PM----------------------------------|
|------------------------------------------------------|
|------------------------------------------------------|
|------------------------------------------------------|
|---------------7--------------------------------------|
|-5-------3--2--5--------------------------------------|
|-3-------1--0-----0--0-0-0-0-0-0-0-0-0-0-0-0-0-0------|


                   PM---------------------------|
|-----------------------------------------------|
|-----------------------------------------------|
|-----------------------------------------------|
|---------------7-------------------------------|
|-5-------3--2--5-------------------------------|
|-3-------1--0-----0-0-0-0-0-0-0-0-0--0--0------|


                    PM------------|     PM  PM----------|
|-------------------------------------------------------|
|-------------------------------------------------------|
|-------------------------------------------------------|
|----------------7--------------------------------------|
|-5-------3--2--5----------5-7-7-7-7p5---5--------------|
|-3-------1--0-----0-0-5-7-------------7---7-6-5-0------|


|--------------------|
|--------------------|
|--------------------|
|---------------7----|
|-5-------3--2--5----|
|-3-------1--0-------|


Gtr 1, Gtr 2 accentuates parts
  PM----------------|     PM-------------|
|----------------------------------------|
|----------------------------------------|
|----------------------------------------|
|----------------------------------------|
|---------------------3p2-----3p2p0------|
|-3-0-0-3-0-0-3-0-0-0-----3-0------------|


  PM----------------|     PM--------|
|-----------------------------------|
|-----------------------------------|
|-----------------------------------|
|-----------------------------------|
|---------------------3p2-----------|
|-3-0-0-3-0-0-3-0-0-0-----3-0-\-----|


Repeat Verse
Repeat Chorus


Both Gtrs
  PM-------------------------------------------------------------------|
|----------------------------------------------------------------------|
|----------------------------------------------------------------------|
|----------------------------------------------------------------------|
|----------------------------------------------------------------------|
|----------------------------------------------------------------------|
|-3-0-0-0-0-0-0-0-3-0-0-0-0-0-0-0-3-0-0-0-0-0-0-0-3-0-3-0-3-0-0-0------|


  PM-------------------------------------------------------------------|
|----------------------------------------------------------------------|
|----------------------------------------------------------------------|
|----------------------------------------------------------------------|
|----------------------------------------------------------------------|
|----------------------------------------------------------------------|
|-3-0-0-0-0-0-0-0-3-0-0-0-0-0-0-0-3-0-0-0-3-0-0-0-3-0-0-0-6-5-3-0------|


  PM-------------------------------------------------------------------|
|----------------------------------------------------------------------|
|----------------------------------------------------------------------|
|----------------------------------------------------------------------|
|----------------------------------------------------------------------|
|----------------------------------------------------------------------|
|-3-0-0-0-6-5-3-0-3-0-0-0-6-5-3-0-3-0-0-0-6-5-3-0-3-0-0-0-6-5-3-0------|


  PM-------------------------------------------------------------------|
|----------------------------------------------------------------------|
|----------------------------------------------------------------------|
|----------------------------------------------------------------------|
|----------------------------------------------------------------------|
|----------------------------------------------------------------------|
|-3-0-0-0-6-5-3-0-3-0-0-0-6-5-3-0-3-0-0-0-6-5-3-0-3-0-0-0-6-5-3-0------|


|---------|
|---------|
|---------|
|-----3---|
|---------|
|--1------|


Gtr 1
  PM--|
|---------------|
|---------------|
|---------------|
|-------9--9\---|
|-------7--7\---|
|-0-0-0---------|


Gtr 2
  PM--|
|-----------------|
|-----------------|
|-----------------|
|-------12--12\---|
|-------10--10\---|
|-0-0-0-----------|


Tablature Legend
----------------
 h   - hammer-on
 p   - pull-off
 b   - bend
 pb  - pre-bend
 r   - bend release (if no number after the r, then release immediately)
 /\  - slide into or out of (from/to "nowhere")
 s   - legato slide
 S   - shift slide
  - natural harmonic
[n]  - artificial harmonic
n(n) - tapped harmonic
 ~   - vibrato
 tr  - trill
 T   - tap
 TP  - trem. picking
 PM  - palm muting
\n/  - tremolo bar dip; n = amount to dip
 \n  - tremolo bar down
 n/  - tremolo bar up
/n\  - tremolo bar inverted dip
 =   - hold bend; also acts as connecting device for hammers/pulls
 <>  - volume swell (louder/softer)
 x   - on rhythm slash represents muted slash
 o   - on rhythm slash represents single note slash

Misc Legend
-----------
 |  - bar
||  - double bar
||o - repeat start
o|| - repeat end
*|  - double bar (ending)
 :  - bar (freetime)
 $  - Segno
 &  - Coda
Tempo markers -  = BPM(8/16=s8/s16), where s8 = swing 8ths, s16 = swing 16ths
comments
We did not receive enough feedback on this tab! Please rate:
print report bad tab
1 2 3 4 5
I want to post or [tab]
guest
You may want to rate the tab now too:
select rating
Please do not post tabs as comments. Select "correction" instead!