Oops, an error
Loading. Please wait.

Welcome To Sludge City Tab

ver1
ver1

Album

Whole song

Interactive

More versions @911Tabs.com
2,313 views 1 this week
4 commentsread comments
1 2 3 4 5
excellent!
x 1
add to favorites launch autoscroll
font size
0
reset
Autoscroll
+/-
esc
set tempo
stop
Contributor
Difficulty
Tuning
novice
B F# B E G# C#
WARNING: You are trying to view
                                    content from Ultimate-Guitar.com
                                    in an unauthorized application,
                                    which is prohibited.

                                    Please use an official Ultimate
                                    Guitar Tabs application for iPhone,
                                    iPad or Android to access legitimate
                                    chords, guitar, bass, and drum tabs
                                    from Ultimate-Guitar.com database.

                                    Type "ultimate guitar tabs" in Apple
                                    App Store's or Android Market's
                                    search to find the application.
                    As recorded by Annotations Of An Autopsy
                   (The 2006 Album WELCOME TO SLUDGE CITY EP)

Words by Steve Regan

Music by Annotations Of An Autopsy
Transcribed by Patsyxcore

Gtr I (B Gb B E Ab Db) - 'Untitled'
Gtr II (B Gb B E Ab Db) - 'Untitled'

 Awaiting the Autopsy
  Q=40
  N.C.
 4/4
  Gtr I
  Wx14
|---------||
|---------||
|---------||
|---------||
|---------||
|---------||

 Welcome To Sludge City
 Intro         "She bled from..."
  Q=146
  N.C.          D5              N.C.
  Gtr I
  Wx2           Q  E E Q  E E   S S S S S S S S S S S S S S S S
|------------||---------------|----------------------------------|
|------------||---------------|----------------------------------|
|------------||---------------|----------------------------------|
|------------||---------------|----------------------------------|
|------------||-0--0-0-0--0-0-|-8-8-8-8-8-8-8-8-7-7-7-7-5-5-5-5--|
|------------||-0--0-0-0--0-0-|----------------------------------|
|
| Gtr II
| Wx2           Q  E E Q  E E   S S S S S S S S S S S S S S S S
|------------||---------------|----------------------------------|
|------------||---------------|----------------------------------|
|------------||---------------|----------------------------------|
|------------||---------------|----------------------------------|
|------------||-0--0-0-0--0-0-|-8-8-8-8-8-8-8-8-7-7-7-7-5-5-5-5--|
|------------||-0--0-0-0--0-0-|----------------------------------|


  D5              N.C.
  Q  E E Q  E E   S S S S S S S S S S S S  S  S  S  S
|---------------|-------------------------------------|
|---------------|-------------------------------------|
|---------------|-------------------------------------|
|---------------|-------------------------------------|
|-0--0-0-0--0-0-|-8-8-8-8-8-8-8-8-7-7-7-7-10-10-10-10-|
|-0--0-0-0--0-0-|-------------------------------------|
|
| Q  E E Q  E E   S S S S S S S S S S S S  S  S  S  S
|---------------|-------------------------------------|
|---------------|-------------------------------------|
|---------------|-------------------------------------|
|---------------|-------------------------------------|
|-0--0-0-0--0-0-|-8-8-8-8-8-8-8-8-7-7-7-7-10-10-10-10-|
|-0--0-0-0--0-0-|-------------------------------------|


  N.C.
  Q  E E Q  E E   S S S S S S S S S S S S S S S S
|---------------|---------------------------------|
|---------------|---------------------------------|
|---------------|---------------------------------|
|---------------|---------------------------------|
|-0--0-0-0--0-0-|-8-8-8-8-8-8-8-8-7-7-7-7---------|
|-1--1-1-1--1-1-|-------------------------8-8-8-8-|
|
| Q  E E Q  E E   S S S S S S S S S S S S S S S S
|---------------|---------------------------------|
|---------------|---------------------------------|
|---------------|---------------------------------|
|---------------|---------------------------------|
|-0--0-0-0--0-0-|-8-8-8-8-8-8-8-8-7-7-7-7---------|
|-1--1-1-1--1-1-|-------------------------8-8-8-8-|


  N.C.
  Q  E E Q  E E   S S S S S S S S  S  S S S S S S S
|---------------|-----------------------------------|
|---------------|-----------------------------------|
|---------------|-----------------------------------|
|---------------|-----------------------------------|
|-0--0-0-0--0-0-|-8-8-7-7---------10-10-8-8-7-7-----|
|-1--1-1-1--1-1-|---------8-8-8-8---------------8-8-|
|
| Q  E E Q  E E   S S S S S S S S  S  S S S S S S S
|---------------|-----------------------------------|
|---------------|-----------------------------------|
|---------------|-----------------------------------|
|---------------|-----------------------------------|
|-0--0-0-0--0-0-|-8-8-7-7---------10-10-8-8-7-7-----|
|-1--1-1-1--1-1-|---------8-8-8-8---------------8-8-|


  Q=101           Q=146
  D5              N.C.
  Q  E E Q  E E   S S S S S S S S S S S S S S S S
|---------------|---------------------------------|
|---------------|---------------------------------|
|---------------|---------------------------------|
|---------------|---------------------------------|
|-0--0-0-0--0-0-|-8-8-8-8-8-8-8-8-7-7-7-7-5-5-5-5-|
|-0--0-0-0--0-0-|---------------------------------|
|
| Q  E E Q  E E   S S S S S S S S S S S S S S S S
|---------------|---------------------------------|
|---------------|---------------------------------|
|---------------|---------------------------------|
|---------------|---------------------------------|
|-0--0-0-0--0-0-|-8-8-8-8-8-8-8-8-7-7-7-7-5-5-5-5-|
|-0--0-0-0--0-0-|---------------------------------|


  Q=101           Q=146
  D5              N.C.
  Q  E E Q  E E   S S S S S S S S S S S S  S  S  S  S
|---------------|-------------------------------------|
|---------------|-------------------------------------|
|---------------|-------------------------------------|
|---------------|-------------------------------------|
|-0--0-0-0--0-0-|-8-8-8-8-8-8-8-8-7-7-7-7-10-10-10-10-|
|-0--0-0-0--0-0-|-------------------------------------|
|
| Q  E E Q  E E   S S S S S S S S S S S S  S  S  S  S
|---------------|-------------------------------------|
|---------------|-------------------------------------|
|---------------|-------------------------------------|
|---------------|-------------------------------------|
|-0--0-0-0--0-0-|-8-8-8-8-8-8-8-8-7-7-7-7-10-10-10-10-|
|-0--0-0-0--0-0-|-------------------------------------|


  Q=101           Q=146
  N.C.
  Q  E E Q  E E   S S S S S S S S S S S S S S S S
|---------------|---------------------------------|
|---------------|---------------------------------|
|---------------|---------------------------------|
|---------------|---------------------------------|
|-0--0-0-0--0-0-|-8-8-8-8-8-8-8-8-7-7-7-7---------|
|-1--1-1-1--1-1-|-------------------------8-8-8-8-|
|
| Q  E E Q  E E   S S S S S S S S S S S S S S S S
|---------------|---------------------------------|
|---------------|---------------------------------|
|---------------|---------------------------------|
|---------------|---------------------------------|
|-0--0-0-0--0-0-|-8-8-8-8-8-8-8-8-7-7-7-7---------|
|-1--1-1-1--1-1-|-------------------------8-8-8-8-|


  Q=101           Q=146
  N.C.
  Q  E E Q  E E   S S S S S S S S  S  S S S S S S S
|---------------|-----------------------------------||
|---------------|-----------------------------------||
|---------------|-----------------------------------||
|---------------|-----------------------------------||
|-0--0-0-0--0-0-|-8-8-7-7---------10-10-8-8-7-7-----||
|-1--1-1-1--1-1-|---------8-8-8-8---------------8-8-||
|
| Q  E E Q  E E   S S S S S S S S  S  S S S S S S S
|---------------|-----------------------------------||
|---------------|-----------------------------------||
|---------------|-----------------------------------||
|---------------|-----------------------------------||
|-0--0-0-0--0-0-|-8-8-7-7---------10-10-8-8-7-7-----||
|-1--1-1-1--1-1-|---------8-8-8-8---------------8-8-||


   "First step, rip..."
    N.C.
    S S S S S S S S S S S S S S S S   S S S S S S S S S S S S S S S S
||----------------------------------|-----------------------------------||
||o---------------------------------|----------------------------------o||
||----------------------------------|-----------------------------------||
||----------------------------------|-----------------------------------||
||o-3-3-2-2-----5-5-3-3-------------|-3-3-2-2-----5-5-3-3--------------o||
||----------3-3---------3-3-2-2-2-2-|---------3-3---------3-3-2-2-2-2---||
|
|   W                                 W
||----------------------------------|-----------------------------------||
||o---------------------------------|----------------------------------o||
||----------------------------------|-----------------------------------||
||----------------------------------|-----------------------------------||
||o---------------------------------|----------------------------------o||
||----------------------------------|-----------------------------------||


    N.C.
    S S S S S S S S S S S S S S S S   S S S S S S S S S S S S S S S S
||----------------------------------|-----------------------------------||
||o---------------------------------|----------------------------------o||
||----------------------------------|-----------------------------------||
||----------------------------------|-----------------------------------||
||o-3-3-2-2-----5-5-3-3-------------|-3-3-2-2-----5-5-3-3--------------o||
||----------3-3---------3-3-2-2-2-2-|---------3-3---------3-3-2-2-2-2---||
|
|   S S S S S S S S S S S S S S S S   S S S S S S S S S S S S S S S S
||----------------------------------|-----------------------------------||
||o---------------------------------|----------------------------------o||
||----------------------------------|-----------------------------------||
||----------------------------------|-----------------------------------||
||o-3-3-2-2-----5-5-3-3-------------|-3-3-2-2-----5-5-3-3--------------o||
||----------3-3---------3-3-2-2-2-2-|---------3-3---------3-3-2-2-2-2---||


 "I'm sick and..."
  F5E5D5G5F5E5F5E5  F5E5D5G5F5E5F5E5
  E E E E E E E E   E E E E E E E E
|-----------------|-----------------|
|-----------------|-----------------|
|-----------------|-----------------|
|-----------------|-----------------|
|-3-2-0-5-3-2-3-2-|-3-2-0-5-3-2-3-2-|
|-3-2-0-5-3-2-3-2-|-3-2-0-5-3-2-3-2-|
|
| E E E E E E E E   E E E E E E E E
|-----------------|-----------------|
|-----------------|-----------------|
|-----------------|-----------------|
|-----------------|-----------------|
|-3-2-0-5-3-2-3-2-|-3-2-0-5-3-2-3-2-|
|-3-2-0-5-3-2-3-2-|-3-2-0-5-3-2-3-2-|


  F5E5D5G5F5E5F5E5  F5E5D5G5F5E5N.C.
                                 ~~~
  E E E E E E E E   E E E E E E  Q
|-----------------|------------------|
|-----------------|------------------|
|-----------------|------------------|
|-----------------|------------------|
|-3-2-0-5-3-2-3-2-|-3-2-0-5-3-2-[3]--|
|-3-2-0-5-3-2-3-2-|-3-2-0-5-3-2------|
|
|                                ~~~
| E E E E E E E E   E E E E E E  Q
|-----------------|------------------|
|-----------------|------------------|
|-----------------|------------------|
|-----------------|------------------|
|-3-2-0-5-3-2-3-2-|-3-2-0-5-3-2-[3]--|
|-3-2-0-5-3-2-3-2-|-3-2-0-5-3-2------|


  F5E5D5G5F5E5F5E5  F5E5D5G5F5E5F5E5
  E E E E E E E E   E E E E E E E E
|-----------------|-----------------|
|-----------------|-----------------|
|-----------------|-----------------|
|-----------------|-----------------|
|-3-2-0-5-3-2-3-2-|-3-2-0-5-3-2-3-2-|
|-3-2-0-5-3-2-3-2-|-3-2-0-5-3-2-3-2-|
|
| E E E E E E E E   E E E E E E E E
|-----------------|-----------------|
|-----------------|-----------------|
|-----------------|-----------------|
|-----------------|-----------------|
|-3-2-0-5-3-2-3-2-|-3-2-0-5-3-2-3-2-|
|-3-2-0-5-3-2-3-2-|-3-2-0-5-3-2-3-2-|


  F5E5D5G5F5E5F5E5  F5E5D5G5F5E5N.C.
                                 ~~~
  E E E E E E E E   E E E E E E  Q
|-----------------|------------------|
|-----------------|------------------|
|-----------------|------------------|
|-----------------|------------------|
|-3-2-0-5-3-2-3-2-|-3-2-0-5-3-2------|
|-3-2-0-5-3-2-3-2-|-3-2-0-5-3-2-[3]--|
|
|                                ~~~
| E E E E E E E E   E E E E E E  Q
|-----------------|------------------|
|-----------------|------------------|
|-----------------|------------------|
|-----------------|------------------|
|-3-2-0-5-3-2-3-2-|-3-2-0-5-3-2------|
|-3-2-0-5-3-2-3-2-|-3-2-0-5-3-2-[3]--|


  F5E5D5G5F5E5     F5E5D5G5F5E5F5E5
  E E E E E E Q    E E E E E E E E
|----------------|-----------------|
|----------------|-----------------|
|----------------|-----------------|
|----------------|-----------------|
|-3-2-0-5-3-2----|-3-2-0-5-3-2-3-2-|
|-3-2-0-5-3-2----|-3-2-0-5-3-2-3-2-|
|
| E E E E E E Q    E E E E E E E E
|----------------|-----------------|
|----------------|-----------------|
|----------------|-----------------|
|----------------|-----------------|
|-3-2-0-5-3-2----|-3-2-0-5-3-2-3-2-|
|-3-2-0-5-3-2----|-3-2-0-5-3-2-3-2-|


  F5E5D5G5F5E5     F5E5D5G5F5E5F5E5
  E E E E E E Q    E E E E E E E E
|----------------|-----------------|
|----------------|-----------------|
|----------------|-----------------|
|----------------|-----------------|
|-3-2-0-5-3-2----|-3-2-0-5-3-2-3-2-|
|-3-2-0-5-3-2----|-3-2-0-5-3-2-3-2-|
|
| E E E E E E Q    E E E E E E E E
|----------------|-----------------|
|----------------|-----------------|
|----------------|-----------------|
|----------------|-----------------|
|-3-2-0-5-3-2----|-3-2-0-5-3-2-3-2-|
|-3-2-0-5-3-2----|-3-2-0-5-3-2-3-2-|


  D5
  W          +W
|----------|--------||
|----------|--------||
|----------|--------||
|-0--------|-(0)----||
|-0--------|-(0)----||
|-0--------|-(0)----||
|
| W          +W
|----------|--------||
|----------|--------||
|----------|--------||
|-0--------|-(0)----||
|-0--------|-(0)----||
|-0--------|-(0)----||


   "Disembowel her..."
    N.C.
    E E E E S S S S S S S S   S S S S S S S S S S S S S S S S
||--------------------------|---------------------------------|
||o-------------------------|---------------------------------|
||--------------------------|---------------------------------|
||--------------------------|---------------------------------|
||o-0-0-0-0-2-2-2-2-2-2-2-2-|-3-3-3-3-3-3-3-3-----------------|
||--1-1-1-1-----------------|-----------------3-3-3-3-3-3-3-3-|
|
|   E E E E S S S S S S S S   S S S S S S S S S S S S S S S S
||--------------------------|---------------------------------|
||o-------------------------|---------------------------------|
||--------------------------|---------------------------------|
||--------------------------|---------------------------------|
||o-0-0-0-0-2-2-2-2-2-2-2-2-|-3-3-3-3-3-3-3-3-----------------|
||--1-1-1-1-----------------|-----------------3-3-3-3-3-3-3-3-|


  N.C.
  S S S S S S S S E E E E   S S S S S S S S S S S S S S S S
|-------------------------|----------------------------------||
|-------------------------|---------------------------------o||
|-------------------------|----------------------------------||
|-------------------------|----------------------------------||
|-----------------0-0-0-0-|-3-3-3-3-2-2-2-2-6-6-6-6-5-5-5-5-o||
|-3-3-3-3-3-3-3-3-1-1-1-1-|----------------------------------||
|
| S S S S S S S S E E E E   S S S S S S S S S S S S S S S S
|-------------------------|----------------------------------||
|-------------------------|---------------------------------o||
|-------------------------|----------------------------------||
|-------------------------|----------------------------------||
|-----------------0-0-0-0-|-3-3-3-3-2-2-2-2-6-6-6-6-5-5-5-5-o||
|-3-3-3-3-3-3-3-3-1-1-1-1-|----------------------------------||


   "When I'm done..."
    D5                              N.C.    D5        F5 E5 Ab5G5
    E E H.        +W           +Q   S S S S E E E E   Q  Q  Q  Q
||--------------|------------|----------------------|---------------||
||o-------------|------------|----------------------|--------------o||
||--------------|------------|----------------------|---------------||
||--------------|------------|----------------------|---------------||
||o-0-0-0-------|-(0)--------|-(0)----------0-0-0-0-|-3--2--6--5---o||
||--0-0-0-------|-(0)--------|-(0)--0-0-0-0-0-0-0-0-|-3--2--6--5----||
|
|   E E H.        +W           +Q   S S S S E E E E   Q  Q  Q  Q
||--------------|------------|----------------------|---------------||
||o-------------|------------|----------------------|--------------o||
||--------------|------------|----------------------|---------------||
||--------------|------------|----------------------|---------------||
||o-0-0-0-------|-(0)--------|-(0)----------0-0-0-0-|-3--2--6--5---o||
||--0-0-0-------|-(0)--------|-(0)--0-0-0-0-0-0-0-0-|-3--2--6--5----||


   Outro
    N.C.
    E E E E E E E E   E E E E E E E E
||------------------|------------------||
||o-----------------|-----------------o||
||------------------|------------------||
||------------------|------------------||
||o-2-2-2-2-2-2-2-2-|-1-1-1-1-0-0-0-0-o||
||--3-3-3-3-3-3-3-3-|-2-2-2-2-1-1-1-1--||
|
|   E E E E E E E E   E E E E E E E E
||------------------|------------------||
||o-----------------|-----------------o||
||------------------|------------------||
||------------------|------------------||
||o-2-2-2-2-2-2-2-2-|-1-1-1-1-0-0-0-0-o||
||--3-3-3-3-3-3-3-3-|-2-2-2-2-1-1-1-1--||


    N.C.
    S S S S S S S S S S S S S S S S   S S S S S S S S S S S S S S S S
||----------------------------------|-----------------------------------||
||o---------------------------------|----------------------------------o||
||----------------------------------|-----------------------------------||
||----------------------------------|-----------------------------------||
||o---------------------------------|----------------------------------o||
||--3-3-3-3-3-3-3-3-3-3-3-3-3-3-3-3-|-2-2-2-2-2-2-2-2-1-1-1-1-1-1-1-1---||
|
|   S S S S S S S S S S S S S S S S   S S S S S S S S S S S S S S S S
||----------------------------------|-----------------------------------||
||o---------------------------------|----------------------------------o||
||----------------------------------|-----------------------------------||
||----------------------------------|-----------------------------------||
||o---------------------------------|----------------------------------o||
||--3-3-3-3-3-3-3-3-3-3-3-3-3-3-3-3-|-2-2-2-2-2-2-2-2-1-1-1-1-1-1-1-1---||


    N.C.
    E E E E S S S S E E   E E S S S S E E S S S S  3x
||----------------------|--------------------------||
||o---------------------|-------------------------o||
||----------------------|--------------------------||
||----------------------|--------------------------||
||o-2-2-2-2-2-2-2-2-1-1-|-1-1-1-1-1-1-0-0-4-4-4-4-o||
||--3-3-3-3---------2-2-|-2-2---------1-1----------||
|
|   E E E E S S S S E E   E E S S S S E E S S S S  3x
||----------------------|--------------------------||
||o---------------------|-------------------------o||
||----------------------|--------------------------||
||----------------------|--------------------------||
||o-2-2-2-2-2-2-2-2-1-1-|-1-1-1-1-1-1-0-0-4-4-4-4-o||
||--3-3-3-3---------2-2-|-2-2---------1-1----------||


  H.=H
  N.C.
  E E E E S S S S E E   E E S S S S E E S S S S
|---------------------|-------------------------|
|---------------------|-------------------------|
|---------------------|-------------------------|
|---------------------|-------------------------|
|-2-2-2-2-2-2-2-2-1-1-|-1-1-1-1-1-1-0-0-4-4-4-4-|
|-3-3-3-3---------2-2-|-2-2---------1-1---------|
|
| E E E E S S S S E E   E E S S S S E E S S S S
|---------------------|-------------------------|
|---------------------|-------------------------|
|---------------------|-------------------------|
|---------------------|-------------------------|
|-2-2-2-2-2-2-2-2-1-1-|-1-1-1-1-1-1-0-0-4-4-4-4-|
|-3-3-3-3---------2-2-|-2-2---------1-1---------|


    Q=101
    N.C.
    E E E E S S S S E E   E E S S S S E E S S S S  4x
||----------------------|--------------------------||
||o---------------------|-------------------------o||
||----------------------|--------------------------||
||----------------------|--------------------------||
||o-2-2-2-2-2-2-2-2-1-1-|-1-1-1-1-1-1-0-0-4-4-4-4-o||
||--3-3-3-3---------2-2-|-2-2---------1-1----------||
|
|   E E E E S S S S E E   E E S S S S E E S S S S  4x
||----------------------|--------------------------||
||o---------------------|-------------------------o||
||----------------------|--------------------------||
||----------------------|--------------------------||
||o-2-2-2-2-2-2-2-2-1-1-|-1-1-1-1-1-1-0-0-4-4-4-4-o||
||--3-3-3-3---------2-2-|-2-2---------1-1----------||


  Q=146
  N.C.
  E E Q  H      Wx4
|-------------|--------||
|-------------|--------||
|-------------|--------||
|-------------|--------||
|-2-----------|--------||
|-3-----------|--------||
|
| E E Q  H      Wx4
|-------------|--------||
|-------------|--------||
|-------------|--------||
|-------------|--------||
|-2-----------|--------||
|-3-----------|--------||

 Gore Gore Gadget
   Intro
    D5     N.C.                  D5     N.C.
    E E Q  S S  S  S  S  S S S   E E Q  S S  S  S  S  S S S
||-----------------------------|----------------------------|
||o----------------------------|----------------------------|
||-----------------------------|----------------------------|
||-----------------------------|----------------------------|
||o-0-0-0--8-8-11-11-10-10-7-7-|-0-0-0--8-8-11-11-10-10-7-7-|
||--0-0-0----------------------|-0-0-0----------------------|
|
|   E E Q  S S  S  S  S  S S S   E E Q  S S  S  S  S  S S S
||-----------------------------|----------------------------|
||o----------------------------|----------------------------|
||-----------------------------|----------------------------|
||-----------------------------|----------------------------|
||o-0-0-0--8-8-11-11-10-10-7-7-|-0-0-0--8-8-11-11-10-10-7-7-|
||--0-0-0----------------------|-0-0-0----------------------|


  D5     N.C.
  E E Q  S S  S  S  S  S S S   S S  S  S  S  S S S  S  S S S  S  S  S  S
|----------------------------|--------------------------------------------||
|----------------------------|-------------------------------------------o||
|----------------------------|--------------------------------------------||
|----------------------------|---------------------10-10-9-9--------------||
|-0-0-0--8-8-11-11-10-10-7-7-|-8-8-11-11-10-10-7-7-----------11-11-11-11-o||
|-0-0-0----------------------|--------------------------------------------||
|
| E E Q  S S  S  S  S  S S S   S S  S  S  S  S S S  S  S S S  S  S  S  S
|----------------------------|--------------------------------------------||
|----------------------------|-------------------------------------------o||
|----------------------------|--------------------------------------------||
|----------------------------|---------------------10-10-9-9--------------||
|-0-0-0--8-8-11-11-10-10-7-7-|-8-8-11-11-10-10-7-7-----------11-11-11-11-o||
|-0-0-0----------------------|--------------------------------------------||


 Trem. Part I
  N.C.
  Wx2            S S S S S S S S S S S S S S S S
|------------||----------------------------------|
|------------||o---------------------------------|
|------------||----------------------------------|
|------------||----------------------------------|
|------------||o---------------------------------|
|------------||--8-8-8-8-8-8-8-8-7-7-7-7-8-8-8-8-|
|
| Wx2            S S S S S S S S S S S S S S S S
|------------||----------------------------------|
|------------||o---------------------------------|
|------------||----------------------------------|
|------------||----------------------------------|
|------------||o---------------------------------|
|------------||--8-8-8-8-8-8-8-8-7-7-7-7-8-8-8-8-|


   S  S  S  S  S  S S S S S S S S S S S
|-----------------------------------------|
|-----------------------------------------|
|-----------------------------------------|
|-----------------------------------------|
|-----------------------------------------|
|-10-10-10-10-10-10-8-8-7-7-7-7-7-7-7-7---|
|
|  S  S  S  S  S  S S S S S S S S S S S
|-----------------------------------------|
|-----------------------------------------|
|-----------------------------------------|
|-----------------------------------------|
|-----------------------------------------|
|-10-10-10-10-10-10-8-8-7-7-7-7-7-7-7-7---|


  N.C.
  S S S S S S S S S S S S S S S S    S  S  S  S  S  S S S S S S S S S S S
|---------------------------------|---------------------------------------|
|---------------------------------|---------------------------------------|
|---------------------------------|---------------------------------------|
|---------------------------------|---------------------------------------|
|---------------------------------|---------------------------------------|
|-8-8-8-8-8-8-8-8-7-7-7-7-8-8-8-8-|-10-10-10-10-10-10-8-8-7-7-7-7-7-7-7-7-|
|
| S S S S S S S S S S S S S S S S    S  S  S  S  S  S S S S S S S S S S S
|---------------------------------|---------------------------------------|
|---------------------------------|---------------------------------------|
|---------------------------------|---------------------------------------|
|---------------------------------|---------------------------------------|
|---------------------------------|---------------------------------------|
|-8-8-8-8-8-8-8-8-7-7-7-7-8-8-8-8-|-10-10-10-10-10-10-8-8-7-7-7-7-7-7-7-7-|


  N.C.
  S S S S S S S S S S S S S S S S   S S S S S S S S S S S S S S S S
|---------------------------------|---------------------------------|
|---------------------------------|---------------------------------|
|---------------------------------|---------------------------------|
|---------------------------------|---------------------------------|
|---------------------------------|---------------------------------|
|-5-5-5-5-5-5-5-5-3-3-3-3-2-2-2-2-|-3-3-3-3-3-3-2-2-0-0-0-0-0-0-0-0-|
|
| S S S S S S S S S S S S S S S S   S S S S S S S S S S S S S S S S
|---------------------------------|---------------------------------|
|---------------------------------|---------------------------------|
|---------------------------------|---------------------------------|
|---------------------------------|---------------------------------|
|---------------------------------|---------------------------------|
|-5-5-5-5-5-5-5-5-3-3-3-3-2-2-2-2-|-3-3-3-3-3-3-2-2-0-0-0-0-0-0-0-0-|


  N.C.
  S S S S S S S S S S S S S S S S   S S S S S S S S S S S S S S S S
|---------------------------------|---------------------------------|
|---------------------------------|---------------------------------|
|---------------------------------|---------------------------------|
|---------------------------------|---------------------------------|
|---------------------------------|---------------------------------|
|-5-5-5-5-5-5-5-5-3-3-3-3-2-2-2-2-|-3-3-3-3-3-3-2-2-0-0-0-0-0-0-0-0-|
|
| S S S S S S S S S S S S S S S S   S S S S S S S S S S S S S S S S
|---------------------------------|---------------------------------|
|---------------------------------|---------------------------------|
|---------------------------------|---------------------------------|
|---------------------------------|---------------------------------|
|---------------------------------|---------------------------------|
|-5-5-5-5-5-5-5-5-3-3-3-3-2-2-2-2-|-3-3-3-3-3-3-2-2-0-0-0-0-0-0-0-0-|


  F5E5D5E5N.C.    F5E5  D5E5N.C.    F5E5D5E5  N.C.  F5E5D5E5
  E E E E S S S S E E   E E S S S S E E E E   Q  Q  E E E E
|---------------------|---------------------|---------------|
|---------------------|---------------------|---------------|
|---------------------|---------------------|-4--3----------|
|---------6-6-6-6-----|-----3-3-3-3---------|-x--x----------|
|-3-2-0-2---------3-2-|-0-2---------3-2-0-2-|-2--1--3-2-0-2-|
|-3-2-0-2---------3-2-|-0-2---------3-2-0-2-|-------3-2-0-2-|
|
| E E E E S S S S E E   E E S S S S E E E E   Q  Q  E E E E
|---------------------|---------------------|---------------|
|---------------------|---------------------|---------------|
|---------------------|---------------------|-4--3----------|
|---------6-6-6-6-----|-----3-3-3-3---------|-x--x----------|
|-3-2-0-2---------3-2-|-0-2---------3-2-0-2-|-2--1--3-2-0-2-|
|-3-2-0-2---------3-2-|-0-2---------3-2-0-2-|-------3-2-0-2-|


  N.C.    F5E5D5E5  N.C.    F5E5D5E5  N.C.
  S S S S E E E E S S S S   E E E E Q  Q
|-------------------------|---------------|
|-------------------------|---------------|
|-------------------------|---------4--3--|
|-6-6-6-6---------3-3-3-3-|---------x--x--|
|---------3-2-0-2---------|-3-2-0-2-2--1--|
|---------3-2-0-2---------|-3-2-0-2-------|
|
| S S S S E E E E S S S S   E E E E Q  Q
|-------------------------|---------------|
|-------------------------|---------------|
|-------------------------|---------4--3--|
|-6-6-6-6---------3-3-3-3-|---------x--x--|
|---------3-2-0-2---------|-3-2-0-2-2--1--|
|---------3-2-0-2---------|-3-2-0-2-------|


                                          1.
  Q  Q  S S S S S S S S   S S S S S S S S H
|-----------------------|-----------------------||
|-----------------------|----------------------o||
|-6--5------------------|-----------------------||
|-x--x------------------|-----------------------||
|-4--3--8-8-8-8-8-8-8-8-|-7-7-7-7-4-4-4-4------o||
|-----------------------|-----------------------||
|
| Q  Q  S S S S S S S S   S S S S S S S S H
|-----------------------|-----------------------||
|-----------------------|----------------------o||
|-6--5------------------|-----------------------||
|-x--x------------------|-----------------------||
|-4--3--8-8-8-8-8-8-8-8-|-7-7-7-7-4-4-4-4------o||
|-----------------------|-----------------------||


  2.
  N.C.
  S S S S S S S S S S S S S S S S    S  S  S  S  S  S S S S S S S S S S S
|---------------------------------|---------------------------------------|
|---------------------------------|---------------------------------------|
|---------------------------------|---------------------------------------|
|---------------------------------|---------------------------------------|
|---------------------------------|---------------------------------------|
|-8-8-8-8-8-8-8-8-7-7-7-7-8-8-8-8-|-10-10-10-10-10-10-8-8-7-7-7-7-7-7-7-7-|
|
| S S S S S S S S S S S S S S S S    S  S  S  S  S  S S S S S S S S S S S
|---------------------------------|---------------------------------------|
|---------------------------------|---------------------------------------|
|---------------------------------|---------------------------------------|
|---------------------------------|---------------------------------------|
|---------------------------------|---------------------------------------|
|-8-8-8-8-8-8-8-8-7-7-7-7-8-8-8-8-|-10-10-10-10-10-10-8-8-7-7-7-7-7-7-7-7-|


  N.C.
  S S S S S S S S S S S S S S S S    S  S  S  S  S  S S S S S S S S S S S
|---------------------------------|---------------------------------------|
|---------------------------------|---------------------------------------|
|---------------------------------|---------------------------------------|
|---------------------------------|---------------------------------------|
|---------------------------------|---------------------------------------|
|-8-8-8-8-8-8-8-8-7-7-7-7-8-8-8-8-|-10-10-10-10-10-10-8-8-7-7-7-7-7-7-7-7-|
|
| S S S S S S S S S S S S S S S S    S  S  S  S  S  S S S S S S S S S S S
|---------------------------------|---------------------------------------|
|---------------------------------|---------------------------------------|
|---------------------------------|---------------------------------------|
|---------------------------------|---------------------------------------|
|---------------------------------|---------------------------------------|
|-8-8-8-8-8-8-8-8-7-7-7-7-8-8-8-8-|-10-10-10-10-10-10-8-8-7-7-7-7-7-7-7-7-|


  N.C.
  S S S S S S S S S S S S S S S S   S S S S S S S S S S S S S S S S
|---------------------------------|---------------------------------|
|---------------------------------|---------------------------------|
|---------------------------------|---------------------------------|
|---------------------------------|---------------------------------|
|---------------------------------|---------------------------------|
|-5-5-5-5-5-5-5-5-3-3-3-3-2-2-2-2-|-3-3-3-3-3-3-2-2-0-0-0-0-0-0-0-0-|
|
| S S S S S S S S S S S S S S S S   S S S S S S S S S S S S S S S S
|---------------------------------|---------------------------------|
|---------------------------------|---------------------------------|
|---------------------------------|---------------------------------|
|---------------------------------|---------------------------------|
|---------------------------------|---------------------------------|
|-5-5-5-5-5-5-5-5-3-3-3-3-2-2-2-2-|-3-3-3-3-3-3-2-2-0-0-0-0-0-0-0-0-|


  N.C.                                              D5
  S S S S S S S S S S S S S S S S   S S S S S S S S H
|---------------------------------|----------------------||
|---------------------------------|----------------------||
|---------------------------------|----------------------||
|---------------------------------|-----------------0----||
|---------------------------------|-----------------0----||
|-5-5-5-5-5-5-5-5-3-3-3-3-2-2-2-2-|-3-3-3-3-3-3-2-2-0----||
|
| S S S S S S S S S S S S S S S S   S S S S S S S S H
|---------------------------------|----------------------||
|---------------------------------|----------------------||
|---------------------------------|----------------------||
|---------------------------------|-----------------0----||
|---------------------------------|-----------------0----||
|-5-5-5-5-5-5-5-5-3-3-3-3-2-2-2-2-|-3-3-3-3-3-3-2-2-0----||


   Breakdown I
    D5          N.CD5    N.C.
                              |-3-| |-3-| |-3-| |-3-|
    S S E S S E  E S S E  E   E E E E E E E E E E E E
||--------------------------|-------------------------|
||o-------------12-------12-|-------------------------|
||--------------15-------15-|-0-3-7-0-3-7-0-3-6-0-3-6-|
||--------------------------|-------------------------|
||o-0-0-0-0-0-0----0-0-0----|-------------------------|
||--0-0-0-0-0-0----0-0-0----|-------------------------|
|
|                             |-3-| |-3-| |-3-| |-3-|
|   S S E S S E  E S S E  E   E E E E E E E E E E E E
||--------------------------|-------------------------|
||o-------------12-------12-|-------------------------|
||--------------15-------15-|-0-3-7-0-3-7-0-3-6-0-3-6-|
||--------------------------|-------------------------|
||o-0-0-0-0-0-0----0-0-0----|-------------------------|
||--0-0-0-0-0-0----0-0-0----|-------------------------|


  D5          N.CD5    N.C. N.C.
                            |-3-| |-3-| |-3-|
  S S E S S E  E S S E  E   E E E E E E E E E E E
|-------------------------|------------------------||
|-------------12-------12-|-----------------------o||
|-------------15-------15-|-0-3-5-0-3-5-0-3-0-3s0--||
|-------------------------|------------------------||
|-0-0-0-0-0-0----0-0-0----|-----------------------o||
|-0-0-0-0-0-0----0-0-0----|------------------------||
|
|                           |-3-| |-3-| |-3-|
| S S E S S E  E S S E  E   E E E E E E E E E E E
|-------------------------|------------------------||
|-------------12-------12-|-----------------------o||
|-------------15-------15-|-0-3-5-0-3-5-0-3-0-3s0--||
|-------------------------|------------------------||
|-0-0-0-0-0-0----0-0-0----|-----------------------o||
|-0-0-0-0-0-0----0-0-0----|------------------------||


  N.C.
  +W            +W
|------------|----------||
|------------|----------||
|-(0)--------|--(0)-----||
|------------|----------||
|------------|----------||
|------------|----------||
|
|  <
|  W            +W
|------------|----------||
|------------|----------||
|-<5>--------|-(<5>)----||
|------------|----------||
|------------|----------||
|------------|----------||


   Breakdown II
    E5 Eb5N.C.D5EbE5  E5 Eb5N.C.D5EbE5
    Q  Q   E  E E E   Q  Q   E  E E E  4x
||------------------|------------------||
||o-----------------|-----------------o||
||------------------|------------------||
||--------[2]-------|-------[1]--------||
||o-2--1------0-1-2-|-2--1------0-1-2-o||
||--2--1------0-1-2-|-2--1------0-1-2--||
|
|   Q  Q   E  E E E   Q  Q   E  E E E  4x
||------------------|------------------||
||o-----------------|-----------------o||
||------------------|------------------||
||--------[2]-------|-------[1]--------||
||o-2--1------0-1-2-|-2--1------0-1-2-o||
||--2--1------0-1-2-|-2--1------0-1-2--||


   Trem. Part II
    N.C.                D5EbE5  N.C.                D5EbE5
    S S S S S S S S  E  E E E   S S S S S S S S  E  E E E  4x
||----------------------------|----------------------------||
||o---------------------------|---------------------------o||
||----------------------------|----------------------------||
||------------------[2]-------|-----------------[1]--------||
||o---------------------0-1-2-|---------------------0-1-2-o||
||--2-2-2-2-1-1-1-1-----0-1-2-|-2-2-2-2-1-1-1-1-----0-1-2--||
|
|   S S S S S S S S  E  E E E   S S S S S S S S  E  E E E  4x
||----------------------------|----------------------------||
||o---------------------------|---------------------------o||
||----------------------------|----------------------------||
||------------------[2]-------|-----------------[1]--------||
||o---------------------0-1-2-|---------------------0-1-2-o||
||--2-2-2-2-1-1-1-1-----0-1-2-|-2-2-2-2-1-1-1-1-----0-1-2--||


    E5 Eb5N.C.D5EbE5  E5 Eb5N.C.D5EbE5
    Q  Q   E  E E E   Q  Q   E  E E E
||------------------|------------------||
||o-----------------|-----------------o||
||------------------|------------------||
||--------[2]-------|-------[1]--------||
||o-2--1------0-1-2-|-2--1------0-1-2-o||
||--2--1------0-1-2-|-2--1------0-1-2--||
|
|   Q  Q   E  E E E   Q  Q   E  E E E
||------------------|------------------||
||o-----------------|-----------------o||
||------------------|------------------||
||--------[2]-------|-------[1]--------||
||o-2--1------0-1-2-|-2--1------0-1-2-o||
||--2--1------0-1-2-|-2--1------0-1-2--||


    D5E5EbE5F#E5EbE5  D5E5EbE5N.C.E5EbN.C.
    E E E E E E E E   E E E E  E  E E  E
||------------------|----------------------||
||o-----------------|---------------------o||
||------------------|----------------------||
||------------------|---------[2]-----[1]--||
||o-0-2-1-2-4-2-1-2-|-0-2-1-2-----2-1-----o||
||--0-2-1-2-4-2-1-2-|-0-2-1-2-----2-1------||
|
|   E E E E E E E E   E E E E  E  E E  E
||------------------|----------------------||
||o-----------------|---------------------o||
||------------------|----------------------||
||------------------|---------[2]-----[1]--||
||o-0-2-1-2-4-2-1-2-|-0-2-1-2-----2-1-----o||
||--0-2-1-2-4-2-1-2-|-0-2-1-2-----2-1------||


    D5 E5 Eb5E5   F#5Eb5E5N.C.EbN.C.
    Q  Q  Q  Q    Q  Q  E  E  E  E
||--------------|--------------------||
||o-------------|-------------------o||
||--------------|--------------------||
||--------------|---------[2]---[1]--||
||o-0--2--1--2--|-4--1--2-----1-----o||
||--0--2--1--2--|-4--1--2-----1------||
|
|   Q  Q  Q  Q    Q  Q  E  E  E  E
||--------------|--------------------||
||o-------------|-------------------o||
||--------------|--------------------||
||--------------|---------[2]---[1]--||
||o-0--2--1--2--|-4--1--2-----1-----o||
||--0--2--1--2--|-4--1--2-----1------||


   Breakdown III
    D5                  N.C.
    S S S E. Q  E E E   S S S S S S S S S S S S S  S S  S
||--------------------|-----------------------------------|
||o-------------------|-----------------------------------|
||--------------------|-----------------------------------|
||--------------------|-5-8-5-8---------------------------|
||o-0-0-0-0--0--0-0-0-|---------4-7-4-7-5-8-5-8-7-10-7-10-|
||--0-0-0-0--0--0-0-0-|-----------------------------------|
|
|   S S S E. Q  E E E   S S S S S S S S S S S S S  S S  S
||--------------------|-----------------------------------|
||o-------------------|-----------------------------------|
||--------------------|-----------------------------------|
||--------------------|-5-8-5-8---------------------------|
||o-0-0-0-0--0--0-0-0-|---------4-7-4-7-5-8-5-8-7-10-7-10-|
||--0-0-0-0--0--0-0-0-|-----------------------------------|


  D5                  N.C.
  S S S E. Q  E E E   S S S S S S S S S S S S S S S S
|-------------------|----------------------------------||
|-------------------|---------------------------------o||
|-------------------|----------------------------------||
|-------------------|-5-8-5-8--------------------------||
|-0-0-0-0--0--0-0-0-|---------4-7-4-7-5-8-5-8-1-4-1-4-o||
|-0-0-0-0--0--0-0-0-|----------------------------------||
|
| S S S E. Q  E E E   S S S S S S S S S S S S S S S S
|-------------------|----------------------------------||
|-------------------|---------------------------------o||
|-------------------|----------------------------------||
|-------------------|-5-8-5-8--------------------------||
|-0-0-0-0--0--0-0-0-|---------4-7-4-7-5-8-5-8-1-4-1-4-o||
|-0-0-0-0--0--0-0-0-|----------------------------------||


    D5            N.C.      D5            N.C.
    S S S E. Q  E S S S S   S S S E. Q  E S S S S
||------------------------|-----------------------|
||o-----------------------|-----------------------|
||------------------------|-----------------------|
||------------------------|-----------------------|
||o-0-0-0-0--0--0-5-8-5-8-|-0-0-0-0--0--0-4-7-4-7-|
||--0-0-0-0--0--0---------|-0-0-0-0--0--0---------|
|
|   S S S E. Q  E S S S S   S S S E. Q  E S S S S
||------------------------|-----------------------|
||o-----------------------|-----------------------|
||------------------------|-----------------------|
||------------------------|-----------------------|
||o-0-0-0-0--0--0-5-8-5-8-|-0-0-0-0--0--0-4-7-4-7-|
||--0-0-0-0--0--0---------|-0-0-0-0--0--0---------|


  F             N.C.      F             N.C.
  S S S E. Q  E S S S S   S S S E. Q  E S S S S
|-----------------------|-----------------------|
|-----------------------|-----------------------|
|-----------------------|-----------------------|
|---------------2-5-2-5-|---------------2-3-2-3-|
|-0-0-0-0--0--0---------|-0-0-0-0--0--0---------|
|-3-3-3-3--3--3---------|-3-3-3-3--3--3---------|
|
| S S S E. Q  E S S S S   S S S E. Q  E S S S S
|-----------------------|-----------------------|
|-----------------------|-----------------------|
|-----------------------|-----------------------|
|---------------2-5-2-5-|---------------2-3-2-3-|
|-0-0-0-0--0--0---------|-0-0-0-0--0--0---------|
|-3-3-3-3--3--3---------|-3-3-3-3--3--3---------|


  F5            N.C.      F5            N.C.
  S S S E. Q  E S S S S   S S S E. Q  E S S S S
|-----------------------|-----------------------|
|-----------------------|-----------------------|
|-----------------------|-----------------------|
|---------------3-7-3-7-|---------------3-5-3-5-|
|-3-3-3-3--3--3---------|-3-3-3-3--3--3---------|
|-3-3-3-3--3--3---------|-3-3-3-3--3--3---------|
|
| S S S E. Q  E S S S S   S S S E. Q  E S S S S
|-----------------------|-----------------------|
|-----------------------|-----------------------|
|-----------------------|-----------------------|
|---------------3-7-3-7-|---------------3-5-3-5-|
|-3-3-3-3--3--3---------|-3-3-3-3--3--3---------|
|-3-3-3-3--3--3---------|-3-3-3-3--3--3---------|


  A5            N.C.        C5                  Dm/A
  S S S E. Q  E S  S S  S    S  S  S  E.  Q   E  Q
|-------------------------|-------------------------||
|-------------------------|------------------------o||
|-------------------------|---------------------10--||
|---------------7-10-7-10-|---------------------12--||
|-7-7-7-7--7--7-----------|-10-10-10-10--10--10-12-o||
|-7-7-7-7--7--7-----------|-10-10-10-10--10--10-----||
|
| S S S E. Q  E S  S S  S    S  S  S  E.  Q   E  Q
|-------------------------|-------------------------||
|-------------------------|------------------------o||
|-------------------------|---------------------10--||
|---------------7-10-7-10-|---------------------12--||
|-7-7-7-7--7--7-----------|-10-10-10-10--10--10-12-o||
|-7-7-7-7--7--7-----------|-10-10-10-10--10--10-----||


                Build-up
  Dm/A           N.C.
   +W            S S S S S S S S S S S S S S S S
|-------------||---------------------------------|
|-------------||---------------------------------|
|-(10)--------||---------------------------------|
|-(12)--------||-3-0-3-0-3-0-3-0-2-0-2-0-2-0-2-0-|
|-(12)--------||---------------------------------|
|-------------||---------------------------------|
|
|  +W            S S S S S S S S S S S S S S S S
|-------------||---------------------------------|
|-------------||---------------------------------|
|-(10)--------||---------------------------------|
|-(12)--------||-3-0-3-0-3-0-3-0-2-0-2-0-2-0-2-0-|
|-(12)--------||---------------------------------|
|-------------||---------------------------------|


  S S S S S S S S S S S S S S S S
|-----------------------------------|
|-----------------------------------|
|-----------------------------------|
|-3-0-3-0-3-0-3-0-2-0-2-0-2-0-2-0---|
|-----------------------------------|
|-----------------------------------|
|
| S S S S S S S S S S S S S S S S
|-----------------------------------|
|-----------------------------------|
|-----------------------------------|
|-3-0-3-0-3-0-3-0-2-0-2-0-2-0-2-0---|
|-----------------------------------|
|-----------------------------------|


  N.C.
  S S S S S S S S S S S S S S S S   S S S S S S S S S S S S S S S S
|---------------------------------|---------------------------------|
|---------------------------------|---------------------------------|
|---------------------------------|---------------------------------|
|-5-2-5-2-5-2-5-2-3-2-3-2-3-2-3-2-|-5-2-5-2-5-2-5-2-3-2-3-2-3-2-3-2-|
|---------------------------------|---------------------------------|
|---------------------------------|---------------------------------|
|
| S S S S S S S S S S S S S S S S   S S S S S S S S S S S S S S S S
|---------------------------------|---------------------------------|
|---------------------------------|---------------------------------|
|---------------------------------|---------------------------------|
|-5-2-5-2-5-2-5-2-3-2-3-2-3-2-3-2-|-5-2-5-2-5-2-5-2-3-2-3-2-3-2-3-2-|
|---------------------------------|---------------------------------|
|---------------------------------|---------------------------------|


  N.C.
  S S S S S S S S S S S S S S S S   S S S S S S S S S S S S S S S S
|---------------------------------|---------------------------------|
|---------------------------------|---------------------------------|
|---------------------------------|---------------------------------|
|-7-3-7-3-7-3-7-3-5-3-5-3-5-3-5-3-|-7-3-7-3-7-3-7-3-5-3-5-3-5-3-5-3-|
|---------------------------------|---------------------------------|
|---------------------------------|---------------------------------|
|
| S S S S S S S S S S S S S S S S   S S S S S S S S S S S S S S S S
|---------------------------------|---------------------------------|
|---------------------------------|---------------------------------|
|---------------------------------|---------------------------------|
|-7-3-7-3-7-3-7-3-5-3-5-3-5-3-5-3-|-7-3-7-3-7-3-7-3-5-3-5-3-5-3-5-3-|
|---------------------------------|---------------------------------|
|---------------------------------|---------------------------------|


  N.C.
   S S  S S  S S  S S  S S  S S  S S  S S    W
|-----------------------------------------|--------|
|-----------------------------------------|--------|
|-----------------------------------------|--------|
|-10-7-10-7-10-7-10-7-10-7-10-7-10-7-10-7-|-10-----|
|-----------------------------------------|--------|
|-----------------------------------------|--------|
|
|                                            <
|  S S  S S  S S  S S  S S  S S  S S  S S    W
|-----------------------------------------|--------|
|-----------------------------------------|--------|
|-----------------------------------------|--------|
|-10-7-10-7-10-7-10-7-10-7-10-7-10-7-10-7-|-<5>----|
|-----------------------------------------|--------|
|-----------------------------------------|--------|


                 Outro/ Breakdown IV
  Dm/A  C#m/Ab    D5 F5 E5 Eb5  Ab5 G5 F5 N.C.      E5 N.C.
                                                   2/4
   H     H        Q  Q  Q  Q     Q  Q  Q  S S S S   Q  S S S S
|-------------||--------------|-------------------|-------------||
|-------------||o-------------|-------------------|------------o||
|-10-----9----||--------------|-----------2-5-2-5-|----1-4-1-4--||
|-12----11----||--------------|-------------------|-------------||
|-12----11----||o-0--3--2--1--|-/6--5--3----------|-2----------o||
|-------------||--0--3--2--1--|-/6--5--3----------|-2-----------||
|
|  H     H        Q  Q  Q  Q     Q  Q  Q  S S S S   Q  S S S S
|-------------||--------------|-------------------|-------------||
|-------------||o-------------|-------------------|------------o||
|-10-----9----||--------------|-----------2-5-2-5-|----1-4-1-4--||
|-12----11----||--------------|-------------------|-------------||
|-12----11----||o-0--3--2--1--|-/6--5--3----------|-2----------o||
|-------------||--0--3--2--1--|-/6--5--3----------|-2-----------||


  Q=101
  D5 F5 E5 Eb5  Ab5 G5 F5 N.C.      E5 N.C.    D5 F5
 4/4
  Q  Q  Q  Q     Q  Q  Q  S S S S   Q  S S S S Q  Q
|-------------|-------------------|------------------|
|-------------|-------------------|------------------|
|-------------|-----------2-5-2-5-|----1-4-1-4-------|
|-------------|-------------------|------------------|
|-0--3--2--1--|-/6--5--3----------|-2----------0--3--|
|-0--3--2--1--|-/6--5--3----------|-2----------0--3--|
|
| Q  Q  Q  Q     Q  Q  Q  S S S S   Q  S S S S Q  Q
|-------------|-------------------|------------------|
|-------------|-------------------|------------------|
|-------------|-----------2-5-2-5-|----1-4-1-4-------|
|-------------|-------------------|------------------|
|-0--3--2--1--|-/6--5--3----------|-2----------0--3--|
|-0--3--2--1--|-/6--5--3----------|-2----------0--3--|


  H.=H                             Q=61Q=146
  E5 Eb5Ab5 G5   F5 N.C.    E5 N.C.      D5
  Q  Q   Q  Q    Q  S S S S Q  S S S S   E Q  E H
|--------------|-----------------------|-------------|
|--------------|-----------------------|-------------|
|--------------|----2-5-2-5----1-4-1-4-|-------------|
|--------------|-----------------------|---0---------|
|-2--1--/6--5--|-3----------2----------|-0-0---------|
|-2--1--/6--5--|-3----------2----------|-0-0---------|
|
| Q  Q   Q  Q    Q  S S S S Q  S S S S   E Q  E H
|--------------|-----------------------|-------------|
|--------------|-----------------------|-------------|
|--------------|----2-5-2-5----1-4-1-4-|-------------|
|--------------|-----------------------|---0---------|
|-2--1--/6--5--|-3----------2----------|-0-0---------|
|-2--1--/6--5--|-3----------2----------|-0-0---------|

 Serpents
 Intro          "Oh!"
  Q=146
  N.C.           Bb/DN.C.    BbN.C.    Bb/DN.C.    F5E5D5N.C.
                                          6/8
  Wx2            E E S S S S E S S S S E   S S S S E E E S S   4x
|------------||--------------------------|---------------------||
|------------||o-------------------------|--------------------o||
|------------||--------------------------|---------------------||
|------------||--------------------------|---------------------||
|------------||o-1-1-2-2-2-2-1-1-1-1-1-1-|---------3-2-0-4-4--o||
|------------||--0-0---------0---------0-|-2-2-2-2-3-2-0-------||
|
| Wx2            E E S S S S E S S S S E   S S S S E E E S S   4x
|------------||--------------------------|---------------------||
|------------||o-------------------------|--------------------o||
|------------||--------------------------|---------------------||
|------------||--------------------------|---------------------||
|------------||o-1-1-2-2-2-2-1-1-1-1-1-1-|---------3-2-0-4-4--o||
|------------||--0-0---------0---------0-|-2-2-2-2-3-2-0-------||


   "The serpents lay..."
    E5  EbE5  EbN.C.E5EbE5  E5  EbE5  EbN.C.E5EbE5
   4/4
    S S E S S E  E  E E E   S S E S S E  E  E E E
||------------------------|-----------------------|
||o-----------------------|-----------------------|
||------------------------|-----------------------|
||------------------------|-----------------------|
||o-2-2-1-2-2-1-[2]-2-1-2-|-2-2-1-2-2-1-[2]-2-1-2-|
||--2-2-1-2-2-1-----2-1-2-|-2-2-1-2-2-1-----2-1-2-|
|
|   S S E S S E  E  E E E   S S E S S E  E  E E E
||------------------------|-----------------------|
||o-----------------------|-----------------------|
||------------------------|-----------------------|
||------------------------|-----------------------|
||o-2-2-1-2-2-1-[2]-2-1-2-|-2-2-1-2-2-1-[2]-2-1-2-|
||--2-2-1-2-2-1-----2-1-2-|-2-2-1-2-2-1-----2-1-2-|


  N.C.
  S S S S S S S S S S S S S S S S   S S S S S S S S S S S S S S S S
|---------------------------------|----------------------------------||
|---------------------------------|---------------------------------o||
|---------------------------------|----------------------------------||
|---------------------------------|----------------------------------||
|-----------------2-2---------1-1-|-----------------2-2---------1-1-o||
|-2-2-1-1-2-2-1-1-----2-2-1-1-----|-2-2-1-1-2-2-1-1-----2-2-1-1------||
|
| S S S S S S S S S S S S S S S S   S S S S S S S S S S S S S S S S
|---------------------------------|----------------------------------||
|---------------------------------|---------------------------------o||
|---------------------------------|----------------------------------||
|---------------------------------|----------------------------------||
|-----------------2-2---------1-1-|-----------------2-2---------1-1-o||
|-2-2-1-1-2-2-1-1-----2-2-1-1-----|-2-2-1-1-2-2-1-1-----2-2-1-1------||


    E5  EbE5  Eb5   N.C.E5  Eb5 E5  Eb5   N.C.E5EbE5Eb5
    S S E S S E  E   E  S S E   S S E  E   E  E E E E
||----------------------------|-----------------------|
||o---------------------------|-----------------------|
||----------------------------|-----------------------|
||----------------------------|-----------------------|
||o-2-2-1-2-2-1-[2]-[1]-2-2-1-|-2-2-1-[2]-[1]-2-1-2-1-|
||--2-2-1-2-2-1---------2-2-1-|-2-2-1---------2-1-2-1-|
|
|   S S E S S E  E   E  S S E   S S E  E   E  E E E E
||----------------------------|-----------------------|
||o---------------------------|-----------------------|
||----------------------------|-----------------------|
||----------------------------|-----------------------|
||o-2-2-1-2-2-1-[2]-[1]-2-2-1-|-2-2-1-[2]-[1]-2-1-2-1-|
||--2-2-1-2-2-1---------2-2-1-|-2-2-1---------2-1-2-1-|


  E5  EbE5  Eb5   N.C.E5  Eb5 E5  Eb5   N.C.E5EbE5Eb5
  S S E S S E  E   E  S S E   S S E  E   E  E E E E
|---------------------------|------------------------||
|---------------------------|-----------------------o||
|---------------------------|------------------------||
|-------------[3]-----------|-------[3]--------------||
|-2-2-1-2-2-1-----[2]-2-2-1-|-2-2-1-----[2]-2-1-2-1-o||
|-2-2-1-2-2-1---------2-2-1-|-2-2-1---------2-1-2-1--||
|
| S S E S S E  E   E  S S E   S S E  E   E  E E E E
|---------------------------|------------------------||
|---------------------------|-----------------------o||
|---------------------------|------------------------||
|-------------[3]-----------|-------[3]--------------||
|-2-2-1-2-2-1-----[2]-2-2-1-|-2-2-1-----[2]-2-1-2-1-o||
|-2-2-1-2-2-1---------2-2-1-|-2-2-1---------2-1-2-1--||


   "He, the bastard..."
    N.C.
    S S S S S S S S S S S S S S S S   S S S S S S S S S S S S S S S S
||----------------------------------|----------------------------------|
||o---------------------------------|----------------------------------|
||----------------------------------|----------------------------------|
||----------------------------------|----------------------------------|
||o---------------------------------|---------2-2-2-2-3-3-3-3-3-3-5-5--|
||--3-3-3-3-3-3-3-3-3-3-3-3-3-3-3-3-|-3-3-3-3--------------------------|
|
|   S S S S S S S S S S S S S S S S   S S S S S S S S S S S S S S S S
||----------------------------------|----------------------------------|
||o---------------------------------|----------------------------------|
||----------------------------------|----------------------------------|
||----------------------------------|----------------------------------|
||o---------------------------------|---------2-2-2-2-3-3-3-3-3-3-5-5--|
||--3-3-3-3-3-3-3-3-3-3-3-3-3-3-3-3-|-3-3-3-3--------------------------|


  N.C.
  S S S S S S S S S S S S S S S S   S S S S S S S S S S S S S S S S
|---------------------------------|---------------------------------|
|---------------------------------|---------------------------------|
|---------------------------------|---------------------------------|
|---------------------------------|---------------------------------|
|-3-3-3-3-3-3-3-3-2-2-2-2-2-2-2-2-|-7-7-7-7-7-7-7-7-----------------|
|---------------------------------|-----------------2-2-2-2-2-2-2-2-|
|
| S S S S S S S S S S S S S S S S   S S S S S S S S S S S S S S S S
|---------------------------------|---------------------------------|
|---------------------------------|---------------------------------|
|---------------------------------|---------------------------------|
|---------------------------------|---------------------------------|
|-3-3-3-3-3-3-3-3-2-2-2-2-2-2-2-2-|-7-7-7-7-7-7-7-7-----------------|
|---------------------------------|-----------------2-2-2-2-2-2-2-2-|


  N.C.
  S S S S S S S S S S S S S S S S   S S S S S S S S S S S S S S S S
|---------------------------------|---------------------------------|
|---------------------------------|---------------------------------|
|---------------------------------|---------------------------------|
|---------------------------------|---------------------------------|
|---------------------------------|---------2-2-2-2-3-3-3-3-3-3-5-5-|
|-3-3-3-3-3-3-3-3-3-3-3-3-3-3-3-3-|-3-3-3-3-------------------------|
|
| S S S S S S S S S S S S S S S S   S S S S S S S S S S S S S S S S
|---------------------------------|---------------------------------|
|---------------------------------|---------------------------------|
|---------------------------------|---------------------------------|
|---------------------------------|---------------------------------|
|---------------------------------|---------2-2-2-2-3-3-3-3-3-3-5-5-|
|-3-3-3-3-3-3-3-3-3-3-3-3-3-3-3-3-|-3-3-3-3-------------------------|


  N.C.
  S S S S S S S S S S S S S S S S   S S S S S S S S S S S S S S S S
|---------------------------------|----------------------------------||
|---------------------------------|---------------------------------o||
|---------------------------------|----------------------------------||
|---------------------------------|----------------------------------||
|-8-8-8-8-8-8-8-8-7-7-7-7-7-7-7-7-|-5-5-5-5-5-5-5-5-----------------o||
|---------------------------------|-----------------5-5-5-5-5-5-5-5--||
|
| S S S S S S S S S S S S S S S S   S S S S S S S S S S S S S S S S
|---------------------------------|----------------------------------||
|---------------------------------|---------------------------------o||
|---------------------------------|----------------------------------||
|---------------------------------|----------------------------------||
|-8-8-8-8-8-8-8-8-7-7-7-7-7-7-7-7-|-5-5-5-5-5-5-5-5-----------------o||
|---------------------------------|-----------------5-5-5-5-5-5-5-5--||


   "Genocide, of heaven..."
    Bm/D           N.C.
    E E H    E E   S S S S E S S S S E S S S S
||---------------|-----------------------------|
||o--------------|-----------------------------|
||---------------|-----------------------------|
||---------------|-----------------------------|
||o-2-2-2----2-2-|-2-2-2-2---3-3-3-3---5-5-5-5-|
||--0-0-0----0-0-|---------0---------0---------|
|
|   E E H    E E   S S S S E S S S S E S S S S
||---------------|-----------------------------|
||o--------------|-----------------------------|
||---------------|-----------------------------|
||---------------|-----------------------------|
||o-2-2-2----2-2-|-2-2-2-2---3-3-3-3---5-5-5-5-|
||--0-0-0----0-0-|---------0---------0---------|


  E E H    E E   S S S S E S S S S E S S S S    4x
|--------------|--------------------------------||
|--------------|-------------------------------o||
|--------------|--------------------------------||
|--------------|--------------------------------||
|-2-2-2----2-2-|-5-5-5-5---3-3-3-3---2-2-2-2---o||
|-3-3-3----3-3-|---------3---------3------------||
|
| E E H    E E   S S S S E S S S S E S S S S    4x
|--------------|--------------------------------||
|--------------|-------------------------------o||
|--------------|--------------------------------||
|--------------|--------------------------------||
|-2-2-2----2-2-|-5-5-5-5---3-3-3-3---2-2-2-2---o||
|-3-3-3----3-3-|---------3---------3------------||


   "And when he..."
    F5                                N.C.
    S S S S S S S S S S S S S S S S   S S S S S S S S S S S S S S S S   4x
||----------------------------------|-----------------------------------||
||o---------------------------------|----------------------------------o||
||----------------------------------|-----------------------------------||
||----------------------------------|-----------------------------------||
||o-3-3-3-3-3-3-3-3-3-3-3-3-3-3-3-3-|-2-2-2-2-2-2-2-2------------------o||
||--3-3-3-3-3-3-3-3-3-3-3-3-3-3-3-3-|-----------------2-2-2-2-2-2-2-2---||
|
|   S S S S S S S S S S S S S S S S   S S S S S S S S S S S S S S S S   4x
||----------------------------------|-----------------------------------||
||o---------------------------------|----------------------------------o||
||----------------------------------|-----------------------------------||
||----------------------------------|-----------------------------------||
||o-3-3-3-3-3-3-3-3-3-3-3-3-3-3-3-3-|-2-2-2-2-2-2-2-2------------------o||
||--3-3-3-3-3-3-3-3-3-3-3-3-3-3-3-3-|-----------------2-2-2-2-2-2-2-2---||


                         Q=101
  E5                         N.C.                  F5E5EbF5E5EbF5  E5Eb5
                                                5/4
  E E Q  H      W            E E E E E E S S E   E E E E E E E S S E E   5x
|-------------|----------||--------------------|-------------------------||
|-------------|----------||o-------------------|------------------------o||
|-------------|----------||--------------------|-------------------------||
|-------------|----------||--------------------|-------------------------||
|-2-----------|----------||o-2-1-0-2-1-0-2-2-1-|-0-3-2-1-3-2-1-3-3-2-1--o||
|-2-----------|----------||--3-2-1-3-2-1-3-3-2-|-1-3-2-1-3-2-1-3-3-2-1---||
|
| E E Q  H      W            E E E E E E S S E   E E E E E E E S S E E   5x
|-------------|----------||--------------------|-------------------------||
|-------------|----------||o-------------------|------------------------o||
|-------------|----------||--------------------|-------------------------||
|-------------|----------||--------------------|-------------------------||
|-2-----------|----------||o-2-1-0-2-1-0-2-2-1-|-0-3-2-1-3-2-1-3-3-2-1--o||
|-2-----------|----------||--3-2-1-3-2-1-3-3-2-|-1-3-2-1-3-2-1-3-3-2-1---||


   "The bastard son..."
    Q=146
    Bb/DN.C.    Bb/DN.C.  Bb/DN.C.    F5E5D5  N.C.  F5E5D5G5F5E5     D5
   4/4                       6/8                   4/4
    E E S S S S E S S S S E   S S S S E E E S S  4x E E E E E E Q    W
||--------------------------|--------------------||----------------|------|
||o-------------------------|-------------------o||----------------|------|
||--------------------------|--------------------||----------------|------|
||--------------------------|--------------------||----------------|-0----|
||o-1-1-2-2-2-2-1-1-1-1-1-1-|---------3-2-0-4-4-o||-3-2-0-5-3-2----|-0----|
||--0-0---------0---------0-|-2-2-2-2-3-2-0------||-3-2-0-5-3-2----|-0----|
|
|   E E S S S S E S S S S E   S S S S E E E S S  4x E E E E E E Q    W
||--------------------------|--------------------||----------------|------|
||o-------------------------|-------------------o||----------------|------|
||--------------------------|--------------------||----------------|------|
||--------------------------|--------------------||----------------|-0----|
||o-1-1-2-2-2-2-1-1-1-1-1-1-|---------3-2-0-4-4-o||-3-2-0-5-3-2----|-0----|
||--0-0---------0---------0-|-2-2-2-2-3-2-0------||-3-2-0-5-3-2----|-0----|


  D5             N.C.     B5/F# Bb5A5/G5 F#5
  +W             Q  Q  Q   Q    Q  Q  Q  Q
|------------||---------------|-------------|
|------------||o--------------|-------------|
|------------||---------------|-------------|
|-(0)--------||---------------|-------------|
|-(0)--------||o-2--1--0--/2--|-1--0--5--4--|
|-(0)--------||--3--2--1--/4--|-3--2--5--4--|
|
| +W             Q  Q  Q   Q    Q  Q  Q  Q
|------------||---------------|-------------|
|------------||o--------------|-------------|
|------------||---------------|-------------|
|-(0)--------||---------------|-------------|
|-(0)--------||o-2--1--0--/2--|-1--0--5--4--|
|-(0)--------||--3--2--1--/4--|-3--2--5--4--|


  N.C.                B5/FBb5/FA5/G5 F#5F5
   ~~~
   H.      Q    Q  Q   Q  Q    Q  Q  Q  Q    4x
|-------------|--------------|---------------||
|-------------|--------------|--------------o||
|-------------|--------------|---------------||
|-------------|--------------|---------------||
|-[2]------2--|-1--0--/2--1--|-0--5--4--3---o||
|----------3--|-2--1--/4--3--|-2--5--4--3----||
|
|  ~~~
|  H.      Q    Q  Q   Q  Q    Q  Q  Q  Q    4x
|-------------|--------------|---------------||
|-------------|--------------|--------------o||
|-------------|--------------|---------------||
|-------------|--------------|---------------||
|-[2]------2--|-1--0--/2--1--|-0--5--4--3---o||
|----------3--|-2--1--/4--3--|-2--5--4--3----||


   "He calls my..."
    F5                                N.C.
    S S S S S S S S S S S S S S S S   S S S S S S S S S S S S S S S S   4x
||----------------------------------|-----------------------------------||
||o---------------------------------|----------------------------------o||
||----------------------------------|-----------------------------------||
||----------------------------------|-----------------------------------||
||o-3-3-3-3-3-3-3-3-3-3-3-3-3-3-3-3-|-2-2-2-2-2-2-2-2------------------o||
||--3-3-3-3-3-3-3-3-3-3-3-3-3-3-3-3-|-----------------2-2-2-2-2-2-2-2---||
|
|   S S S S S S S S S S S S S S S S   S S S S S S S S S S S S S S S S   4x
||----------------------------------|-----------------------------------||
||o---------------------------------|----------------------------------o||
||----------------------------------|-----------------------------------||
||----------------------------------|-----------------------------------||
||o-3-3-3-3-3-3-3-3-3-3-3-3-3-3-3-3-|-2-2-2-2-2-2-2-2------------------o||
||--3-3-3-3-3-3-3-3-3-3-3-3-3-3-3-3-|-----------------2-2-2-2-2-2-2-2---||


  N.C.
  W            S S S S S S S S S S S S S S S S
|----------||----------------------------------|
|----------||o---------------------------------|
|----------||----------------------------------|
|----------||----------------------------------|
|----------||o---------------------------------|
|----------||--3-3-3-3-3-3-3-3-3-3-3-3-3-3-3-3-|
|
| W            S S S S S S S S S S S S S S S S
|----------||----------------------------------|
|----------||o---------------------------------|
|----------||----------------------------------|
|----------||----------------------------------|
|----------||o---------------------------------|
|----------||--3-3-3-3-3-3-3-3-3-3-3-3-3-3-3-3-|


  S S S S S S S S S S S S S S S S
|-----------------------------------|
|-----------------------------------|
|-----------------------------------|
|-----------------------------------|
|-----------------------------------|
|-6-6-6-6-6-6-6-6-5-5-5-5-5-5-5-5---|
|
| S S S S S S S S S S S S S S S S
|-----------------------------------|
|-----------------------------------|
|-----------------------------------|
|-----------------------------------|
|-----------------------------------|
|-6-6-6-6-6-6-6-6-5-5-5-5-5-5-5-5---|


  N.C.                              F#5F5 E5F5 E5 Eb5
  S S S S S S S S S S S S S S S S   E. E. E E. E. E  4x
|---------------------------------|------------------||
|---------------------------------|-----------------o||
|---------------------------------|------------------||
|---------------------------------|------------------||
|---------------------------------|-4--3--2-3--2--1-o||
|-2-2-2-2-2-2-2-2-2-2-2-2-2-2-2-2-|-4--3--2-3--2--1--||
|
| S S S S S S S S S S S S S S S S   E. E. E E. E. E  4x
|---------------------------------|------------------||
|---------------------------------|-----------------o||
|---------------------------------|------------------||
|---------------------------------|------------------||
|---------------------------------|-4--3--2-3--2--1-o||
|-2-2-2-2-2-2-2-2-2-2-2-2-2-2-2-2-|-4--3--2-3--2--1--||


   "He burns our..."
    F5         Ab5  G5     E5
    W          H    H      W          +W
||-----------|-----------|----------|---------||
||o----------|-----------|----------|--------o||
||-----------|-----------|----------|---------||
||--3--------|-6----5----|-2--------|-(2)-----||
||o-3--------|-6----5----|-2--------|-(2)----o||
||--3--------|-6----5----|-2--------|-(2)-----||
|
|   W          H    H      W          +W
||-----------|-----------|----------|---------||
||o----------|-----------|----------|--------o||
||-----------|-----------|----------|---------||
||--3--------|-6----5----|-2--------|-(2)-----||
||o-3--------|-6----5----|-2--------|-(2)----o||
||--3--------|-6----5----|-2--------|-(2)-----||


    F5                         Ab5          G5
     W                          H           H
||---------------------------|--------------------------|
||o--------------------------|--------------------------|
||---------------------------|--------------------------|
||---3-----------------------|--6-----------5-----------|
||o--3-----------------------|--6-----------5-----------|
||---3-----------------------|--6-----------5-----------|
|
|    |-3-| |-3-| |-3-| |-3-|    |-3-| |-3-| |-3-| |-3-|
|    E E E E E E E E E E E E    E E E E E E E E E E E E
||---------------------------|--------------------------|
||o--------------------------|--------------------------|
||--10-4-0-9-4-0-7-4-0-9-4-0-|-10-4-0-9-4-0-7-4-0-9-4-0-|
||---------------------------|--------------------------|
||o--------------------------|--------------------------|
||---------------------------|--------------------------|


  E5
   W                         +W
|--------------------------|------------------------------||
|--------------------------|-----------------------------o||
|--------------------------|------------------------------||
|--2-----------------------|-(2)--------------------------||
|--2-----------------------|-(2)-------------------------o||
|--2-----------------------|-(2)--------------------------||
|
|  |-3-| |-3-| |-3-| |-3-|    |-3--| |-3-| |-3-| |-3-|
|  E E E E E E E E E E E E    E  E E E E E E E E E E E
|--------------------------|------------------------------||
|--------------------------|-----------------------------o||
|-10-4-0-9-4-0-7-4-0-9-4-0-|-10--4-0-9-4-0-7-4-0-9-4-0----||
|--------------------------|------------------------------||
|--------------------------|-----------------------------o||
|--------------------------|------------------------------||


   "The earth is..."
    F5                         Ab5           G5
     W                          H            H
||---------------------------|---------------------------|
||o--------------------------|---------------------------|
||---------------------------|---------------------------|
||---3-----------------------|--6------------5-----------|
||o--3-----------------------|--6------------5-----------|
||---3-----------------------|--6------------5-----------|
|
|    |-3-| |-3-| |-3-| |-3-|    |-3-|  |-3-| |-3-| |-3-|
|    E E E E E E E E E E E E    E E E  E E E E E E E E E
||---------------------------|---------------------------|
||o--------------------------|---------------------------|
||--10-4-0-9-4-0-7-4-0-9-4-0-|-12-4-0-10-4-0-9-4-0-7-4-0-|
||---------------------------|---------------------------|
||o--------------------------|---------------------------|
||---------------------------|---------------------------|


  E5
   W                         +W
|--------------------------|-------------------------------||
|--------------------------|------------------------------o||
|--------------------------|-------------------------------||
|--2-----------------------|-(2)---------------------------||
|--2-----------------------|-(2)--------------------------o||
|--2-----------------------|-(2)---------------------------||
|
|  |-3-| |-3-| |-3-| |-3-|    |-3--|  |-3-| |-3-| |-3-|
|  E E E E E E E E E E E E    E  E E  E E E E E E E E E
|--------------------------|-------------------------------||
|--------------------------|------------------------------o||
|-10-4-0-9-4-0-7-4-0-9-4-0-|-12--4-0-10-4-0-9-4-0-7-4-0----||
|--------------------------|-------------------------------||
|--------------------------|------------------------------o||
|--------------------------|-------------------------------||


  D5
  W              +W           +W           +W
|--------------|------------|------------|--------*|
|--------------|------------|------------|--------*|
|-7------------|-(7)--------|-(7)--------|-(7)----*|
|--------------|------------|------------|--------*|
|--------------|------------|------------|--------*|
|--------------|------------|------------|--------*|
|
| Q  H    +Q     +W           +W           +W
|--------------|------------|------------|--------*|
|--------------|------------|------------|--------*|
|--------------|------------|------------|--------*|
|----0----(0)--|-(0)--------|-(0)--------|-(0)----*|
|----0----(0)--|-(0)--------|-(0)--------|-(0)----*|
|----0----(0)--|-(0)--------|-(0)--------|-(0)----*|


Duration Legend
---------------
W - whole; H - half; Q - quarter; E - 8th; S - 16th; T - 32nd; X - 64th; a - acciaccatura
+ - note tied to previous; . - note dotted; .. - note double dotted
Uncapitalized letters represent notes that are staccato (1/2 duration)
Irregular groupings are notated above the duration line
Duration letters will always appear directly above the note/fret number it represents the
duration for.  Duration letters with no fret number below them represent rests.  Multi-
bar rests are notated in the form Wxn, where n is the number of bars to rest for.  Low
melody durations appear below the staff

Tablature Legend
----------------
 h   - hammer-on
 p   - pull-off
 b   - bend
 pb  - pre-bend
 r   - bend release (if no number after the r, then release immediately)
 /\  - slide into or out of (from/to "nowhere")
 s   - legato slide
 S   - shift slide
<n>  - natural harmonic
[n]  - artificial harmonic
n(n) - tapped harmonic
 ~   - vibrato
 tr  - trill
 T   - tap
 TP  - trem. picking
 PM  - palm muting
\n/  - tremolo bar dip; n = amount to dip
 \n  - tremolo bar down
 n/  - tremolo bar up
/n\  - tremolo bar inverted dip
 =   - hold bend; also acts as connecting device for hammers/pulls
 <>  - volume swell (louder/softer)
 x   - on rhythm slash represents muted slash
 o   - on rhythm slash represents single note slash

Misc Legend
-----------
 |  - bar
||  - double bar
||o - repeat start
o|| - repeat end
*|  - double bar (ending)
 :  - bar (freetime)
 $  - Segno
 &  - Coda
Tempo markers - <E/E./Q/Q./H/H.> = BPM(8/16=s8/s16), where s8 = swing 8ths, s16 = swing 16th
comments
We did not receive enough feedback on this tab! Please rate:
print report bad tab
1 2 3 4 5
4 comments total. Showing first comments.
0 reply
Shredder Guitar wrote on July 22 2008, 08:08 pm

i havent looked through to see if the Serpents tab is correct at all... but FINALLY. thats my favorite AOAA song. thanks man

0 reply
alexmonty12 wrote on August 29 2008, 07:28 pm

No Years of Disgust?

0 reply
patsyxcore wrote on August 29 2008, 08:27 pm

Years of Disgust isn't on Welcome to Sludge City, I'll probably tab that song out pretty soon though

I want to post or [tab]
guest
You may want to rate the tab now too:
select rating
Please do not post tabs as comments. Select "correction" instead!